  0
SECTION
  2
HEADER
  9
$ACADVER
  1
AC1006
  9
$EXTMIN
 10
-3.686618
 20
-4.685272
  9
$EXTMAX
 10
2.966598
 20
5.134118
  9
$LTSCALE
 40
0.000394
  9
$PDMODE
 70
    35
  9
$PDSIZE
 40
0.000315
  0
ENDSEC
  0
SECTION
  2
TABLES
  0
TABLE
  2
LTYPE
 70
     9
  0
LTYPE
  2
CONTINUOUS
 70
    64
  3
Solid line
 72
    65
 73
     0
 40
0.000000
  0
LTYPE
  2
DASHED
 70
    64
  3
__ __ __ __ __ __ __ __ __ __ __ __ __ __ __
 72
    65
 73
     2
 40
0.000003
 49
0.000002
 49
-0.000001
  0
LTYPE
  2
HIDDEN
 70
    64
  3
 _ _ _ _ _ _ _ _ _ _ _ _ _ _ _ _ _ _ _ _ _ _
 72
    65
 73
     2
 40
0.000001
 49
0.000001
 49
-0.000000
  0
LTYPE
  2
CENTER
 70
    64
  3
____ _ ____ _ ____ _ ____ _ ____ _ ____ _ ____
 72
    65
 73
     4
 40
0.000008
 49
0.000005
 49
-0.000001
 49
0.000001
 49
-0.000001
  0
LTYPE
  2
PHANTOM
 70
    64
  3
_____ _ _ _____ _ _ _____ _ _ _____ _ _ ____
 72
    65
 73
     6
 40
0.000010
 49
0.000005
 49
-0.000001
 49
0.000001
 49
-0.000001
 49
0.000001
 49
-0.000001
  0
LTYPE
  2
DOT
 70
    64
  3
...............................................
 72
    65
 73
     2
 40
0.000001
 49
0.000000
 49
-0.000001
  0
LTYPE
  2
DASHDOT
 70
    64
  3
__ . __ . __ . __ . __ . __ . __ . __ . __ . __
 72
    65
 73
     4
 40
0.000004
 49
0.000002
 49
-0.000001
 49
0.000000
 49
-0.000001
  0
LTYPE
  2
BORDER
 70
    64
  3
__ __ . __ __ . __ __ . __ __ . __ __ . __ __
 72
    65
 73
     6
 40
0.000007
 49
0.000002
 49
-0.000001
 49
0.000002
 49
-0.000001
 49
0.000000
 49
-0.000001
  0
LTYPE
  2
DIVIDE
 70
    64
  3
__ . . __ . . __ . . __ . . __ . . __ . . __
 72
    65
 73
     6
 40
0.000005
 49
0.000002
 49
-0.000001
 49
0.000000
 49
-0.000001
 49
0.000000
 49
-0.000001
  0
LTYPE
  2
DOTDOT
 70
    64
  3
 . .  . .  . .  . .  . .  . . 
 72
    65
 73
     5
 40
0.000002
 49
-0.000001
 49
0.000000
 49
-0.000001
 49
0.000000
 49
-0.000001
  0
ENDTAB
  0
TABLE
  2
STYLE
 70
     2
  0
STYLE
 70
     0
  2
SN0
 40
0.000000
 41
0.000004
 50
0.000000
 71
     0
 42
0.000000
  3
SCRIPTS
  0
STYLE
 70
    68
  2
SV0
 40
0.000000
 41
0.000004
 50
0.000000
 71
     0
 42
0.000000
  3
SCRIPTS
  0
ENDTAB
  0
TABLE
  2
LAYER
 70
     3
  0
LAYER
  2
FOREGROUND
 70
    64
 62
     7
  6
CONTINUOUS
  0
LAYER
  2
BACKGROUND
 70
    65
 62
    -7
  6
CONTINUOUS
  0
LAYER
  2
EBENE_1
 70
    64
 62
     7
  6
CONTINUOUS
  0
ENDTAB
  0
ENDSEC
  0
SECTION
  2
ENTITIES
  0
POLYLINE
  8
EBENE_1
 62
    39
  6
CONTINUOUS
 66
     1
 40
0.003000
 41
0.003000
 70
     1
  0
VERTEX
  8
EBENE_1
 62
    39
  6
CONTINUOUS
 10
-0.489965
 20
-1.377925
  0
VERTEX
  8
EBENE_1
 62
    39
  6
CONTINUOUS
 10
-0.193169
 20
-2.271264
  0
VERTEX
  8
EBENE_1
 62
    39
  6
CONTINUOUS
 10
-0.723307
 20
-2.285917
  0
VERTEX
  8
EBENE_1
 62
    39
  6
CONTINUOUS
 10
-0.754938
 20
-2.283165
  0
VERTEX
  8
EBENE_1
 62
    39
  6
CONTINUOUS
 10
-0.789959
 20
-2.275200
  0
VERTEX
  8
EBENE_1
 62
    39
  6
CONTINUOUS
 10
-0.827835
 20
-2.262183
  0
VERTEX
  8
EBENE_1
 62
    39
  6
CONTINUOUS
 10
-0.868033
 20
-2.244276
  0
VERTEX
  8
EBENE_1
 62
    39
  6
CONTINUOUS
 10
-0.910019
 20
-2.221642
  0
VERTEX
  8
EBENE_1
 62
    39
  6
CONTINUOUS
 10
-0.953259
 20
-2.194443
  0
VERTEX
  8
EBENE_1
 62
    39
  6
CONTINUOUS
 10
-0.997220
 20
-2.162839
  0
VERTEX
  8
EBENE_1
 62
    39
  6
CONTINUOUS
 10
-1.041367
 20
-2.126994
  0
VERTEX
  8
EBENE_1
 62
    39
  6
CONTINUOUS
 10
-1.085168
 20
-2.087069
  0
VERTEX
  8
EBENE_1
 62
    39
  6
CONTINUOUS
 10
-1.128088
 20
-2.043226
  0
VERTEX
  8
EBENE_1
 62
    39
  6
CONTINUOUS
 10
-1.169594
 20
-1.995628
  0
VERTEX
  8
EBENE_1
 62
    39
  6
CONTINUOUS
 10
-1.209152
 20
-1.944435
  0
VERTEX
  8
EBENE_1
 62
    39
  6
CONTINUOUS
 10
-1.246228
 20
-1.889810
  0
VERTEX
  8
EBENE_1
 62
    39
  6
CONTINUOUS
 10
-1.280288
 20
-1.831916
  0
VERTEX
  8
EBENE_1
 62
    39
  6
CONTINUOUS
 10
-1.310799
 20
-1.770913
  0
VERTEX
  8
EBENE_1
 62
    39
  6
CONTINUOUS
 10
-1.337228
 20
-1.706964
  0
VERTEX
  8
EBENE_1
 62
    39
  6
CONTINUOUS
 10
-1.359039
 20
-1.640231
  0
VERTEX
  8
EBENE_1
 62
    39
  6
CONTINUOUS
 10
-1.375700
 20
-1.570875
  0
VERTEX
  8
EBENE_1
 62
    39
  6
CONTINUOUS
 10
-1.386677
 20
-1.499059
  0
VERTEX
  8
EBENE_1
 62
    39
  6
CONTINUOUS
 10
-1.386677
 20
-1.499059
  0
VERTEX
  8
EBENE_1
 62
    39
  6
CONTINUOUS
 10
-1.374783
 20
-1.414009
  0
VERTEX
  8
EBENE_1
 62
    39
  6
CONTINUOUS
 10
-1.346667
 20
-1.345082
  0
VERTEX
  8
EBENE_1
 62
    39
  6
CONTINUOUS
 10
-1.305537
 20
-1.293607
  0
VERTEX
  8
EBENE_1
 62
    39
  6
CONTINUOUS
 10
-1.254598
 20
-1.260912
  0
VERTEX
  8
EBENE_1
 62
    39
  6
CONTINUOUS
 10
-1.197059
 20
-1.248327
  0
VERTEX
  8
EBENE_1
 62
    39
  6
CONTINUOUS
 10
-0.644496
 20
-1.229031
  0
VERTEX
  8
EBENE_1
 62
    39
  6
CONTINUOUS
 10
-0.571976
 20
-1.241773
  0
VERTEX
  8
EBENE_1
 62
    39
  6
CONTINUOUS
 10
-0.537300
 20
-1.278876
  0
VERTEX
  8
EBENE_1
 62
    39
  6
CONTINUOUS
 10
-0.517589
 20
-1.328281
  0
SEQEND
  8
0
  0
POLYLINE
  8
EBENE_1
 62
    39
  6
CONTINUOUS
 66
     1
 40
0.003000
 41
0.003000
 70
     1
  0
VERTEX
  8
EBENE_1
 62
    39
  6
CONTINUOUS
 10
-1.133134
 20
-0.629961
  0
VERTEX
  8
EBENE_1
 62
    39
  6
CONTINUOUS
 10
-0.836339
 20
-1.523299
  0
VERTEX
  8
EBENE_1
 62
    39
  6
CONTINUOUS
 10
-1.366476
 20
-1.537953
  0
VERTEX
  8
EBENE_1
 62
    39
  6
CONTINUOUS
 10
-1.398108
 20
-1.535200
  0
VERTEX
  8
EBENE_1
 62
    39
  6
CONTINUOUS
 10
-1.433128
 20
-1.527234
  0
VERTEX
  8
EBENE_1
 62
    39
  6
CONTINUOUS
 10
-1.471004
 20
-1.514217
  0
VERTEX
  8
EBENE_1
 62
    39
  6
CONTINUOUS
 10
-1.511202
 20
-1.496310
  0
VERTEX
  8
EBENE_1
 62
    39
  6
CONTINUOUS
 10
-1.553188
 20
-1.473675
  0
VERTEX
  8
EBENE_1
 62
    39
  6
CONTINUOUS
 10
-1.596428
 20
-1.446476
  0
VERTEX
  8
EBENE_1
 62
    39
  6
CONTINUOUS
 10
-1.640389
 20
-1.414872
  0
VERTEX
  8
EBENE_1
 62
    39
  6
CONTINUOUS
 10
-1.684537
 20
-1.379027
  0
VERTEX
  8
EBENE_1
 62
    39
  6
CONTINUOUS
 10
-1.728337
 20
-1.339102
  0
VERTEX
  8
EBENE_1
 62
    39
  6
CONTINUOUS
 10
-1.771258
 20
-1.295259
  0
VERTEX
  8
EBENE_1
 62
    39
  6
CONTINUOUS
 10
-1.812763
 20
-1.247660
  0
VERTEX
  8
EBENE_1
 62
    39
  6
CONTINUOUS
 10
-1.852321
 20
-1.196468
  0
VERTEX
  8
EBENE_1
 62
    39
  6
CONTINUOUS
 10
-1.889397
 20
-1.141843
  0
VERTEX
  8
EBENE_1
 62
    39
  6
CONTINUOUS
 10
-1.923458
 20
-1.083949
  0
VERTEX
  8
EBENE_1
 62
    39
  6
CONTINUOUS
 10
-1.953969
 20
-1.022946
  0
VERTEX
  8
EBENE_1
 62
    39
  6
CONTINUOUS
 10
-1.980397
 20
-0.958998
  0
VERTEX
  8
EBENE_1
 62
    39
  6
CONTINUOUS
 10
-2.002208
 20
-0.892265
  0
VERTEX
  8
EBENE_1
 62
    39
  6
CONTINUOUS
 10
-2.018870
 20
-0.822910
  0
VERTEX
  8
EBENE_1
 62
    39
  6
CONTINUOUS
 10
-2.029846
 20
-0.751094
  0
VERTEX
  8
EBENE_1
 62
    39
  6
CONTINUOUS
 10
-2.029846
 20
-0.751094
  0
VERTEX
  8
EBENE_1
 62
    39
  6
CONTINUOUS
 10
-2.017952
 20
-0.666044
  0
VERTEX
  8
EBENE_1
 62
    39
  6
CONTINUOUS
 10
-1.989837
 20
-0.597116
  0
VERTEX
  8
EBENE_1
 62
    39
  6
CONTINUOUS
 10
-1.948706
 20
-0.545641
  0
VERTEX
  8
EBENE_1
 62
    39
  6
CONTINUOUS
 10
-1.897768
 20
-0.512946
  0
VERTEX
  8
EBENE_1
 62
    39
  6
CONTINUOUS
 10
-1.840228
 20
-0.500362
  0
VERTEX
  8
EBENE_1
 62
    39
  6
CONTINUOUS
 10
-1.287665
 20
-0.481063
  0
VERTEX
  8
EBENE_1
 62
    39
  6
CONTINUOUS
 10
-1.215147
 20
-0.493806
  0
VERTEX
  8
EBENE_1
 62
    39
  6
CONTINUOUS
 10
-1.180470
 20
-0.530909
  0
VERTEX
  8
EBENE_1
 62
    39
  6
CONTINUOUS
 10
-1.160758
 20
-0.580314
  0
SEQEND
  8
0
  0
POLYLINE
  8
EBENE_1
 62
    39
  6
CONTINUOUS
 66
     1
 40
0.003000
 41
0.003000
 70
     1
  0
VERTEX
  8
EBENE_1
 62
    39
  6
CONTINUOUS
 10
0.241693
 20
-1.377453
  0
VERTEX
  8
EBENE_1
 62
    39
  6
CONTINUOUS
 10
0.507130
 20
-2.280606
  0
VERTEX
  8
EBENE_1
 62
    39
  6
CONTINUOUS
 10
-0.182142
 20
-2.289531
  0
VERTEX
  8
EBENE_1
 62
    39
  6
CONTINUOUS
 10
-0.213658
 20
-2.285677
  0
VERTEX
  8
EBENE_1
 62
    39
  6
CONTINUOUS
 10
-0.248379
 20
-2.276494
  0
VERTEX
  8
EBENE_1
 62
    39
  6
CONTINUOUS
 10
-0.285778
 20
-2.262163
  0
VERTEX
  8
EBENE_1
 62
    39
  6
CONTINUOUS
 10
-0.325327
 20
-2.242864
  0
VERTEX
  8
EBENE_1
 62
    39
  6
CONTINUOUS
 10
-0.366498
 20
-2.218779
  0
VERTEX
  8
EBENE_1
 62
    39
  6
CONTINUOUS
 10
-0.408763
 20
-2.190086
  0
VERTEX
  8
EBENE_1
 62
    39
  6
CONTINUOUS
 10
-0.451594
 20
-2.156968
  0
VERTEX
  8
EBENE_1
 62
    39
  6
CONTINUOUS
 10
-0.494464
 20
-2.119604
  0
VERTEX
  8
EBENE_1
 62
    39
  6
CONTINUOUS
 10
-0.536845
 20
-2.078174
  0
VERTEX
  8
EBENE_1
 62
    39
  6
CONTINUOUS
 10
-0.578209
 20
-2.032860
  0
VERTEX
  8
EBENE_1
 62
    39
  6
CONTINUOUS
 10
-0.618029
 20
-1.983842
  0
VERTEX
  8
EBENE_1
 62
    39
  6
CONTINUOUS
 10
-0.655776
 20
-1.931300
  0
VERTEX
  8
EBENE_1
 62
    39
  6
CONTINUOUS
 10
-0.690923
 20
-1.875415
  0
VERTEX
  8
EBENE_1
 62
    39
  6
CONTINUOUS
 10
-0.722942
 20
-1.816367
  0
VERTEX
  8
EBENE_1
 62
    39
  6
CONTINUOUS
 10
-0.751306
 20
-1.754336
  0
VERTEX
  8
EBENE_1
 62
    39
  6
CONTINUOUS
 10
-0.775486
 20
-1.689504
  0
VERTEX
  8
EBENE_1
 62
    39
  6
CONTINUOUS
 10
-0.794956
 20
-1.622050
  0
VERTEX
  8
EBENE_1
 62
    39
  6
CONTINUOUS
 10
-0.809186
 20
-1.552155
  0
VERTEX
  8
EBENE_1
 62
    39
  6
CONTINUOUS
 10
-0.817650
 20
-1.480000
  0
VERTEX
  8
EBENE_1
 62
    39
  6
CONTINUOUS
 10
-0.817650
 20
-1.480000
  0
VERTEX
  8
EBENE_1
 62
    39
  6
CONTINUOUS
 10
-0.802794
 20
-1.395417
  0
VERTEX
  8
EBENE_1
 62
    39
  6
CONTINUOUS
 10
-0.772289
 20
-1.327513
  0
VERTEX
  8
EBENE_1
 62
    39
  6
CONTINUOUS
 10
-0.729388
 20
-1.277505
  0
VERTEX
  8
EBENE_1
 62
    39
  6
CONTINUOUS
 10
-0.677340
 20
-1.246608
  0
VERTEX
  8
EBENE_1
 62
    39
  6
CONTINUOUS
 10
-0.619398
 20
-1.236039
  0
VERTEX
  8
EBENE_1
 62
    39
  6
CONTINUOUS
 10
0.092453
 20
-1.236039
  0
VERTEX
  8
EBENE_1
 62
    39
  6
CONTINUOUS
 10
0.164483
 20
-1.249307
  0
VERTEX
  8
EBENE_1
 62
    39
  6
CONTINUOUS
 10
0.197844
 20
-1.283204
  0
VERTEX
  8
EBENE_1
 62
    39
  6
CONTINUOUS
 10
0.215819
 20
-1.328872
  0
SEQEND
  8
0
  0
POLYLINE
  8
EBENE_1
 62
    39
  6
CONTINUOUS
 66
     1
 40
0.003000
 41
0.003000
 70
     1
  0
VERTEX
  8
EBENE_1
 62
    39
  6
CONTINUOUS
 10
-0.401476
 20
-0.629488
  0
VERTEX
  8
EBENE_1
 62
    39
  6
CONTINUOUS
 10
-0.136039
 20
-1.532642
  0
VERTEX
  8
EBENE_1
 62
    39
  6
CONTINUOUS
 10
-0.825311
 20
-1.541567
  0
VERTEX
  8
EBENE_1
 62
    39
  6
CONTINUOUS
 10
-0.856827
 20
-1.537712
  0
VERTEX
  8
EBENE_1
 62
    39
  6
CONTINUOUS
 10
-0.891549
 20
-1.528529
  0
VERTEX
  8
EBENE_1
 62
    39
  6
CONTINUOUS
 10
-0.928948
 20
-1.514198
  0
VERTEX
  8
EBENE_1
 62
    39
  6
CONTINUOUS
 10
-0.968496
 20
-1.494900
  0
VERTEX
  8
EBENE_1
 62
    39
  6
CONTINUOUS
 10
-1.009667
 20
-1.470814
  0
VERTEX
  8
EBENE_1
 62
    39
  6
CONTINUOUS
 10
-1.051932
 20
-1.442122
  0
VERTEX
  8
EBENE_1
 62
    39
  6
CONTINUOUS
 10
-1.094763
 20
-1.409003
  0
VERTEX
  8
EBENE_1
 62
    39
  6
CONTINUOUS
 10
-1.137633
 20
-1.371639
  0
VERTEX
  8
EBENE_1
 62
    39
  6
CONTINUOUS
 10
-1.180014
 20
-1.330210
  0
VERTEX
  8
EBENE_1
 62
    39
  6
CONTINUOUS
 10
-1.221378
 20
-1.284896
  0
VERTEX
  8
EBENE_1
 62
    39
  6
CONTINUOUS
 10
-1.261198
 20
-1.235877
  0
VERTEX
  8
EBENE_1
 62
    39
  6
CONTINUOUS
 10
-1.298945
 20
-1.183335
  0
VERTEX
  8
EBENE_1
 62
    39
  6
CONTINUOUS
 10
-1.334092
 20
-1.127450
  0
VERTEX
  8
EBENE_1
 62
    39
  6
CONTINUOUS
 10
-1.366112
 20
-1.068402
  0
VERTEX
  8
EBENE_1
 62
    39
  6
CONTINUOUS
 10
-1.394475
 20
-1.006371
  0
VERTEX
  8
EBENE_1
 62
    39
  6
CONTINUOUS
 10
-1.418656
 20
-0.941539
  0
VERTEX
  8
EBENE_1
 62
    39
  6
CONTINUOUS
 10
-1.438125
 20
-0.874085
  0
VERTEX
  8
EBENE_1
 62
    39
  6
CONTINUOUS
 10
-1.452355
 20
-0.804191
  0
VERTEX
  8
EBENE_1
 62
    39
  6
CONTINUOUS
 10
-1.460819
 20
-0.732035
  0
VERTEX
  8
EBENE_1
 62
    39
  6
CONTINUOUS
 10
-1.460819
 20
-0.732035
  0
VERTEX
  8
EBENE_1
 62
    39
  6
CONTINUOUS
 10
-1.445963
 20
-0.647452
  0
VERTEX
  8
EBENE_1
 62
    39
  6
CONTINUOUS
 10
-1.415459
 20
-0.579547
  0
VERTEX
  8
EBENE_1
 62
    39
  6
CONTINUOUS
 10
-1.372557
 20
-0.529538
  0
VERTEX
  8
EBENE_1
 62
    39
  6
CONTINUOUS
 10
-1.320509
 20
-0.498640
  0
VERTEX
  8
EBENE_1
 62
    39
  6
CONTINUOUS
 10
-1.262567
 20
-0.488071
  0
VERTEX
  8
EBENE_1
 62
    39
  6
CONTINUOUS
 10
-0.550717
 20
-0.488071
  0
VERTEX
  8
EBENE_1
 62
    39
  6
CONTINUOUS
 10
-0.478686
 20
-0.501339
  0
VERTEX
  8
EBENE_1
 62
    39
  6
CONTINUOUS
 10
-0.445326
 20
-0.535237
  0
VERTEX
  8
EBENE_1
 62
    39
  6
CONTINUOUS
 10
-0.427351
 20
-0.580907
  0
SEQEND
  8
0
  0
POLYLINE
  8
EBENE_1
 62
    39
  6
CONTINUOUS
 66
     1
 40
0.003000
 41
0.003000
 70
     1
  0
VERTEX
  8
EBENE_1
 62
    39
  6
CONTINUOUS
 10
-1.037465
 20
-0.059272
  0
VERTEX
  8
EBENE_1
 62
    39
  6
CONTINUOUS
 10
-0.789177
 20
-0.834098
  0
VERTEX
  8
EBENE_1
 62
    39
  6
CONTINUOUS
 10
-1.433917
 20
-0.841752
  0
VERTEX
  8
EBENE_1
 62
    39
  6
CONTINUOUS
 10
-1.469273
 20
-0.837311
  0
VERTEX
  8
EBENE_1
 62
    39
  6
CONTINUOUS
 10
-1.508727
 20
-0.826465
  0
VERTEX
  8
EBENE_1
 62
    39
  6
CONTINUOUS
 10
-1.551451
 20
-0.809473
  0
VERTEX
  8
EBENE_1
 62
    39
  6
CONTINUOUS
 10
-1.596619
 20
-0.786594
  0
VERTEX
  8
EBENE_1
 62
    39
  6
CONTINUOUS
 10
-1.643404
 20
-0.758087
  0
VERTEX
  8
EBENE_1
 62
    39
  6
CONTINUOUS
 10
-1.690980
 20
-0.724213
  0
VERTEX
  8
EBENE_1
 62
    39
  6
CONTINUOUS
 10
-1.738520
 20
-0.685229
  0
VERTEX
  8
EBENE_1
 62
    39
  6
CONTINUOUS
 10
-1.785198
 20
-0.641395
  0
VERTEX
  8
EBENE_1
 62
    39
  6
CONTINUOUS
 10
-1.830186
 20
-0.592971
  0
VERTEX
  8
EBENE_1
 62
    39
  6
CONTINUOUS
 10
-1.872659
 20
-0.540216
  0
VERTEX
  8
EBENE_1
 62
    39
  6
CONTINUOUS
 10
-1.911788
 20
-0.483389
  0
VERTEX
  8
EBENE_1
 62
    39
  6
CONTINUOUS
 10
-1.946749
 20
-0.422749
  0
VERTEX
  8
EBENE_1
 62
    39
  6
CONTINUOUS
 10
-1.976714
 20
-0.358555
  0
VERTEX
  8
EBENE_1
 62
    39
  6
CONTINUOUS
 10
-2.000856
 20
-0.291068
  0
VERTEX
  8
EBENE_1
 62
    39
  6
CONTINUOUS
 10
-2.018349
 20
-0.220546
  0
VERTEX
  8
EBENE_1
 62
    39
  6
CONTINUOUS
 10
-2.028366
 20
-0.147248
  0
VERTEX
  8
EBENE_1
 62
    39
  6
CONTINUOUS
 10
-2.008589
 20
-0.058736
  0
VERTEX
  8
EBENE_1
 62
    39
  6
CONTINUOUS
 10
-1.967129
 20
0.007009
  0
VERTEX
  8
EBENE_1
 62
    39
  6
CONTINUOUS
 10
-1.909927
 20
0.047951
  0
VERTEX
  8
EBENE_1
 62
    39
  6
CONTINUOUS
 10
-1.842921
 20
0.062051
  0
VERTEX
  8
EBENE_1
 62
    39
  6
CONTINUOUS
 10
-1.177063
 20
0.062051
  0
VERTEX
  8
EBENE_1
 62
    39
  6
CONTINUOUS
 10
-1.096341
 20
0.042566
  0
VERTEX
  8
EBENE_1
 62
    39
  6
CONTINUOUS
 10
-1.067018
 20
-0.003881
  0
SEQEND
  8
0
  0
POLYLINE
  8
EBENE_1
 62
    39
  6
CONTINUOUS
 66
     1
 40
0.003000
 41
0.003000
 70
     1
  0
VERTEX
  8
EBENE_1
 62
    39
  6
CONTINUOUS
 10
0.766874
 20
-1.383665
  0
VERTEX
  8
EBENE_1
 62
    39
  6
CONTINUOUS
 10
1.063669
 20
-2.277004
  0
VERTEX
  8
EBENE_1
 62
    39
  6
CONTINUOUS
 10
0.533531
 20
-2.291657
  0
VERTEX
  8
EBENE_1
 62
    39
  6
CONTINUOUS
 10
0.501900
 20
-2.288905
  0
VERTEX
  8
EBENE_1
 62
    39
  6
CONTINUOUS
 10
0.466880
 20
-2.280939
  0
VERTEX
  8
EBENE_1
 62
    39
  6
CONTINUOUS
 10
0.429004
 20
-2.267921
  0
VERTEX
  8
EBENE_1
 62
    39
  6
CONTINUOUS
 10
0.388806
 20
-2.250015
  0
VERTEX
  8
EBENE_1
 62
    39
  6
CONTINUOUS
 10
0.346820
 20
-2.227380
  0
VERTEX
  8
EBENE_1
 62
    39
  6
CONTINUOUS
 10
0.303580
 20
-2.200180
  0
VERTEX
  8
EBENE_1
 62
    39
  6
CONTINUOUS
 10
0.259619
 20
-2.168577
  0
VERTEX
  8
EBENE_1
 62
    39
  6
CONTINUOUS
 10
0.215471
 20
-2.132731
  0
VERTEX
  8
EBENE_1
 62
    39
  6
CONTINUOUS
 10
0.171670
 20
-2.092806
  0
VERTEX
  8
EBENE_1
 62
    39
  6
CONTINUOUS
 10
0.128750
 20
-2.048964
  0
VERTEX
  8
EBENE_1
 62
    39
  6
CONTINUOUS
 10
0.087244
 20
-2.001365
  0
VERTEX
  8
EBENE_1
 62
    39
  6
CONTINUOUS
 10
0.047687
 20
-1.950173
  0
VERTEX
  8
EBENE_1
 62
    39
  6
CONTINUOUS
 10
0.010611
 20
-1.895548
  0
VERTEX
  8
EBENE_1
 62
    39
  6
CONTINUOUS
 10
-0.023450
 20
-1.837654
  0
VERTEX
  8
EBENE_1
 62
    39
  6
CONTINUOUS
 10
-0.053961
 20
-1.776651
  0
VERTEX
  8
EBENE_1
 62
    39
  6
CONTINUOUS
 10
-0.080389
 20
-1.712702
  0
VERTEX
  8
EBENE_1
 62
    39
  6
CONTINUOUS
 10
-0.102201
 20
-1.645970
  0
VERTEX
  8
EBENE_1
 62
    39
  6
CONTINUOUS
 10
-0.118862
 20
-1.576615
  0
VERTEX
  8
EBENE_1
 62
    39
  6
CONTINUOUS
 10
-0.129839
 20
-1.504799
  0
VERTEX
  8
EBENE_1
 62
    39
  6
CONTINUOUS
 10
-0.129839
 20
-1.504799
  0
VERTEX
  8
EBENE_1
 62
    39
  6
CONTINUOUS
 10
-0.117945
 20
-1.419748
  0
VERTEX
  8
EBENE_1
 62
    39
  6
CONTINUOUS
 10
-0.089829
 20
-1.350821
  0
VERTEX
  8
EBENE_1
 62
    39
  6
CONTINUOUS
 10
-0.048698
 20
-1.299345
  0
VERTEX
  8
EBENE_1
 62
    39
  6
CONTINUOUS
 10
0.002240
 20
-1.266651
  0
VERTEX
  8
EBENE_1
 62
    39
  6
CONTINUOUS
 10
0.059780
 20
-1.254067
  0
VERTEX
  8
EBENE_1
 62
    39
  6
CONTINUOUS
 10
0.612343
 20
-1.234768
  0
VERTEX
  8
EBENE_1
 62
    39
  6
CONTINUOUS
 10
0.684863
 20
-1.247510
  0
VERTEX
  8
EBENE_1
 62
    39
  6
CONTINUOUS
 10
0.719539
 20
-1.284614
  0
VERTEX
  8
EBENE_1
 62
    39
  6
CONTINUOUS
 10
0.739250
 20
-1.334019
  0
SEQEND
  8
0
  0
POLYLINE
  8
EBENE_1
 62
    39
  6
CONTINUOUS
 66
     1
 40
0.003000
 41
0.003000
 70
     1
  0
VERTEX
  8
EBENE_1
 62
    39
  6
CONTINUOUS
 10
0.123705
 20
-0.635697
  0
VERTEX
  8
EBENE_1
 62
    39
  6
CONTINUOUS
 10
0.420500
 20
-1.529035
  0
VERTEX
  8
EBENE_1
 62
    39
  6
CONTINUOUS
 10
-0.109638
 20
-1.543693
  0
VERTEX
  8
EBENE_1
 62
    39
  6
CONTINUOUS
 10
-0.141269
 20
-1.540940
  0
VERTEX
  8
EBENE_1
 62
    39
  6
CONTINUOUS
 10
-0.176290
 20
-1.532974
  0
VERTEX
  8
EBENE_1
 62
    39
  6
CONTINUOUS
 10
-0.214166
 20
-1.519957
  0
VERTEX
  8
EBENE_1
 62
    39
  6
CONTINUOUS
 10
-0.254364
 20
-1.502050
  0
VERTEX
  8
EBENE_1
 62
    39
  6
CONTINUOUS
 10
-0.296349
 20
-1.479416
  0
VERTEX
  8
EBENE_1
 62
    39
  6
CONTINUOUS
 10
-0.339590
 20
-1.452216
  0
VERTEX
  8
EBENE_1
 62
    39
  6
CONTINUOUS
 10
-0.383550
 20
-1.420612
  0
VERTEX
  8
EBENE_1
 62
    39
  6
CONTINUOUS
 10
-0.427698
 20
-1.384767
  0
VERTEX
  8
EBENE_1
 62
    39
  6
CONTINUOUS
 10
-0.471499
 20
-1.344841
  0
VERTEX
  8
EBENE_1
 62
    39
  6
CONTINUOUS
 10
-0.514419
 20
-1.300999
  0
VERTEX
  8
EBENE_1
 62
    39
  6
CONTINUOUS
 10
-0.555925
 20
-1.253400
  0
VERTEX
  8
EBENE_1
 62
    39
  6
CONTINUOUS
 10
-0.595483
 20
-1.202207
  0
VERTEX
  8
EBENE_1
 62
    39
  6
CONTINUOUS
 10
-0.632559
 20
-1.147582
  0
VERTEX
  8
EBENE_1
 62
    39
  6
CONTINUOUS
 10
-0.666619
 20
-1.089687
  0
VERTEX
  8
EBENE_1
 62
    39
  6
CONTINUOUS
 10
-0.697130
 20
-1.028685
  0
VERTEX
  8
EBENE_1
 62
    39
  6
CONTINUOUS
 10
-0.723558
 20
-0.964736
  0
VERTEX
  8
EBENE_1
 62
    39
  6
CONTINUOUS
 10
-0.745370
 20
-0.898002
  0
VERTEX
  8
EBENE_1
 62
    39
  6
CONTINUOUS
 10
-0.762031
 20
-0.828647
  0
VERTEX
  8
EBENE_1
 62
    39
  6
CONTINUOUS
 10
-0.773008
 20
-0.756831
  0
VERTEX
  8
EBENE_1
 62
    39
  6
CONTINUOUS
 10
-0.773008
 20
-0.756831
  0
VERTEX
  8
EBENE_1
 62
    39
  6
CONTINUOUS
 10
-0.761114
 20
-0.671780
  0
VERTEX
  8
EBENE_1
 62
    39
  6
CONTINUOUS
 10
-0.732998
 20
-0.602853
  0
VERTEX
  8
EBENE_1
 62
    39
  6
CONTINUOUS
 10
-0.691868
 20
-0.551378
  0
VERTEX
  8
EBENE_1
 62
    39
  6
CONTINUOUS
 10
-0.640929
 20
-0.518684
  0
VERTEX
  8
EBENE_1
 62
    39
  6
CONTINUOUS
 10
-0.583390
 20
-0.506098
  0
VERTEX
  8
EBENE_1
 62
    39
  6
CONTINUOUS
 10
-0.030827
 20
-0.486803
  0
VERTEX
  8
EBENE_1
 62
    39
  6
CONTINUOUS
 10
0.041692
 20
-0.499546
  0
VERTEX
  8
EBENE_1
 62
    39
  6
CONTINUOUS
 10
0.076368
 20
-0.536649
  0
VERTEX
  8
EBENE_1
 62
    39
  6
CONTINUOUS
 10
0.096080
 20
-0.586053
  0
SEQEND
  8
0
  0
POLYLINE
  8
EBENE_1
 62
    39
  6
CONTINUOUS
 66
     1
 40
0.003000
 41
0.003000
 70
     1
  0
VERTEX
  8
EBENE_1
 62
    39
  6
CONTINUOUS
 10
-0.507953
 20
-0.055228
  0
VERTEX
  8
EBENE_1
 62
    39
  6
CONTINUOUS
 10
-0.222669
 20
-0.833780
  0
VERTEX
  8
EBENE_1
 62
    39
  6
CONTINUOUS
 10
-0.732244
 20
-0.846551
  0
VERTEX
  8
EBENE_1
 62
    39
  6
CONTINUOUS
 10
-0.766450
 20
-0.843569
  0
VERTEX
  8
EBENE_1
 62
    39
  6
CONTINUOUS
 10
-0.804649
 20
-0.834931
  0
VERTEX
  8
EBENE_1
 62
    39
  6
CONTINUOUS
 10
-0.846126
 20
-0.820836
  0
VERTEX
  8
EBENE_1
 62
    39
  6
CONTINUOUS
 10
-0.890165
 20
-0.801481
  0
VERTEX
  8
EBENE_1
 62
    39
  6
CONTINUOUS
 10
-0.936049
 20
-0.777061
  0
VERTEX
  8
EBENE_1
 62
    39
  6
CONTINUOUS
 10
-0.983062
 20
-0.747776
  0
VERTEX
  8
EBENE_1
 62
    39
  6
CONTINUOUS
 10
-1.030488
 20
-0.713821
  0
VERTEX
  8
EBENE_1
 62
    39
  6
CONTINUOUS
 10
-1.077611
 20
-0.675393
  0
VERTEX
  8
EBENE_1
 62
    39
  6
CONTINUOUS
 10
-1.123714
 20
-0.632690
  0
VERTEX
  8
EBENE_1
 62
    39
  6
CONTINUOUS
 10
-1.168081
 20
-0.585908
  0
VERTEX
  8
EBENE_1
 62
    39
  6
CONTINUOUS
 10
-1.209996
 20
-0.535246
  0
VERTEX
  8
EBENE_1
 62
    39
  6
CONTINUOUS
 10
-1.248743
 20
-0.480899
  0
VERTEX
  8
EBENE_1
 62
    39
  6
CONTINUOUS
 10
-1.283605
 20
-0.423064
  0
VERTEX
  8
EBENE_1
 62
    39
  6
CONTINUOUS
 10
-1.313866
 20
-0.361940
  0
VERTEX
  8
EBENE_1
 62
    39
  6
CONTINUOUS
 10
-1.338810
 20
-0.297722
  0
VERTEX
  8
EBENE_1
 62
    39
  6
CONTINUOUS
 10
-1.357721
 20
-0.230608
  0
VERTEX
  8
EBENE_1
 62
    39
  6
CONTINUOUS
 10
-1.369882
 20
-0.160795
  0
VERTEX
  8
EBENE_1
 62
    39
  6
CONTINUOUS
 10
-1.353035
 20
-0.070294
  0
VERTEX
  8
EBENE_1
 62
    39
  6
CONTINUOUS
 10
-1.313029
 20
-0.002200
  0
VERTEX
  8
EBENE_1
 62
    39
  6
CONTINUOUS
 10
-1.255884
 20
0.041224
  0
VERTEX
  8
EBENE_1
 62
    39
  6
CONTINUOUS
 10
-1.187622
 20
0.057717
  0
VERTEX
  8
EBENE_1
 62
    39
  6
CONTINUOUS
 10
-0.656488
 20
0.074535
  0
VERTEX
  8
EBENE_1
 62
    39
  6
CONTINUOUS
 10
-0.572717
 20
0.054492
  0
VERTEX
  8
EBENE_1
 62
    39
  6
CONTINUOUS
 10
-0.540580
 20
0.002933
  0
SEQEND
  8
0
  0
POLYLINE
  8
EBENE_1
 62
    39
  6
CONTINUOUS
 66
     1
 40
0.003000
 41
0.003000
 70
     1
  0
VERTEX
  8
EBENE_1
 62
    39
  6
CONTINUOUS
 10
-1.139803
 20
0.574449
  0
VERTEX
  8
EBENE_1
 62
    39
  6
CONTINUOUS
 10
-0.865839
 20
-0.204102
  0
VERTEX
  8
EBENE_1
 62
    39
  6
CONTINUOUS
 10
-1.355193
 20
-0.216874
  0
VERTEX
  8
EBENE_1
 62
    39
  6
CONTINUOUS
 10
-1.390229
 20
-0.213515
  0
VERTEX
  8
EBENE_1
 62
    39
  6
CONTINUOUS
 10
-1.429547
 20
-0.203787
  0
VERTEX
  8
EBENE_1
 62
    39
  6
CONTINUOUS
 10
-1.472321
 20
-0.187925
  0
VERTEX
  8
EBENE_1
 62
    39
  6
CONTINUOUS
 10
-1.517726
 20
-0.166166
  0
VERTEX
  8
EBENE_1
 62
    39
  6
CONTINUOUS
 10
-1.564937
 20
-0.138747
  0
VERTEX
  8
EBENE_1
 62
    39
  6
CONTINUOUS
 10
-1.613130
 20
-0.105903
  0
VERTEX
  8
EBENE_1
 62
    39
  6
CONTINUOUS
 10
-1.661479
 20
-0.067872
  0
VERTEX
  8
EBENE_1
 62
    39
  6
CONTINUOUS
 10
-1.709160
 20
-0.024888
  0
VERTEX
  8
EBENE_1
 62
    39
  6
CONTINUOUS
 10
-1.755347
 20
0.022810
  0
VERTEX
  8
EBENE_1
 62
    39
  6
CONTINUOUS
 10
-1.799215
 20
0.074988
  0
VERTEX
  8
EBENE_1
 62
    39
  6
CONTINUOUS
 10
-1.839939
 20
0.131408
  0
VERTEX
  8
EBENE_1
 62
    39
  6
CONTINUOUS
 10
-1.876695
 20
0.191835
  0
VERTEX
  8
EBENE_1
 62
    39
  6
CONTINUOUS
 10
-1.908657
 20
0.256031
  0
VERTEX
  8
EBENE_1
 62
    39
  6
CONTINUOUS
 10
-1.935001
 20
0.323762
  0
VERTEX
  8
EBENE_1
 62
    39
  6
CONTINUOUS
 10
-1.954900
 20
0.394789
  0
VERTEX
  8
EBENE_1
 62
    39
  6
CONTINUOUS
 10
-1.967531
 20
0.468878
  0
VERTEX
  8
EBENE_1
 62
    39
  6
CONTINUOUS
 10
-1.951352
 20
0.559382
  0
VERTEX
  8
EBENE_1
 62
    39
  6
CONTINUOUS
 10
-1.912932
 20
0.627476
  0
VERTEX
  8
EBENE_1
 62
    39
  6
CONTINUOUS
 10
-1.858055
 20
0.670901
  0
VERTEX
  8
EBENE_1
 62
    39
  6
CONTINUOUS
 10
-1.792504
 20
0.687394
  0
VERTEX
  8
EBENE_1
 62
    39
  6
CONTINUOUS
 10
-1.282445
 20
0.704209
  0
VERTEX
  8
EBENE_1
 62
    39
  6
CONTINUOUS
 10
-1.201997
 20
0.684166
  0
VERTEX
  8
EBENE_1
 62
    39
  6
CONTINUOUS
 10
-1.171135
 20
0.632607
  0
SEQEND
  8
0
  0
POLYLINE
  8
EBENE_1
 62
    39
  6
CONTINUOUS
 66
     1
 40
0.003000
 41
0.003000
 70
     1
  0
VERTEX
  8
EBENE_1
 62
    39
  6
CONTINUOUS
 10
-1.732181
 20
1.110657
  0
VERTEX
  8
EBENE_1
 62
    39
  6
CONTINUOUS
 10
-1.477220
 20
0.386106
  0
VERTEX
  8
EBENE_1
 62
    39
  6
CONTINUOUS
 10
-1.932634
 20
0.374220
  0
VERTEX
  8
EBENE_1
 62
    39
  6
CONTINUOUS
 10
-1.967563
 20
0.377767
  0
VERTEX
  8
EBENE_1
 62
    39
  6
CONTINUOUS
 10
-2.006968
 20
0.388042
  0
VERTEX
  8
EBENE_1
 62
    39
  6
CONTINUOUS
 10
-2.049916
 20
0.404778
  0
VERTEX
  8
EBENE_1
 62
    39
  6
CONTINUOUS
 10
-2.095476
 20
0.427708
  0
VERTEX
  8
EBENE_1
 62
    39
  6
CONTINUOUS
 10
-2.142716
 20
0.456566
  0
VERTEX
  8
EBENE_1
 62
    39
  6
CONTINUOUS
 10
-2.190703
 20
0.491084
  0
VERTEX
  8
EBENE_1
 62
    39
  6
CONTINUOUS
 10
-2.238507
 20
0.530995
  0
VERTEX
  8
EBENE_1
 62
    39
  6
CONTINUOUS
 10
-2.285196
 20
0.576032
  0
VERTEX
  8
EBENE_1
 62
    39
  6
CONTINUOUS
 10
-2.329837
 20
0.625929
  0
VERTEX
  8
EBENE_1
 62
    39
  6
CONTINUOUS
 10
-2.371498
 20
0.680418
  0
VERTEX
  8
EBENE_1
 62
    39
  6
CONTINUOUS
 10
-2.409249
 20
0.739233
  0
VERTEX
  8
EBENE_1
 62
    39
  6
CONTINUOUS
 10
-2.442157
 20
0.802107
  0
VERTEX
  8
EBENE_1
 62
    39
  6
CONTINUOUS
 10
-2.469289
 20
0.868772
  0
VERTEX
  8
EBENE_1
 62
    39
  6
CONTINUOUS
 10
-2.489716
 20
0.938962
  0
VERTEX
  8
EBENE_1
 62
    39
  6
CONTINUOUS
 10
-2.502504
 20
1.012409
  0
VERTEX
  8
EBENE_1
 62
    39
  6
CONTINUOUS
 10
-2.487445
 20
1.096635
  0
VERTEX
  8
EBENE_1
 62
    39
  6
CONTINUOUS
 10
-2.451689
 20
1.160007
  0
VERTEX
  8
EBENE_1
 62
    39
  6
CONTINUOUS
 10
-2.400617
 20
1.200421
  0
VERTEX
  8
EBENE_1
 62
    39
  6
CONTINUOUS
 10
-2.339610
 20
1.215772
  0
VERTEX
  8
EBENE_1
 62
    39
  6
CONTINUOUS
 10
-1.864929
 20
1.231421
  0
VERTEX
  8
EBENE_1
 62
    39
  6
CONTINUOUS
 10
-1.790062
 20
1.212767
  0
VERTEX
  8
EBENE_1
 62
    39
  6
CONTINUOUS
 10
-1.761340
 20
1.164784
  0
SEQEND
  8
0
  0
POLYLINE
  8
EBENE_1
 62
    39
  6
CONTINUOUS
 66
     1
 40
0.003000
 41
0.003000
 70
     1
  0
VERTEX
  8
EBENE_1
 62
    39
  6
CONTINUOUS
 10
1.240024
 20
-1.412083
  0
VERTEX
  8
EBENE_1
 62
    39
  6
CONTINUOUS
 10
1.520626
 20
-2.278520
  0
VERTEX
  8
EBENE_1
 62
    39
  6
CONTINUOUS
 10
1.092248
 20
-2.294925
  0
VERTEX
  8
EBENE_1
 62
    39
  6
CONTINUOUS
 10
1.060669
 20
-2.291621
  0
VERTEX
  8
EBENE_1
 62
    39
  6
CONTINUOUS
 10
1.025792
 20
-2.283044
  0
VERTEX
  8
EBENE_1
 62
    39
  6
CONTINUOUS
 10
0.988149
 20
-2.269368
  0
VERTEX
  8
EBENE_1
 62
    39
  6
CONTINUOUS
 10
0.948269
 20
-2.250762
  0
VERTEX
  8
EBENE_1
 62
    39
  6
CONTINUOUS
 10
0.906685
 20
-2.227398
  0
VERTEX
  8
EBENE_1
 62
    39
  6
CONTINUOUS
 10
0.863926
 20
-2.199447
  0
VERTEX
  8
EBENE_1
 62
    39
  6
CONTINUOUS
 10
0.820523
 20
-2.167081
  0
VERTEX
  8
EBENE_1
 62
    39
  6
CONTINUOUS
 10
0.777007
 20
-2.130471
  0
VERTEX
  8
EBENE_1
 62
    39
  6
CONTINUOUS
 10
0.733910
 20
-2.089788
  0
VERTEX
  8
EBENE_1
 62
    39
  6
CONTINUOUS
 10
0.691762
 20
-2.045202
  0
VERTEX
  8
EBENE_1
 62
    39
  6
CONTINUOUS
 10
0.651093
 20
-1.996886
  0
VERTEX
  8
EBENE_1
 62
    39
  6
CONTINUOUS
 10
0.612434
 20
-1.945011
  0
VERTEX
  8
EBENE_1
 62
    39
  6
CONTINUOUS
 10
0.576317
 20
-1.889748
  0
VERTEX
  8
EBENE_1
 62
    39
  6
CONTINUOUS
 10
0.543273
 20
-1.831268
  0
VERTEX
  8
EBENE_1
 62
    39
  6
CONTINUOUS
 10
0.513831
 20
-1.769742
  0
VERTEX
  8
EBENE_1
 62
    39
  6
CONTINUOUS
 10
0.488522
 20
-1.705342
  0
VERTEX
  8
EBENE_1
 62
    39
  6
CONTINUOUS
 10
0.467879
 20
-1.638238
  0
VERTEX
  8
EBENE_1
 62
    39
  6
CONTINUOUS
 10
0.452431
 20
-1.568603
  0
VERTEX
  8
EBENE_1
 62
    39
  6
CONTINUOUS
 10
0.442709
 20
-1.496606
  0
VERTEX
  8
EBENE_1
 62
    39
  6
CONTINUOUS
 10
0.442709
 20
-1.496606
  0
VERTEX
  8
EBENE_1
 62
    39
  6
CONTINUOUS
 10
0.456086
 20
-1.411776
  0
VERTEX
  8
EBENE_1
 62
    39
  6
CONTINUOUS
 10
0.485401
 20
-1.343350
  0
VERTEX
  8
EBENE_1
 62
    39
  6
CONTINUOUS
 10
0.527423
 20
-1.292600
  0
VERTEX
  8
EBENE_1
 62
    39
  6
CONTINUOUS
 10
0.578924
 20
-1.260800
  0
VERTEX
  8
EBENE_1
 62
    39
  6
CONTINUOUS
 10
0.636673
 20
-1.249220
  0
VERTEX
  8
EBENE_1
 62
    39
  6
CONTINUOUS
 10
1.087780
 20
-1.241346
  0
VERTEX
  8
EBENE_1
 62
    39
  6
CONTINUOUS
 10
1.160118
 20
-1.258347
  0
VERTEX
  8
EBENE_1
 62
    39
  6
CONTINUOUS
 10
1.194257
 20
-1.302639
  0
VERTEX
  8
EBENE_1
 62
    39
  6
CONTINUOUS
 10
1.213219
 20
-1.358969
  0
SEQEND
  8
0
  0
POLYLINE
  8
EBENE_1
 62
    39
  6
CONTINUOUS
 66
     1
 40
0.003000
 41
0.003000
 70
     1
  0
VERTEX
  8
EBENE_1
 62
    39
  6
CONTINUOUS
 10
0.596854
 20
-0.664118
  0
VERTEX
  8
EBENE_1
 62
    39
  6
CONTINUOUS
 10
0.877453
 20
-1.530555
  0
VERTEX
  8
EBENE_1
 62
    39
  6
CONTINUOUS
 10
0.449079
 20
-1.546957
  0
VERTEX
  8
EBENE_1
 62
    39
  6
CONTINUOUS
 10
0.417500
 20
-1.543653
  0
VERTEX
  8
EBENE_1
 62
    39
  6
CONTINUOUS
 10
0.382623
 20
-1.535077
  0
VERTEX
  8
EBENE_1
 62
    39
  6
CONTINUOUS
 10
0.344980
 20
-1.521401
  0
VERTEX
  8
EBENE_1
 62
    39
  6
CONTINUOUS
 10
0.305100
 20
-1.502795
  0
VERTEX
  8
EBENE_1
 62
    39
  6
CONTINUOUS
 10
0.263515
 20
-1.479432
  0
VERTEX
  8
EBENE_1
 62
    39
  6
CONTINUOUS
 10
0.220756
 20
-1.451481
  0
VERTEX
  8
EBENE_1
 62
    39
  6
CONTINUOUS
 10
0.177354
 20
-1.419116
  0
VERTEX
  8
EBENE_1
 62
    39
  6
CONTINUOUS
 10
0.133838
 20
-1.382505
  0
VERTEX
  8
EBENE_1
 62
    39
  6
CONTINUOUS
 10
0.090741
 20
-1.341822
  0
VERTEX
  8
EBENE_1
 62
    39
  6
CONTINUOUS
 10
0.048592
 20
-1.297237
  0
VERTEX
  8
EBENE_1
 62
    39
  6
CONTINUOUS
 10
0.007923
 20
-1.248921
  0
VERTEX
  8
EBENE_1
 62
    39
  6
CONTINUOUS
 10
-0.030735
 20
-1.197046
  0
VERTEX
  8
EBENE_1
 62
    39
  6
CONTINUOUS
 10
-0.066852
 20
-1.141782
  0
VERTEX
  8
EBENE_1
 62
    39
  6
CONTINUOUS
 10
-0.099897
 20
-1.083302
  0
VERTEX
  8
EBENE_1
 62
    39
  6
CONTINUOUS
 10
-0.129339
 20
-1.021775
  0
VERTEX
  8
EBENE_1
 62
    39
  6
CONTINUOUS
 10
-0.154647
 20
-0.957375
  0
VERTEX
  8
EBENE_1
 62
    39
  6
CONTINUOUS
 10
-0.175290
 20
-0.890271
  0
VERTEX
  8
EBENE_1
 62
    39
  6
CONTINUOUS
 10
-0.190739
 20
-0.820635
  0
VERTEX
  8
EBENE_1
 62
    39
  6
CONTINUOUS
 10
-0.200461
 20
-0.748638
  0
VERTEX
  8
EBENE_1
 62
    39
  6
CONTINUOUS
 10
-0.200461
 20
-0.748638
  0
VERTEX
  8
EBENE_1
 62
    39
  6
CONTINUOUS
 10
-0.187083
 20
-0.663808
  0
VERTEX
  8
EBENE_1
 62
    39
  6
CONTINUOUS
 10
-0.157768
 20
-0.595383
  0
VERTEX
  8
EBENE_1
 62
    39
  6
CONTINUOUS
 10
-0.115746
 20
-0.544634
  0
VERTEX
  8
EBENE_1
 62
    39
  6
CONTINUOUS
 10
-0.064245
 20
-0.512835
  0
VERTEX
  8
EBENE_1
 62
    39
  6
CONTINUOUS
 10
-0.006496
 20
-0.501256
  0
VERTEX
  8
EBENE_1
 62
    39
  6
CONTINUOUS
 10
0.444610
 20
-0.493382
  0
VERTEX
  8
EBENE_1
 62
    39
  6
CONTINUOUS
 10
0.516949
 20
-0.510382
  0
VERTEX
  8
EBENE_1
 62
    39
  6
CONTINUOUS
 10
0.551088
 20
-0.554673
  0
VERTEX
  8
EBENE_1
 62
    39
  6
CONTINUOUS
 10
0.570049
 20
-0.611003
  0
SEQEND
  8
0
  0
POLYLINE
  8
EBENE_1
 62
    39
  6
CONTINUOUS
 66
     1
 40
0.003000
 41
0.003000
 70
     1
  0
VERTEX
  8
EBENE_1
 62
    39
  6
CONTINUOUS
 10
-0.026075
 20
-0.084280
  0
VERTEX
  8
EBENE_1
 62
    39
  6
CONTINUOUS
 10
0.234283
 20
-0.835591
  0
VERTEX
  8
EBENE_1
 62
    39
  6
CONTINUOUS
 10
-0.163193
 20
-0.849815
  0
VERTEX
  8
EBENE_1
 62
    39
  6
CONTINUOUS
 10
-0.198343
 20
-0.845900
  0
VERTEX
  8
EBENE_1
 62
    39
  6
CONTINUOUS
 10
-0.237678
 20
-0.835577
  0
VERTEX
  8
EBENE_1
 62
    39
  6
CONTINUOUS
 10
-0.280373
 20
-0.819096
  0
VERTEX
  8
EBENE_1
 62
    39
  6
CONTINUOUS
 10
-0.325603
 20
-0.796706
  0
VERTEX
  8
EBENE_1
 62
    39
  6
CONTINUOUS
 10
-0.372543
 20
-0.768654
  0
VERTEX
  8
EBENE_1
 62
    39
  6
CONTINUOUS
 10
-0.420369
 20
-0.735190
  0
VERTEX
  8
EBENE_1
 62
    39
  6
CONTINUOUS
 10
-0.468255
 20
-0.696563
  0
VERTEX
  8
EBENE_1
 62
    39
  6
CONTINUOUS
 10
-0.515378
 20
-0.653020
  0
VERTEX
  8
EBENE_1
 62
    39
  6
CONTINUOUS
 10
-0.560912
 20
-0.604810
  0
VERTEX
  8
EBENE_1
 62
    39
  6
CONTINUOUS
 10
-0.604032
 20
-0.552183
  0
VERTEX
  8
EBENE_1
 62
    39
  6
CONTINUOUS
 10
-0.643914
 20
-0.495387
  0
VERTEX
  8
EBENE_1
 62
    39
  6
CONTINUOUS
 10
-0.679733
 20
-0.434670
  0
VERTEX
  8
EBENE_1
 62
    39
  6
CONTINUOUS
 10
-0.710664
 20
-0.370281
  0
VERTEX
  8
EBENE_1
 62
    39
  6
CONTINUOUS
 10
-0.735882
 20
-0.302470
  0
VERTEX
  8
EBENE_1
 62
    39
  6
CONTINUOUS
 10
-0.754563
 20
-0.231483
  0
VERTEX
  8
EBENE_1
 62
    39
  6
CONTINUOUS
 10
-0.765882
 20
-0.157571
  0
VERTEX
  8
EBENE_1
 62
    39
  6
CONTINUOUS
 10
-0.747938
 20
-0.067802
  0
VERTEX
  8
EBENE_1
 62
    39
  6
CONTINUOUS
 10
-0.708060
 20
-0.000689
  0
VERTEX
  8
EBENE_1
 62
    39
  6
CONTINUOUS
 10
-0.652098
 20
0.041612
  0
VERTEX
  8
EBENE_1
 62
    39
  6
CONTINUOUS
 10
-0.585906
 20
0.056945
  0
VERTEX
  8
EBENE_1
 62
    39
  6
CONTINUOUS
 10
-0.167339
 20
0.063772
  0
VERTEX
  8
EBENE_1
 62
    39
  6
CONTINUOUS
 10
-0.086776
 20
0.038204
  0
VERTEX
  8
EBENE_1
 62
    39
  6
CONTINUOUS
 10
-0.056567
 20
-0.021597
  0
SEQEND
  8
0
  0
POLYLINE
  8
EBENE_1
 62
    39
  6
CONTINUOUS
 66
     1
 40
0.003000
 41
0.003000
 70
     1
  0
VERTEX
  8
EBENE_1
 62
    39
  6
CONTINUOUS
 10
-0.669248
 20
0.545398
  0
VERTEX
  8
EBENE_1
 62
    39
  6
CONTINUOUS
 10
-0.408886
 20
-0.205913
  0
VERTEX
  8
EBENE_1
 62
    39
  6
CONTINUOUS
 10
-0.806362
 20
-0.220138
  0
VERTEX
  8
EBENE_1
 62
    39
  6
CONTINUOUS
 10
-0.841512
 20
-0.216222
  0
VERTEX
  8
EBENE_1
 62
    39
  6
CONTINUOUS
 10
-0.880847
 20
-0.205900
  0
VERTEX
  8
EBENE_1
 62
    39
  6
CONTINUOUS
 10
-0.923542
 20
-0.189419
  0
VERTEX
  8
EBENE_1
 62
    39
  6
CONTINUOUS
 10
-0.968772
 20
-0.167029
  0
VERTEX
  8
EBENE_1
 62
    39
  6
CONTINUOUS
 10
-1.015712
 20
-0.138977
  0
VERTEX
  8
EBENE_1
 62
    39
  6
CONTINUOUS
 10
-1.063538
 20
-0.105513
  0
VERTEX
  8
EBENE_1
 62
    39
  6
CONTINUOUS
 10
-1.111425
 20
-0.066885
  0
VERTEX
  8
EBENE_1
 62
    39
  6
CONTINUOUS
 10
-1.158547
 20
-0.023343
  0
VERTEX
  8
EBENE_1
 62
    39
  6
CONTINUOUS
 10
-1.204081
 20
0.024867
  0
VERTEX
  8
EBENE_1
 62
    39
  6
CONTINUOUS
 10
-1.247201
 20
0.077494
  0
VERTEX
  8
EBENE_1
 62
    39
  6
CONTINUOUS
 10
-1.287083
 20
0.134290
  0
VERTEX
  8
EBENE_1
 62
    39
  6
CONTINUOUS
 10
-1.322902
 20
0.195007
  0
VERTEX
  8
EBENE_1
 62
    39
  6
CONTINUOUS
 10
-1.353833
 20
0.259396
  0
VERTEX
  8
EBENE_1
 62
    39
  6
CONTINUOUS
 10
-1.379052
 20
0.327208
  0
VERTEX
  8
EBENE_1
 62
    39
  6
CONTINUOUS
 10
-1.397732
 20
0.398194
  0
VERTEX
  8
EBENE_1
 62
    39
  6
CONTINUOUS
 10
-1.409051
 20
0.472106
  0
VERTEX
  8
EBENE_1
 62
    39
  6
CONTINUOUS
 10
-1.391108
 20
0.561875
  0
VERTEX
  8
EBENE_1
 62
    39
  6
CONTINUOUS
 10
-1.351229
 20
0.628988
  0
VERTEX
  8
EBENE_1
 62
    39
  6
CONTINUOUS
 10
-1.295269
 20
0.671289
  0
VERTEX
  8
EBENE_1
 62
    39
  6
CONTINUOUS
 10
-1.229079
 20
0.686622
  0
VERTEX
  8
EBENE_1
 62
    39
  6
CONTINUOUS
 10
-0.810508
 20
0.693449
  0
VERTEX
  8
EBENE_1
 62
    39
  6
CONTINUOUS
 10
-0.729945
 20
0.667881
  0
VERTEX
  8
EBENE_1
 62
    39
  6
CONTINUOUS
 10
-0.699737
 20
0.608080
  0
SEQEND
  8
0
  0
POLYLINE
  8
EBENE_1
 62
    39
  6
CONTINUOUS
 66
     1
 40
0.003000
 41
0.003000
 70
     1
  0
VERTEX
  8
EBENE_1
 62
    39
  6
CONTINUOUS
 10
-1.253173
 20
1.097823
  0
VERTEX
  8
EBENE_1
 62
    39
  6
CONTINUOUS
 10
-0.994768
 20
0.378185
  0
VERTEX
  8
EBENE_1
 62
    39
  6
CONTINUOUS
 10
-1.389260
 20
0.364559
  0
VERTEX
  8
EBENE_1
 62
    39
  6
CONTINUOUS
 10
-1.424146
 20
0.368310
  0
VERTEX
  8
EBENE_1
 62
    39
  6
CONTINUOUS
 10
-1.463186
 20
0.378198
  0
VERTEX
  8
EBENE_1
 62
    39
  6
CONTINUOUS
 10
-1.505560
 20
0.393984
  0
VERTEX
  8
EBENE_1
 62
    39
  6
CONTINUOUS
 10
-1.550451
 20
0.415431
  0
VERTEX
  8
EBENE_1
 62
    39
  6
CONTINUOUS
 10
-1.597038
 20
0.442300
  0
VERTEX
  8
EBENE_1
 62
    39
  6
CONTINUOUS
 10
-1.644505
 20
0.474354
  0
VERTEX
  8
EBENE_1
 62
    39
  6
CONTINUOUS
 10
-1.692032
 20
0.511353
  0
VERTEX
  8
EBENE_1
 62
    39
  6
CONTINUOUS
 10
-1.738800
 20
0.553061
  0
VERTEX
  8
EBENE_1
 62
    39
  6
CONTINUOUS
 10
-1.783992
 20
0.599238
  0
VERTEX
  8
EBENE_1
 62
    39
  6
CONTINUOUS
 10
-1.826788
 20
0.649646
  0
VERTEX
  8
EBENE_1
 62
    39
  6
CONTINUOUS
 10
-1.866370
 20
0.704048
  0
VERTEX
  8
EBENE_1
 62
    39
  6
CONTINUOUS
 10
-1.901920
 20
0.762205
  0
VERTEX
  8
EBENE_1
 62
    39
  6
CONTINUOUS
 10
-1.932618
 20
0.823879
  0
VERTEX
  8
EBENE_1
 62
    39
  6
CONTINUOUS
 10
-1.957647
 20
0.888832
  0
VERTEX
  8
EBENE_1
 62
    39
  6
CONTINUOUS
 10
-1.976188
 20
0.956826
  0
VERTEX
  8
EBENE_1
 62
    39
  6
CONTINUOUS
 10
-1.987421
 20
1.027622
  0
VERTEX
  8
EBENE_1
 62
    39
  6
CONTINUOUS
 10
-1.969612
 20
1.113606
  0
VERTEX
  8
EBENE_1
 62
    39
  6
CONTINUOUS
 10
-1.930032
 20
1.177888
  0
VERTEX
  8
EBENE_1
 62
    39
  6
CONTINUOUS
 10
-1.874492
 20
1.218404
  0
VERTEX
  8
EBENE_1
 62
    39
  6
CONTINUOUS
 10
-1.808799
 20
1.233091
  0
VERTEX
  8
EBENE_1
 62
    39
  6
CONTINUOUS
 10
-1.393374
 20
1.239634
  0
VERTEX
  8
EBENE_1
 62
    39
  6
CONTINUOUS
 10
-1.313416
 20
1.215143
  0
VERTEX
  8
EBENE_1
 62
    39
  6
CONTINUOUS
 10
-1.283433
 20
1.157862
  0
SEQEND
  8
0
  0
POLYLINE
  8
EBENE_1
 62
    39
  6
CONTINUOUS
 66
     1
 40
0.003000
 41
0.003000
 70
     1
  0
VERTEX
  8
EBENE_1
 62
    39
  6
CONTINUOUS
 10
-1.844780
 20
1.626417
  0
VERTEX
  8
EBENE_1
 62
    39
  6
CONTINUOUS
 10
-1.606146
 20
0.961843
  0
VERTEX
  8
EBENE_1
 62
    39
  6
CONTINUOUS
 10
-1.970457
 20
0.949260
  0
VERTEX
  8
EBENE_1
 62
    39
  6
CONTINUOUS
 10
-2.004966
 20
0.953158
  0
VERTEX
  8
EBENE_1
 62
    39
  6
CONTINUOUS
 10
-2.043782
 20
0.963488
  0
VERTEX
  8
EBENE_1
 62
    39
  6
CONTINUOUS
 10
-2.085988
 20
0.979982
  0
VERTEX
  8
EBENE_1
 62
    39
  6
CONTINUOUS
 10
-2.130664
 20
1.002374
  0
VERTEX
  8
EBENE_1
 62
    39
  6
CONTINUOUS
 10
-2.176896
 20
1.030397
  0
VERTEX
  8
EBENE_1
 62
    39
  6
CONTINUOUS
 10
-2.223764
 20
1.063783
  0
VERTEX
  8
EBENE_1
 62
    39
  6
CONTINUOUS
 10
-2.270351
 20
1.102267
  0
VERTEX
  8
EBENE_1
 62
    39
  6
CONTINUOUS
 10
-2.315740
 20
1.145580
  0
VERTEX
  8
EBENE_1
 62
    39
  6
CONTINUOUS
 10
-2.359013
 20
1.193456
  0
VERTEX
  8
EBENE_1
 62
    39
  6
CONTINUOUS
 10
-2.399254
 20
1.245628
  0
VERTEX
  8
EBENE_1
 62
    39
  6
CONTINUOUS
 10
-2.435544
 20
1.301829
  0
VERTEX
  8
EBENE_1
 62
    39
  6
CONTINUOUS
 10
-2.466966
 20
1.361793
  0
VERTEX
  8
EBENE_1
 62
    39
  6
CONTINUOUS
 10
-2.492603
 20
1.425251
  0
VERTEX
  8
EBENE_1
 62
    39
  6
CONTINUOUS
 10
-2.511537
 20
1.491938
  0
VERTEX
  8
EBENE_1
 62
    39
  6
CONTINUOUS
 10
-2.522850
 20
1.561587
  0
VERTEX
  8
EBENE_1
 62
    39
  6
CONTINUOUS
 10
-2.506404
 20
1.640993
  0
VERTEX
  8
EBENE_1
 62
    39
  6
CONTINUOUS
 10
-2.469852
 20
1.700358
  0
VERTEX
  8
EBENE_1
 62
    39
  6
CONTINUOUS
 10
-2.418561
 20
1.737775
  0
VERTEX
  8
EBENE_1
 62
    39
  6
CONTINUOUS
 10
-2.357894
 20
1.751339
  0
VERTEX
  8
EBENE_1
 62
    39
  6
CONTINUOUS
 10
-1.974256
 20
1.757378
  0
VERTEX
  8
EBENE_1
 62
    39
  6
CONTINUOUS
 10
-1.900416
 20
1.734761
  0
VERTEX
  8
EBENE_1
 62
    39
  6
CONTINUOUS
 10
-1.872727
 20
1.681864
  0
SEQEND
  8
0
  0
POLYLINE
  8
EBENE_1
 62
    39
  6
CONTINUOUS
 66
     1
 40
0.003000
 41
0.003000
 70
     1
  0
VERTEX
  8
EBENE_1
 62
    39
  6
CONTINUOUS
 10
1.946772
 20
-1.380004
  0
VERTEX
  8
EBENE_1
 62
    39
  6
CONTINUOUS
 10
2.212209
 20
-2.283154
  0
VERTEX
  8
EBENE_1
 62
    39
  6
CONTINUOUS
 10
1.522937
 20
-2.292079
  0
VERTEX
  8
EBENE_1
 62
    39
  6
CONTINUOUS
 10
1.491421
 20
-2.288224
  0
VERTEX
  8
EBENE_1
 62
    39
  6
CONTINUOUS
 10
1.456699
 20
-2.279041
  0
VERTEX
  8
EBENE_1
 62
    39
  6
CONTINUOUS
 10
1.419300
 20
-2.264710
  0
VERTEX
  8
EBENE_1
 62
    39
  6
CONTINUOUS
 10
1.379752
 20
-2.245411
  0
VERTEX
  8
EBENE_1
 62
    39
  6
CONTINUOUS
 10
1.338581
 20
-2.221326
  0
VERTEX
  8
EBENE_1
 62
    39
  6
CONTINUOUS
 10
1.296316
 20
-2.192633
  0
VERTEX
  8
EBENE_1
 62
    39
  6
CONTINUOUS
 10
1.253485
 20
-2.159515
  0
VERTEX
  8
EBENE_1
 62
    39
  6
CONTINUOUS
 10
1.210615
 20
-2.122151
  0
VERTEX
  8
EBENE_1
 62
    39
  6
CONTINUOUS
 10
1.168234
 20
-2.080722
  0
VERTEX
  8
EBENE_1
 62
    39
  6
CONTINUOUS
 10
1.126870
 20
-2.035408
  0
VERTEX
  8
EBENE_1
 62
    39
  6
CONTINUOUS
 10
1.087050
 20
-1.986389
  0
VERTEX
  8
EBENE_1
 62
    39
  6
CONTINUOUS
 10
1.049303
 20
-1.933847
  0
VERTEX
  8
EBENE_1
 62
    39
  6
CONTINUOUS
 10
1.014156
 20
-1.877962
  0
VERTEX
  8
EBENE_1
 62
    39
  6
CONTINUOUS
 10
0.982136
 20
-1.818914
  0
VERTEX
  8
EBENE_1
 62
    39
  6
CONTINUOUS
 10
0.953773
 20
-1.756883
  0
VERTEX
  8
EBENE_1
 62
    39
  6
CONTINUOUS
 10
0.929592
 20
-1.692051
  0
VERTEX
  8
EBENE_1
 62
    39
  6
CONTINUOUS
 10
0.910123
 20
-1.624597
  0
VERTEX
  8
EBENE_1
 62
    39
  6
CONTINUOUS
 10
0.895893
 20
-1.554702
  0
VERTEX
  8
EBENE_1
 62
    39
  6
CONTINUOUS
 10
0.887429
 20
-1.482547
  0
VERTEX
  8
EBENE_1
 62
    39
  6
CONTINUOUS
 10
0.887429
 20
-1.482547
  0
VERTEX
  8
EBENE_1
 62
    39
  6
CONTINUOUS
 10
0.902285
 20
-1.397964
  0
VERTEX
  8
EBENE_1
 62
    39
  6
CONTINUOUS
 10
0.932789
 20
-1.330060
  0
VERTEX
  8
EBENE_1
 62
    39
  6
CONTINUOUS
 10
0.975691
 20
-1.280052
  0
VERTEX
  8
EBENE_1
 62
    39
  6
CONTINUOUS
 10
1.027739
 20
-1.249156
  0
VERTEX
  8
EBENE_1
 62
    39
  6
CONTINUOUS
 10
1.085681
 20
-1.238587
  0
VERTEX
  8
EBENE_1
 62
    39
  6
CONTINUOUS
 10
1.797531
 20
-1.238587
  0
VERTEX
  8
EBENE_1
 62
    39
  6
CONTINUOUS
 10
1.869562
 20
-1.251855
  0
VERTEX
  8
EBENE_1
 62
    39
  6
CONTINUOUS
 10
1.902922
 20
-1.285753
  0
VERTEX
  8
EBENE_1
 62
    39
  6
CONTINUOUS
 10
1.920897
 20
-1.331422
  0
SEQEND
  8
0
  0
POLYLINE
  8
EBENE_1
 62
    39
  6
CONTINUOUS
 66
     1
 40
0.003000
 41
0.003000
 70
     1
  0
VERTEX
  8
EBENE_1
 62
    39
  6
CONTINUOUS
 10
1.303602
 20
-0.632035
  0
VERTEX
  8
EBENE_1
 62
    39
  6
CONTINUOUS
 10
1.569039
 20
-1.535189
  0
VERTEX
  8
EBENE_1
 62
    39
  6
CONTINUOUS
 10
0.879768
 20
-1.544114
  0
VERTEX
  8
EBENE_1
 62
    39
  6
CONTINUOUS
 10
0.848252
 20
-1.540260
  0
VERTEX
  8
EBENE_1
 62
    39
  6
CONTINUOUS
 10
0.813530
 20
-1.531077
  0
VERTEX
  8
EBENE_1
 62
    39
  6
CONTINUOUS
 10
0.776131
 20
-1.516746
  0
VERTEX
  8
EBENE_1
 62
    39
  6
CONTINUOUS
 10
0.736582
 20
-1.497447
  0
VERTEX
  8
EBENE_1
 62
    39
  6
CONTINUOUS
 10
0.695412
 20
-1.473361
  0
VERTEX
  8
EBENE_1
 62
    39
  6
CONTINUOUS
 10
0.653147
 20
-1.444669
  0
VERTEX
  8
EBENE_1
 62
    39
  6
CONTINUOUS
 10
0.610316
 20
-1.411550
  0
VERTEX
  8
EBENE_1
 62
    39
  6
CONTINUOUS
 10
0.567446
 20
-1.374186
  0
VERTEX
  8
EBENE_1
 62
    39
  6
CONTINUOUS
 10
0.525065
 20
-1.332757
  0
VERTEX
  8
EBENE_1
 62
    39
  6
CONTINUOUS
 10
0.483700
 20
-1.287443
  0
VERTEX
  8
EBENE_1
 62
    39
  6
CONTINUOUS
 10
0.443881
 20
-1.238425
  0
VERTEX
  8
EBENE_1
 62
    39
  6
CONTINUOUS
 10
0.406134
 20
-1.185883
  0
VERTEX
  8
EBENE_1
 62
    39
  6
CONTINUOUS
 10
0.370986
 20
-1.129997
  0
VERTEX
  8
EBENE_1
 62
    39
  6
CONTINUOUS
 10
0.338967
 20
-1.070949
  0
VERTEX
  8
EBENE_1
 62
    39
  6
CONTINUOUS
 10
0.310603
 20
-1.008919
  0
VERTEX
  8
EBENE_1
 62
    39
  6
CONTINUOUS
 10
0.286423
 20
-0.944086
  0
VERTEX
  8
EBENE_1
 62
    39
  6
CONTINUOUS
 10
0.266954
 20
-0.876633
  0
VERTEX
  8
EBENE_1
 62
    39
  6
CONTINUOUS
 10
0.252724
 20
-0.806738
  0
VERTEX
  8
EBENE_1
 62
    39
  6
CONTINUOUS
 10
0.244260
 20
-0.734583
  0
VERTEX
  8
EBENE_1
 62
    39
  6
CONTINUOUS
 10
0.244260
 20
-0.734583
  0
VERTEX
  8
EBENE_1
 62
    39
  6
CONTINUOUS
 10
0.259116
 20
-0.649999
  0
VERTEX
  8
EBENE_1
 62
    39
  6
CONTINUOUS
 10
0.289620
 20
-0.582095
  0
VERTEX
  8
EBENE_1
 62
    39
  6
CONTINUOUS
 10
0.332522
 20
-0.532087
  0
VERTEX
  8
EBENE_1
 62
    39
  6
CONTINUOUS
 10
0.384569
 20
-0.501191
  0
VERTEX
  8
EBENE_1
 62
    39
  6
CONTINUOUS
 10
0.442512
 20
-0.490622
  0
VERTEX
  8
EBENE_1
 62
    39
  6
CONTINUOUS
 10
1.154362
 20
-0.490622
  0
VERTEX
  8
EBENE_1
 62
    39
  6
CONTINUOUS
 10
1.226393
 20
-0.503890
  0
VERTEX
  8
EBENE_1
 62
    39
  6
CONTINUOUS
 10
1.259753
 20
-0.537786
  0
VERTEX
  8
EBENE_1
 62
    39
  6
CONTINUOUS
 10
1.277728
 20
-0.583454
  0
SEQEND
  8
0
  0
POLYLINE
  8
EBENE_1
 62
    39
  6
CONTINUOUS
 66
     1
 40
0.003000
 41
0.003000
 70
     1
  0
VERTEX
  8
EBENE_1
 62
    39
  6
CONTINUOUS
 10
2.626705
 20
-1.373831
  0
VERTEX
  8
EBENE_1
 62
    39
  6
CONTINUOUS
 10
2.892142
 20
-2.276984
  0
VERTEX
  8
EBENE_1
 62
    39
  6
CONTINUOUS
 10
2.202870
 20
-2.285906
  0
VERTEX
  8
EBENE_1
 62
    39
  6
CONTINUOUS
 10
2.171354
 20
-2.282051
  0
VERTEX
  8
EBENE_1
 62
    39
  6
CONTINUOUS
 10
2.136633
 20
-2.272868
  0
VERTEX
  8
EBENE_1
 62
    39
  6
CONTINUOUS
 10
2.099234
 20
-2.258537
  0
VERTEX
  8
EBENE_1
 62
    39
  6
CONTINUOUS
 10
2.059685
 20
-2.239238
  0
VERTEX
  8
EBENE_1
 62
    39
  6
CONTINUOUS
 10
2.018515
 20
-2.215153
  0
VERTEX
  8
EBENE_1
 62
    39
  6
CONTINUOUS
 10
1.976250
 20
-2.186460
  0
VERTEX
  8
EBENE_1
 62
    39
  6
CONTINUOUS
 10
1.933419
 20
-2.153342
  0
VERTEX
  8
EBENE_1
 62
    39
  6
CONTINUOUS
 10
1.890549
 20
-2.115978
  0
VERTEX
  8
EBENE_1
 62
    39
  6
CONTINUOUS
 10
1.848168
 20
-2.074548
  0
VERTEX
  8
EBENE_1
 62
    39
  6
CONTINUOUS
 10
1.806804
 20
-2.029234
  0
VERTEX
  8
EBENE_1
 62
    39
  6
CONTINUOUS
 10
1.766985
 20
-1.980216
  0
VERTEX
  8
EBENE_1
 62
    39
  6
CONTINUOUS
 10
1.729238
 20
-1.927674
  0
VERTEX
  8
EBENE_1
 62
    39
  6
CONTINUOUS
 10
1.694091
 20
-1.871789
  0
VERTEX
  8
EBENE_1
 62
    39
  6
CONTINUOUS
 10
1.662071
 20
-1.812741
  0
VERTEX
  8
EBENE_1
 62
    39
  6
CONTINUOUS
 10
1.633707
 20
-1.750710
  0
VERTEX
  8
EBENE_1
 62
    39
  6
CONTINUOUS
 10
1.609527
 20
-1.685878
  0
VERTEX
  8
EBENE_1
 62
    39
  6
CONTINUOUS
 10
1.590057
 20
-1.618424
  0
VERTEX
  8
EBENE_1
 62
    39
  6
CONTINUOUS
 10
1.575826
 20
-1.548529
  0
VERTEX
  8
EBENE_1
 62
    39
  6
CONTINUOUS
 10
1.567362
 20
-1.476374
  0
VERTEX
  8
EBENE_1
 62
    39
  6
CONTINUOUS
 10
1.567362
 20
-1.476374
  0
VERTEX
  8
EBENE_1
 62
    39
  6
CONTINUOUS
 10
1.582219
 20
-1.391791
  0
VERTEX
  8
EBENE_1
 62
    39
  6
CONTINUOUS
 10
1.612724
 20
-1.323887
  0
VERTEX
  8
EBENE_1
 62
    39
  6
CONTINUOUS
 10
1.655626
 20
-1.273879
  0
VERTEX
  8
EBENE_1
 62
    39
  6
CONTINUOUS
 10
1.707673
 20
-1.242982
  0
VERTEX
  8
EBENE_1
 62
    39
  6
CONTINUOUS
 10
1.765614
 20
-1.232413
  0
VERTEX
  8
EBENE_1
 62
    39
  6
CONTINUOUS
 10
2.477469
 20
-1.232413
  0
VERTEX
  8
EBENE_1
 62
    39
  6
CONTINUOUS
 10
2.549497
 20
-1.245681
  0
VERTEX
  8
EBENE_1
 62
    39
  6
CONTINUOUS
 10
2.582857
 20
-1.279580
  0
VERTEX
  8
EBENE_1
 62
    39
  6
CONTINUOUS
 10
2.600832
 20
-1.325249
  0
SEQEND
  8
0
  0
POLYLINE
  8
EBENE_1
 62
    39
  6
CONTINUOUS
 66
     1
 40
0.003000
 41
0.003000
 70
     1
  0
VERTEX
  8
EBENE_1
 62
    39
  6
CONTINUOUS
 10
1.982890
 20
-0.628516
  0
VERTEX
  8
EBENE_1
 62
    39
  6
CONTINUOUS
 10
2.248327
 20
-1.531669
  0
VERTEX
  8
EBENE_1
 62
    39
  6
CONTINUOUS
 10
1.559051
 20
-1.540594
  0
VERTEX
  8
EBENE_1
 62
    39
  6
CONTINUOUS
 10
1.527535
 20
-1.536739
  0
VERTEX
  8
EBENE_1
 62
    39
  6
CONTINUOUS
 10
1.492814
 20
-1.527556
  0
VERTEX
  8
EBENE_1
 62
    39
  6
CONTINUOUS
 10
1.455415
 20
-1.513224
  0
VERTEX
  8
EBENE_1
 62
    39
  6
CONTINUOUS
 10
1.415866
 20
-1.493925
  0
VERTEX
  8
EBENE_1
 62
    39
  6
CONTINUOUS
 10
1.374696
 20
-1.469839
  0
VERTEX
  8
EBENE_1
 62
    39
  6
CONTINUOUS
 10
1.332431
 20
-1.441147
  0
VERTEX
  8
EBENE_1
 62
    39
  6
CONTINUOUS
 10
1.289600
 20
-1.408028
  0
VERTEX
  8
EBENE_1
 62
    39
  6
CONTINUOUS
 10
1.246731
 20
-1.370663
  0
VERTEX
  8
EBENE_1
 62
    39
  6
CONTINUOUS
 10
1.204350
 20
-1.329234
  0
VERTEX
  8
EBENE_1
 62
    39
  6
CONTINUOUS
 10
1.162986
 20
-1.283920
  0
VERTEX
  8
EBENE_1
 62
    39
  6
CONTINUOUS
 10
1.123167
 20
-1.234901
  0
VERTEX
  8
EBENE_1
 62
    39
  6
CONTINUOUS
 10
1.085420
 20
-1.182359
  0
VERTEX
  8
EBENE_1
 62
    39
  6
CONTINUOUS
 10
1.050273
 20
-1.126474
  0
VERTEX
  8
EBENE_1
 62
    39
  6
CONTINUOUS
 10
1.018254
 20
-1.067426
  0
VERTEX
  8
EBENE_1
 62
    39
  6
CONTINUOUS
 10
0.989890
 20
-1.005395
  0
VERTEX
  8
EBENE_1
 62
    39
  6
CONTINUOUS
 10
0.965710
 20
-0.940563
  0
VERTEX
  8
EBENE_1
 62
    39
  6
CONTINUOUS
 10
0.946241
 20
-0.873109
  0
VERTEX
  8
EBENE_1
 62
    39
  6
CONTINUOUS
 10
0.932011
 20
-0.803214
  0
VERTEX
  8
EBENE_1
 62
    39
  6
CONTINUOUS
 10
0.923547
 20
-0.731059
  0
VERTEX
  8
EBENE_1
 62
    39
  6
CONTINUOUS
 10
0.923547
 20
-0.731059
  0
VERTEX
  8
EBENE_1
 62
    39
  6
CONTINUOUS
 10
0.938402
 20
-0.646476
  0
VERTEX
  8
EBENE_1
 62
    39
  6
CONTINUOUS
 10
0.968906
 20
-0.578572
  0
VERTEX
  8
EBENE_1
 62
    39
  6
CONTINUOUS
 10
1.011808
 20
-0.528564
  0
VERTEX
  8
EBENE_1
 62
    39
  6
CONTINUOUS
 10
1.063856
 20
-0.497667
  0
VERTEX
  8
EBENE_1
 62
    39
  6
CONTINUOUS
 10
1.121799
 20
-0.487098
  0
VERTEX
  8
EBENE_1
 62
    39
  6
CONTINUOUS
 10
1.833650
 20
-0.487098
  0
VERTEX
  8
EBENE_1
 62
    39
  6
CONTINUOUS
 10
1.905678
 20
-0.500367
  0
VERTEX
  8
EBENE_1
 62
    39
  6
CONTINUOUS
 10
1.939039
 20
-0.534265
  0
VERTEX
  8
EBENE_1
 62
    39
  6
CONTINUOUS
 10
1.957015
 20
-0.579934
  0
SEQEND
  8
0
  0
POLYLINE
  8
EBENE_1
 62
    39
  6
CONTINUOUS
 66
     1
 40
0.003000
 41
0.003000
 70
     1
  0
VERTEX
  8
EBENE_1
 62
    39
  6
CONTINUOUS
 10
2.699173
 20
-0.628512
  0
VERTEX
  8
EBENE_1
 62
    39
  6
CONTINUOUS
 10
2.964610
 20
-1.531665
  0
VERTEX
  8
EBENE_1
 62
    39
  6
CONTINUOUS
 10
2.275339
 20
-1.540591
  0
VERTEX
  8
EBENE_1
 62
    39
  6
CONTINUOUS
 10
2.243822
 20
-1.536736
  0
VERTEX
  8
EBENE_1
 62
    39
  6
CONTINUOUS
 10
2.209101
 20
-1.527553
  0
VERTEX
  8
EBENE_1
 62
    39
  6
CONTINUOUS
 10
2.171702
 20
-1.513222
  0
VERTEX
  8
EBENE_1
 62
    39
  6
CONTINUOUS
 10
2.132154
 20
-1.493923
  0
VERTEX
  8
EBENE_1
 62
    39
  6
CONTINUOUS
 10
2.090983
 20
-1.469838
  0
VERTEX
  8
EBENE_1
 62
    39
  6
CONTINUOUS
 10
2.048719
 20
-1.441145
  0
VERTEX
  8
EBENE_1
 62
    39
  6
CONTINUOUS
 10
2.005887
 20
-1.408027
  0
VERTEX
  8
EBENE_1
 62
    39
  6
CONTINUOUS
 10
1.963018
 20
-1.370663
  0
VERTEX
  8
EBENE_1
 62
    39
  6
CONTINUOUS
 10
1.920637
 20
-1.329233
  0
VERTEX
  8
EBENE_1
 62
    39
  6
CONTINUOUS
 10
1.879273
 20
-1.283919
  0
VERTEX
  8
EBENE_1
 62
    39
  6
CONTINUOUS
 10
1.839453
 20
-1.234901
  0
VERTEX
  8
EBENE_1
 62
    39
  6
CONTINUOUS
 10
1.801706
 20
-1.182359
  0
VERTEX
  8
EBENE_1
 62
    39
  6
CONTINUOUS
 10
1.766559
 20
-1.126474
  0
VERTEX
  8
EBENE_1
 62
    39
  6
CONTINUOUS
 10
1.734540
 20
-1.067426
  0
VERTEX
  8
EBENE_1
 62
    39
  6
CONTINUOUS
 10
1.706176
 20
-1.005395
  0
VERTEX
  8
EBENE_1
 62
    39
  6
CONTINUOUS
 10
1.681995
 20
-0.940563
  0
VERTEX
  8
EBENE_1
 62
    39
  6
CONTINUOUS
 10
1.662526
 20
-0.873109
  0
VERTEX
  8
EBENE_1
 62
    39
  6
CONTINUOUS
 10
1.648295
 20
-0.803214
  0
VERTEX
  8
EBENE_1
 62
    39
  6
CONTINUOUS
 10
1.639831
 20
-0.731059
  0
VERTEX
  8
EBENE_1
 62
    39
  6
CONTINUOUS
 10
1.639831
 20
-0.731059
  0
VERTEX
  8
EBENE_1
 62
    39
  6
CONTINUOUS
 10
1.654687
 20
-0.646475
  0
VERTEX
  8
EBENE_1
 62
    39
  6
CONTINUOUS
 10
1.685191
 20
-0.578570
  0
VERTEX
  8
EBENE_1
 62
    39
  6
CONTINUOUS
 10
1.728093
 20
-0.528561
  0
VERTEX
  8
EBENE_1
 62
    39
  6
CONTINUOUS
 10
1.780140
 20
-0.497664
  0
VERTEX
  8
EBENE_1
 62
    39
  6
CONTINUOUS
 10
1.838083
 20
-0.487094
  0
VERTEX
  8
EBENE_1
 62
    39
  6
CONTINUOUS
 10
2.549933
 20
-0.487098
  0
VERTEX
  8
EBENE_1
 62
    39
  6
CONTINUOUS
 10
2.621963
 20
-0.500366
  0
VERTEX
  8
EBENE_1
 62
    39
  6
CONTINUOUS
 10
2.655324
 20
-0.534263
  0
VERTEX
  8
EBENE_1
 62
    39
  6
CONTINUOUS
 10
2.673299
 20
-0.579931
  0
SEQEND
  8
0
  0
POLYLINE
  8
EBENE_1
 62
    39
  6
CONTINUOUS
 66
     1
 40
0.003000
 41
0.003000
 70
     1
  0
VERTEX
  8
EBENE_1
 62
    39
  6
CONTINUOUS
 10
2.486209
 20
-0.541287
  0
VERTEX
  8
EBENE_1
 62
    39
  6
CONTINUOUS
 10
2.478197
 20
-0.543474
  0
VERTEX
  8
EBENE_1
 62
    39
  6
CONTINUOUS
 10
2.472490
 20
-0.549211
  0
VERTEX
  8
EBENE_1
 62
    39
  6
CONTINUOUS
 10
2.470315
 20
-0.557264
  0
VERTEX
  8
EBENE_1
 62
    39
  6
CONTINUOUS
 10
2.472490
 20
-0.565314
  0
VERTEX
  8
EBENE_1
 62
    39
  6
CONTINUOUS
 10
2.478197
 20
-0.571050
  0
VERTEX
  8
EBENE_1
 62
    39
  6
CONTINUOUS
 10
2.486209
 20
-0.573236
  0
VERTEX
  8
EBENE_1
 62
    39
  6
CONTINUOUS
 10
2.494221
 20
-0.571050
  0
VERTEX
  8
EBENE_1
 62
    39
  6
CONTINUOUS
 10
2.499928
 20
-0.565314
  0
VERTEX
  8
EBENE_1
 62
    39
  6
CONTINUOUS
 10
2.502102
 20
-0.557264
  0
VERTEX
  8
EBENE_1
 62
    39
  6
CONTINUOUS
 10
2.499928
 20
-0.549211
  0
VERTEX
  8
EBENE_1
 62
    39
  6
CONTINUOUS
 10
2.494221
 20
-0.543474
  0
SEQEND
  8
0
  0
POLYLINE
  8
EBENE_1
 62
    39
  6
CONTINUOUS
 66
     1
 40
0.003000
 41
0.003000
 70
     1
  0
VERTEX
  8
EBENE_1
 62
    39
  6
CONTINUOUS
 10
2.599634
 20
-0.719886
  0
VERTEX
  8
EBENE_1
 62
    39
  6
CONTINUOUS
 10
2.591624
 20
-0.722072
  0
VERTEX
  8
EBENE_1
 62
    39
  6
CONTINUOUS
 10
2.585916
 20
-0.727809
  0
VERTEX
  8
EBENE_1
 62
    39
  6
CONTINUOUS
 10
2.583740
 20
-0.735862
  0
VERTEX
  8
EBENE_1
 62
    39
  6
CONTINUOUS
 10
2.585916
 20
-0.743912
  0
VERTEX
  8
EBENE_1
 62
    39
  6
CONTINUOUS
 10
2.591624
 20
-0.749648
  0
VERTEX
  8
EBENE_1
 62
    39
  6
CONTINUOUS
 10
2.599634
 20
-0.751835
  0
VERTEX
  8
EBENE_1
 62
    39
  6
CONTINUOUS
 10
2.607647
 20
-0.749648
  0
VERTEX
  8
EBENE_1
 62
    39
  6
CONTINUOUS
 10
2.613356
 20
-0.743912
  0
VERTEX
  8
EBENE_1
 62
    39
  6
CONTINUOUS
 10
2.615531
 20
-0.735862
  0
VERTEX
  8
EBENE_1
 62
    39
  6
CONTINUOUS
 10
2.613356
 20
-0.727809
  0
VERTEX
  8
EBENE_1
 62
    39
  6
CONTINUOUS
 10
2.607647
 20
-0.722072
  0
SEQEND
  8
0
  0
POLYLINE
  8
EBENE_1
 62
    39
  6
CONTINUOUS
 66
     1
 40
0.003000
 41
0.003000
 70
     1
  0
VERTEX
  8
EBENE_1
 62
    39
  6
CONTINUOUS
 10
0.379811
 20
-0.080461
  0
VERTEX
  8
EBENE_1
 62
    39
  6
CONTINUOUS
 10
0.640173
 20
-0.831776
  0
VERTEX
  8
EBENE_1
 62
    39
  6
CONTINUOUS
 10
0.242697
 20
-0.846000
  0
VERTEX
  8
EBENE_1
 62
    39
  6
CONTINUOUS
 10
0.207547
 20
-0.842084
  0
VERTEX
  8
EBENE_1
 62
    39
  6
CONTINUOUS
 10
0.168212
 20
-0.831761
  0
VERTEX
  8
EBENE_1
 62
    39
  6
CONTINUOUS
 10
0.125517
 20
-0.815280
  0
VERTEX
  8
EBENE_1
 62
    39
  6
CONTINUOUS
 10
0.080287
 20
-0.792889
  0
VERTEX
  8
EBENE_1
 62
    39
  6
CONTINUOUS
 10
0.033347
 20
-0.764838
  0
VERTEX
  8
EBENE_1
 62
    39
  6
CONTINUOUS
 10
-0.014479
 20
-0.731373
  0
VERTEX
  8
EBENE_1
 62
    39
  6
CONTINUOUS
 10
-0.062366
 20
-0.692746
  0
VERTEX
  8
EBENE_1
 62
    39
  6
CONTINUOUS
 10
-0.109488
 20
-0.649203
  0
VERTEX
  8
EBENE_1
 62
    39
  6
CONTINUOUS
 10
-0.155022
 20
-0.600993
  0
VERTEX
  8
EBENE_1
 62
    39
  6
CONTINUOUS
 10
-0.198142
 20
-0.548366
  0
VERTEX
  8
EBENE_1
 62
    39
  6
CONTINUOUS
 10
-0.238024
 20
-0.491570
  0
VERTEX
  8
EBENE_1
 62
    39
  6
CONTINUOUS
 10
-0.273843
 20
-0.430853
  0
VERTEX
  8
EBENE_1
 62
    39
  6
CONTINUOUS
 10
-0.304774
 20
-0.366464
  0
VERTEX
  8
EBENE_1
 62
    39
  6
CONTINUOUS
 10
-0.329992
 20
-0.298652
  0
VERTEX
  8
EBENE_1
 62
    39
  6
CONTINUOUS
 10
-0.348673
 20
-0.227665
  0
VERTEX
  8
EBENE_1
 62
    39
  6
CONTINUOUS
 10
-0.359992
 20
-0.153752
  0
VERTEX
  8
EBENE_1
 62
    39
  6
CONTINUOUS
 10
-0.342048
 20
-0.063983
  0
VERTEX
  8
EBENE_1
 62
    39
  6
CONTINUOUS
 10
-0.302170
 20
0.003128
  0
VERTEX
  8
EBENE_1
 62
    39
  6
CONTINUOUS
 10
-0.246210
 20
0.045427
  0
VERTEX
  8
EBENE_1
 62
    39
  6
CONTINUOUS
 10
-0.180020
 20
0.060760
  0
VERTEX
  8
EBENE_1
 62
    39
  6
CONTINUOUS
 10
0.238551
 20
0.067591
  0
VERTEX
  8
EBENE_1
 62
    39
  6
CONTINUOUS
 10
0.319114
 20
0.042022
  0
VERTEX
  8
EBENE_1
 62
    39
  6
CONTINUOUS
 10
0.349322
 20
-0.017780
  0
SEQEND
  8
0
  0
POLYLINE
  8
EBENE_1
 62
    39
  6
CONTINUOUS
 66
     1
 40
0.003000
 41
0.003000
 70
     1
  0
VERTEX
  8
EBENE_1
 62
    39
  6
CONTINUOUS
 10
-0.263358
 20
0.549217
  0
VERTEX
  8
EBENE_1
 62
    39
  6
CONTINUOUS
 10
-0.002996
 20
-0.202098
  0
VERTEX
  8
EBENE_1
 62
    39
  6
CONTINUOUS
 10
-0.400472
 20
-0.216323
  0
VERTEX
  8
EBENE_1
 62
    39
  6
CONTINUOUS
 10
-0.435623
 20
-0.212407
  0
VERTEX
  8
EBENE_1
 62
    39
  6
CONTINUOUS
 10
-0.474958
 20
-0.202084
  0
VERTEX
  8
EBENE_1
 62
    39
  6
CONTINUOUS
 10
-0.517653
 20
-0.185603
  0
VERTEX
  8
EBENE_1
 62
    39
  6
CONTINUOUS
 10
-0.562883
 20
-0.163212
  0
VERTEX
  8
EBENE_1
 62
    39
  6
CONTINUOUS
 10
-0.609823
 20
-0.135160
  0
VERTEX
  8
EBENE_1
 62
    39
  6
CONTINUOUS
 10
-0.657649
 20
-0.101696
  0
VERTEX
  8
EBENE_1
 62
    39
  6
CONTINUOUS
 10
-0.705536
 20
-0.063068
  0
VERTEX
  8
EBENE_1
 62
    39
  6
CONTINUOUS
 10
-0.752659
 20
-0.019526
  0
VERTEX
  8
EBENE_1
 62
    39
  6
CONTINUOUS
 10
-0.798193
 20
0.028684
  0
VERTEX
  8
EBENE_1
 62
    39
  6
CONTINUOUS
 10
-0.841313
 20
0.081311
  0
VERTEX
  8
EBENE_1
 62
    39
  6
CONTINUOUS
 10
-0.881195
 20
0.138107
  0
VERTEX
  8
EBENE_1
 62
    39
  6
CONTINUOUS
 10
-0.917014
 20
0.198824
  0
VERTEX
  8
EBENE_1
 62
    39
  6
CONTINUOUS
 10
-0.947945
 20
0.263213
  0
VERTEX
  8
EBENE_1
 62
    39
  6
CONTINUOUS
 10
-0.973163
 20
0.331025
  0
VERTEX
  8
EBENE_1
 62
    39
  6
CONTINUOUS
 10
-0.991843
 20
0.402012
  0
VERTEX
  8
EBENE_1
 62
    39
  6
CONTINUOUS
 10
-1.003161
 20
0.475925
  0
VERTEX
  8
EBENE_1
 62
    39
  6
CONTINUOUS
 10
-0.985218
 20
0.565694
  0
VERTEX
  8
EBENE_1
 62
    39
  6
CONTINUOUS
 10
-0.945340
 20
0.632805
  0
VERTEX
  8
EBENE_1
 62
    39
  6
CONTINUOUS
 10
-0.889379
 20
0.675104
  0
VERTEX
  8
EBENE_1
 62
    39
  6
CONTINUOUS
 10
-0.823189
 20
0.690437
  0
VERTEX
  8
EBENE_1
 62
    39
  6
CONTINUOUS
 10
-0.404618
 20
0.697268
  0
VERTEX
  8
EBENE_1
 62
    39
  6
CONTINUOUS
 10
-0.324056
 20
0.671699
  0
VERTEX
  8
EBENE_1
 62
    39
  6
CONTINUOUS
 10
-0.293847
 20
0.611898
  0
SEQEND
  8
0
  0
POLYLINE
  8
EBENE_1
 62
    39
  6
CONTINUOUS
 66
     1
 40
0.003000
 41
0.003000
 70
     1
  0
VERTEX
  8
EBENE_1
 62
    39
  6
CONTINUOUS
 10
-0.894465
 20
1.098449
  0
VERTEX
  8
EBENE_1
 62
    39
  6
CONTINUOUS
 10
-0.646165
 20
0.381941
  0
VERTEX
  8
EBENE_1
 62
    39
  6
CONTINUOUS
 10
-1.025228
 20
0.368378
  0
VERTEX
  8
EBENE_1
 62
    39
  6
CONTINUOUS
 10
-1.058750
 20
0.372112
  0
VERTEX
  8
EBENE_1
 62
    39
  6
CONTINUOUS
 10
-1.096263
 20
0.381957
  0
VERTEX
  8
EBENE_1
 62
    39
  6
CONTINUOUS
 10
-1.136980
 20
0.397674
  0
VERTEX
  8
EBENE_1
 62
    39
  6
CONTINUOUS
 10
-1.180115
 20
0.419027
  0
VERTEX
  8
EBENE_1
 62
    39
  6
CONTINUOUS
 10
-1.224881
 20
0.445779
  0
VERTEX
  8
EBENE_1
 62
    39
  6
CONTINUOUS
 10
-1.270491
 20
0.477693
  0
VERTEX
  8
EBENE_1
 62
    39
  6
CONTINUOUS
 10
-1.316160
 20
0.514531
  0
VERTEX
  8
EBENE_1
 62
    39
  6
CONTINUOUS
 10
-1.361099
 20
0.556057
  0
VERTEX
  8
EBENE_1
 62
    39
  6
CONTINUOUS
 10
-1.404524
 20
0.602033
  0
VERTEX
  8
EBENE_1
 62
    39
  6
CONTINUOUS
 10
-1.445646
 20
0.652222
  0
VERTEX
  8
EBENE_1
 62
    39
  6
CONTINUOUS
 10
-1.483681
 20
0.706387
  0
VERTEX
  8
EBENE_1
 62
    39
  6
CONTINUOUS
 10
-1.517840
 20
0.764291
  0
VERTEX
  8
EBENE_1
 62
    39
  6
CONTINUOUS
 10
-1.547338
 20
0.825697
  0
VERTEX
  8
EBENE_1
 62
    39
  6
CONTINUOUS
 10
-1.571387
 20
0.890368
  0
VERTEX
  8
EBENE_1
 62
    39
  6
CONTINUOUS
 10
-1.589202
 20
0.958066
  0
VERTEX
  8
EBENE_1
 62
    39
  6
CONTINUOUS
 10
-1.599996
 20
1.028555
  0
VERTEX
  8
EBENE_1
 62
    39
  6
CONTINUOUS
 10
-1.582884
 20
1.114165
  0
VERTEX
  8
EBENE_1
 62
    39
  6
CONTINUOUS
 10
-1.544854
 20
1.178168
  0
VERTEX
  8
EBENE_1
 62
    39
  6
CONTINUOUS
 10
-1.491486
 20
1.218508
  0
VERTEX
  8
EBENE_1
 62
    39
  6
CONTINUOUS
 10
-1.428362
 20
1.233130
  0
VERTEX
  8
EBENE_1
 62
    39
  6
CONTINUOUS
 10
-1.029181
 20
1.239642
  0
VERTEX
  8
EBENE_1
 62
    39
  6
CONTINUOUS
 10
-0.952353
 20
1.215259
  0
VERTEX
  8
EBENE_1
 62
    39
  6
CONTINUOUS
 10
-0.923542
 20
1.158228
  0
SEQEND
  8
0
  0
POLYLINE
  8
EBENE_1
 62
    39
  6
CONTINUOUS
 66
     1
 40
0.003000
 41
0.003000
 70
     1
  0
VERTEX
  8
EBENE_1
 62
    39
  6
CONTINUOUS
 10
-1.447323
 20
1.627047
  0
VERTEX
  8
EBENE_1
 62
    39
  6
CONTINUOUS
 10
-1.210937
 20
0.965598
  0
VERTEX
  8
EBENE_1
 62
    39
  6
CONTINUOUS
 10
-1.571815
 20
0.953075
  0
VERTEX
  8
EBENE_1
 62
    39
  6
CONTINUOUS
 10
-1.608615
 20
0.957481
  0
VERTEX
  8
EBENE_1
 62
    39
  6
CONTINUOUS
 10
-1.650238
 20
0.969213
  0
VERTEX
  8
EBENE_1
 62
    39
  6
CONTINUOUS
 10
-1.695566
 20
0.987944
  0
VERTEX
  8
EBENE_1
 62
    39
  6
CONTINUOUS
 10
-1.743481
 20
1.013349
  0
VERTEX
  8
EBENE_1
 62
    39
  6
CONTINUOUS
 10
-1.792865
 20
1.045100
  0
VERTEX
  8
EBENE_1
 62
    39
  6
CONTINUOUS
 10
-1.842601
 20
1.082870
  0
VERTEX
  8
EBENE_1
 62
    39
  6
CONTINUOUS
 10
-1.891570
 20
1.126333
  0
VERTEX
  8
EBENE_1
 62
    39
  6
CONTINUOUS
 10
-1.938655
 20
1.175162
  0
VERTEX
  8
EBENE_1
 62
    39
  6
CONTINUOUS
 10
-1.982738
 20
1.229030
  0
VERTEX
  8
EBENE_1
 62
    39
  6
CONTINUOUS
 10
-2.022702
 20
1.287610
  0
VERTEX
  8
EBENE_1
 62
    39
  6
CONTINUOUS
 10
-2.057428
 20
1.350576
  0
VERTEX
  8
EBENE_1
 62
    39
  6
CONTINUOUS
 10
-2.085799
 20
1.417601
  0
VERTEX
  8
EBENE_1
 62
    39
  6
CONTINUOUS
 10
-2.106697
 20
1.488358
  0
VERTEX
  8
EBENE_1
 62
    39
  6
CONTINUOUS
 10
-2.119004
 20
1.562520
  0
VERTEX
  8
EBENE_1
 62
    39
  6
CONTINUOUS
 10
-2.102713
 20
1.641551
  0
VERTEX
  8
EBENE_1
 62
    39
  6
CONTINUOUS
 10
-2.066507
 20
1.700636
  0
VERTEX
  8
EBENE_1
 62
    39
  6
CONTINUOUS
 10
-2.015699
 20
1.737877
  0
VERTEX
  8
EBENE_1
 62
    39
  6
CONTINUOUS
 10
-1.955602
 20
1.751378
  0
VERTEX
  8
EBENE_1
 62
    39
  6
CONTINUOUS
 10
-1.575579
 20
1.757390
  0
VERTEX
  8
EBENE_1
 62
    39
  6
CONTINUOUS
 10
-1.502434
 20
1.734880
  0
VERTEX
  8
EBENE_1
 62
    39
  6
CONTINUOUS
 10
-1.475006
 20
1.682232
  0
SEQEND
  8
0
  0
POLYLINE
  8
EBENE_1
 62
    39
  6
CONTINUOUS
 66
     1
 40
0.003000
 41
0.003000
 70
     1
  0
VERTEX
  8
EBENE_1
 62
    39
  6
CONTINUOUS
 10
-1.987047
 20
2.144280
  0
VERTEX
  8
EBENE_1
 62
    39
  6
CONTINUOUS
 10
-1.750661
 20
1.482835
  0
VERTEX
  8
EBENE_1
 62
    39
  6
CONTINUOUS
 10
-2.111535
 20
1.470311
  0
VERTEX
  8
EBENE_1
 62
    39
  6
CONTINUOUS
 10
-2.148336
 20
1.474717
  0
VERTEX
  8
EBENE_1
 62
    39
  6
CONTINUOUS
 10
-2.189959
 20
1.486449
  0
VERTEX
  8
EBENE_1
 62
    39
  6
CONTINUOUS
 10
-2.235287
 20
1.505181
  0
VERTEX
  8
EBENE_1
 62
    39
  6
CONTINUOUS
 10
-2.283202
 20
1.530585
  0
VERTEX
  8
EBENE_1
 62
    39
  6
CONTINUOUS
 10
-2.332587
 20
1.562336
  0
VERTEX
  8
EBENE_1
 62
    39
  6
CONTINUOUS
 10
-2.382323
 20
1.600106
  0
VERTEX
  8
EBENE_1
 62
    39
  6
CONTINUOUS
 10
-2.431292
 20
1.643569
  0
VERTEX
  8
EBENE_1
 62
    39
  6
CONTINUOUS
 10
-2.478378
 20
1.692398
  0
VERTEX
  8
EBENE_1
 62
    39
  6
CONTINUOUS
 10
-2.522461
 20
1.746266
  0
VERTEX
  8
EBENE_1
 62
    39
  6
CONTINUOUS
 10
-2.562425
 20
1.804846
  0
VERTEX
  8
EBENE_1
 62
    39
  6
CONTINUOUS
 10
-2.597152
 20
1.867812
  0
VERTEX
  8
EBENE_1
 62
    39
  6
CONTINUOUS
 10
-2.625523
 20
1.934837
  0
VERTEX
  8
EBENE_1
 62
    39
  6
CONTINUOUS
 10
-2.646421
 20
2.005594
  0
VERTEX
  8
EBENE_1
 62
    39
  6
CONTINUOUS
 10
-2.658728
 20
2.079756
  0
VERTEX
  8
EBENE_1
 62
    39
  6
CONTINUOUS
 10
-2.642437
 20
2.158788
  0
VERTEX
  8
EBENE_1
 62
    39
  6
CONTINUOUS
 10
-2.606230
 20
2.217872
  0
VERTEX
  8
EBENE_1
 62
    39
  6
CONTINUOUS
 10
-2.555422
 20
2.255112
  0
VERTEX
  8
EBENE_1
 62
    39
  6
CONTINUOUS
 10
-2.495327
 20
2.268610
  0
VERTEX
  8
EBENE_1
 62
    39
  6
CONTINUOUS
 10
-2.115299
 20
2.274622
  0
VERTEX
  8
EBENE_1
 62
    39
  6
CONTINUOUS
 10
-2.042157
 20
2.252112
  0
VERTEX
  8
EBENE_1
 62
    39
  6
CONTINUOUS
 10
-2.014730
 20
2.199464
  0
SEQEND
  8
0
  0
POLYLINE
  8
EBENE_1
 62
    39
  6
CONTINUOUS
 66
     1
 40
0.003000
 41
0.003000
 70
     1
  0
VERTEX
  8
EBENE_1
 62
    39
  6
CONTINUOUS
 10
0.688906
 20
-0.079843
  0
VERTEX
  8
EBENE_1
 62
    39
  6
CONTINUOUS
 10
0.937980
 20
-0.831154
  0
VERTEX
  8
EBENE_1
 62
    39
  6
CONTINUOUS
 10
0.557736
 20
-0.845378
  0
VERTEX
  8
EBENE_1
 62
    39
  6
CONTINUOUS
 10
0.524110
 20
-0.841463
  0
VERTEX
  8
EBENE_1
 62
    39
  6
CONTINUOUS
 10
0.486480
 20
-0.831140
  0
VERTEX
  8
EBENE_1
 62
    39
  6
CONTINUOUS
 10
0.445636
 20
-0.814659
  0
VERTEX
  8
EBENE_1
 62
    39
  6
CONTINUOUS
 10
0.402367
 20
-0.792269
  0
VERTEX
  8
EBENE_1
 62
    39
  6
CONTINUOUS
 10
0.357461
 20
-0.764217
  0
VERTEX
  8
EBENE_1
 62
    39
  6
CONTINUOUS
 10
0.311709
 20
-0.730753
  0
VERTEX
  8
EBENE_1
 62
    39
  6
CONTINUOUS
 10
0.265899
 20
-0.692126
  0
VERTEX
  8
EBENE_1
 62
    39
  6
CONTINUOUS
 10
0.220819
 20
-0.648583
  0
VERTEX
  8
EBENE_1
 62
    39
  6
CONTINUOUS
 10
0.177259
 20
-0.600373
  0
VERTEX
  8
EBENE_1
 62
    39
  6
CONTINUOUS
 10
0.136008
 20
-0.547746
  0
VERTEX
  8
EBENE_1
 62
    39
  6
CONTINUOUS
 10
0.097856
 20
-0.490950
  0
VERTEX
  8
EBENE_1
 62
    39
  6
CONTINUOUS
 10
0.063590
 20
-0.430233
  0
VERTEX
  8
EBENE_1
 62
    39
  6
CONTINUOUS
 10
0.034000
 20
-0.365844
  0
VERTEX
  8
EBENE_1
 62
    39
  6
CONTINUOUS
 10
0.009875
 20
-0.298033
  0
VERTEX
  8
EBENE_1
 62
    39
  6
CONTINUOUS
 10
-0.007995
 20
-0.227046
  0
VERTEX
  8
EBENE_1
 62
    39
  6
CONTINUOUS
 10
-0.018823
 20
-0.153134
  0
VERTEX
  8
EBENE_1
 62
    39
  6
CONTINUOUS
 10
-0.001657
 20
-0.063365
  0
VERTEX
  8
EBENE_1
 62
    39
  6
CONTINUOUS
 10
0.036493
 20
0.003748
  0
VERTEX
  8
EBENE_1
 62
    39
  6
CONTINUOUS
 10
0.090029
 20
0.046049
  0
VERTEX
  8
EBENE_1
 62
    39
  6
CONTINUOUS
 10
0.153350
 20
0.061382
  0
VERTEX
  8
EBENE_1
 62
    39
  6
CONTINUOUS
 10
0.553772
 20
0.068209
  0
VERTEX
  8
EBENE_1
 62
    39
  6
CONTINUOUS
 10
0.630840
 20
0.042641
  0
VERTEX
  8
EBENE_1
 62
    39
  6
CONTINUOUS
 10
0.659738
 20
-0.017160
  0
SEQEND
  8
0
  0
POLYLINE
  8
EBENE_1
 62
    39
  6
CONTINUOUS
 66
     1
 40
0.003000
 41
0.003000
 70
     1
  0
VERTEX
  8
EBENE_1
 62
    39
  6
CONTINUOUS
 10
0.045736
 20
0.549835
  0
VERTEX
  8
EBENE_1
 62
    39
  6
CONTINUOUS
 10
0.294811
 20
-0.201476
  0
VERTEX
  8
EBENE_1
 62
    39
  6
CONTINUOUS
 10
-0.085433
 20
-0.215701
  0
VERTEX
  8
EBENE_1
 62
    39
  6
CONTINUOUS
 10
-0.119060
 20
-0.211785
  0
VERTEX
  8
EBENE_1
 62
    39
  6
CONTINUOUS
 10
-0.156689
 20
-0.201463
  0
VERTEX
  8
EBENE_1
 62
    39
  6
CONTINUOUS
 10
-0.197533
 20
-0.184982
  0
VERTEX
  8
EBENE_1
 62
    39
  6
CONTINUOUS
 10
-0.240803
 20
-0.162592
  0
VERTEX
  8
EBENE_1
 62
    39
  6
CONTINUOUS
 10
-0.285708
 20
-0.134540
  0
VERTEX
  8
EBENE_1
 62
    39
  6
CONTINUOUS
 10
-0.331460
 20
-0.101076
  0
VERTEX
  8
EBENE_1
 62
    39
  6
CONTINUOUS
 10
-0.377271
 20
-0.062448
  0
VERTEX
  8
EBENE_1
 62
    39
  6
CONTINUOUS
 10
-0.422350
 20
-0.018906
  0
VERTEX
  8
EBENE_1
 62
    39
  6
CONTINUOUS
 10
-0.465910
 20
0.029304
  0
VERTEX
  8
EBENE_1
 62
    39
  6
CONTINUOUS
 10
-0.507161
 20
0.081931
  0
VERTEX
  8
EBENE_1
 62
    39
  6
CONTINUOUS
 10
-0.545314
 20
0.138727
  0
VERTEX
  8
EBENE_1
 62
    39
  6
CONTINUOUS
 10
-0.579579
 20
0.199444
  0
VERTEX
  8
EBENE_1
 62
    39
  6
CONTINUOUS
 10
-0.609169
 20
0.263833
  0
VERTEX
  8
EBENE_1
 62
    39
  6
CONTINUOUS
 10
-0.633294
 20
0.331645
  0
VERTEX
  8
EBENE_1
 62
    39
  6
CONTINUOUS
 10
-0.651165
 20
0.402631
  0
VERTEX
  8
EBENE_1
 62
    39
  6
CONTINUOUS
 10
-0.661992
 20
0.476543
  0
VERTEX
  8
EBENE_1
 62
    39
  6
CONTINUOUS
 10
-0.644826
 20
0.566313
  0
VERTEX
  8
EBENE_1
 62
    39
  6
CONTINUOUS
 10
-0.606676
 20
0.633425
  0
VERTEX
  8
EBENE_1
 62
    39
  6
CONTINUOUS
 10
-0.553141
 20
0.675726
  0
VERTEX
  8
EBENE_1
 62
    39
  6
CONTINUOUS
 10
-0.489819
 20
0.691059
  0
VERTEX
  8
EBENE_1
 62
    39
  6
CONTINUOUS
 10
-0.089398
 20
0.697886
  0
VERTEX
  8
EBENE_1
 62
    39
  6
CONTINUOUS
 10
-0.012330
 20
0.672318
  0
VERTEX
  8
EBENE_1
 62
    39
  6
CONTINUOUS
 10
0.016569
 20
0.612517
  0
SEQEND
  8
0
  0
POLYLINE
  8
EBENE_1
 62
    39
  6
CONTINUOUS
 66
     1
 40
0.003000
 41
0.003000
 70
     1
  0
VERTEX
  8
EBENE_1
 62
    39
  6
CONTINUOUS
 10
-0.522146
 20
1.098551
  0
VERTEX
  8
EBENE_1
 62
    39
  6
CONTINUOUS
 10
-0.284780
 20
0.382555
  0
VERTEX
  8
EBENE_1
 62
    39
  6
CONTINUOUS
 10
-0.647150
 20
0.368996
  0
VERTEX
  8
EBENE_1
 62
    39
  6
CONTINUOUS
 10
-0.681476
 20
0.373197
  0
VERTEX
  8
EBENE_1
 62
    39
  6
CONTINUOUS
 10
-0.720086
 20
0.384326
  0
VERTEX
  8
EBENE_1
 62
    39
  6
CONTINUOUS
 10
-0.762067
 20
0.402097
  0
VERTEX
  8
EBENE_1
 62
    39
  6
CONTINUOUS
 10
-0.806507
 20
0.426222
  0
VERTEX
  8
EBENE_1
 62
    39
  6
CONTINUOUS
 10
-0.852492
 20
0.456413
  0
VERTEX
  8
EBENE_1
 62
    39
  6
CONTINUOUS
 10
-0.899111
 20
0.492383
  0
VERTEX
  8
EBENE_1
 62
    39
  6
CONTINUOUS
 10
-0.945450
 20
0.533844
  0
VERTEX
  8
EBENE_1
 62
    39
  6
CONTINUOUS
 10
-0.990598
 20
0.580509
  0
VERTEX
  8
EBENE_1
 62
    39
  6
CONTINUOUS
 10
-1.033642
 20
0.632089
  0
VERTEX
  8
EBENE_1
 62
    39
  6
CONTINUOUS
 10
-1.073668
 20
0.688298
  0
VERTEX
  8
EBENE_1
 62
    39
  6
CONTINUOUS
 10
-1.109765
 20
0.748848
  0
VERTEX
  8
EBENE_1
 62
    39
  6
CONTINUOUS
 10
-1.141020
 20
0.813451
  0
VERTEX
  8
EBENE_1
 62
    39
  6
CONTINUOUS
 10
-1.166520
 20
0.881820
  0
VERTEX
  8
EBENE_1
 62
    39
  6
CONTINUOUS
 10
-1.185353
 20
0.953667
  0
VERTEX
  8
EBENE_1
 62
    39
  6
CONTINUOUS
 10
-1.196606
 20
1.028705
  0
VERTEX
  8
EBENE_1
 62
    39
  6
CONTINUOUS
 10
-1.180249
 20
1.114254
  0
VERTEX
  8
EBENE_1
 62
    39
  6
CONTINUOUS
 10
-1.143893
 20
1.178213
  0
VERTEX
  8
EBENE_1
 62
    39
  6
CONTINUOUS
 10
-1.092875
 20
1.218525
  0
VERTEX
  8
EBENE_1
 62
    39
  6
CONTINUOUS
 10
-1.032531
 20
1.233138
  0
VERTEX
  8
EBENE_1
 62
    39
  6
CONTINUOUS
 10
-0.650929
 20
1.239646
  0
VERTEX
  8
EBENE_1
 62
    39
  6
CONTINUOUS
 10
-0.577484
 20
1.215279
  0
VERTEX
  8
EBENE_1
 62
    39
  6
CONTINUOUS
 10
-0.549943
 20
1.158288
  0
SEQEND
  8
0
  0
POLYLINE
  8
EBENE_1
 62
    39
  6
CONTINUOUS
 66
     1
 40
0.003000
 41
0.003000
 70
     1
  0
VERTEX
  8
EBENE_1
 62
    39
  6
CONTINUOUS
 10
-1.062669
 20
1.634583
  0
VERTEX
  8
EBENE_1
 62
    39
  6
CONTINUOUS
 10
-0.845299
 20
0.978890
  0
VERTEX
  8
EBENE_1
 62
    39
  6
CONTINUOUS
 10
-1.177146
 20
0.966476
  0
VERTEX
  8
EBENE_1
 62
    39
  6
CONTINUOUS
 10
-1.210986
 20
0.970843
  0
VERTEX
  8
EBENE_1
 62
    39
  6
CONTINUOUS
 10
-1.249262
 20
0.982473
  0
VERTEX
  8
EBENE_1
 62
    39
  6
CONTINUOUS
 10
-1.290944
 20
1.001042
  0
VERTEX
  8
EBENE_1
 62
    39
  6
CONTINUOUS
 10
-1.335005
 20
1.026225
  0
VERTEX
  8
EBENE_1
 62
    39
  6
CONTINUOUS
 10
-1.380417
 20
1.057700
  0
VERTEX
  8
EBENE_1
 62
    39
  6
CONTINUOUS
 10
-1.426152
 20
1.095141
  0
VERTEX
  8
EBENE_1
 62
    39
  6
CONTINUOUS
 10
-1.471183
 20
1.138226
  0
VERTEX
  8
EBENE_1
 62
    39
  6
CONTINUOUS
 10
-1.514481
 20
1.186630
  0
VERTEX
  8
EBENE_1
 62
    39
  6
CONTINUOUS
 10
-1.555019
 20
1.240029
  0
VERTEX
  8
EBENE_1
 62
    39
  6
CONTINUOUS
 10
-1.591768
 20
1.298100
  0
VERTEX
  8
EBENE_1
 62
    39
  6
CONTINUOUS
 10
-1.623701
 20
1.360518
  0
VERTEX
  8
EBENE_1
 62
    39
  6
CONTINUOUS
 10
-1.649789
 20
1.426960
  0
VERTEX
  8
EBENE_1
 62
    39
  6
CONTINUOUS
 10
-1.669006
 20
1.497101
  0
VERTEX
  8
EBENE_1
 62
    39
  6
CONTINUOUS
 10
-1.680323
 20
1.570618
  0
VERTEX
  8
EBENE_1
 62
    39
  6
CONTINUOUS
 10
-1.656040
 20
1.670777
  0
VERTEX
  8
EBENE_1
 62
    39
  6
CONTINUOUS
 10
-1.602093
 20
1.734667
  0
VERTEX
  8
EBENE_1
 62
    39
  6
CONTINUOUS
 10
-1.530067
 20
1.757831
  0
VERTEX
  8
EBENE_1
 62
    39
  6
CONTINUOUS
 10
-1.180606
 20
1.763791
  0
VERTEX
  8
EBENE_1
 62
    39
  6
CONTINUOUS
 10
-1.113347
 20
1.741477
  0
VERTEX
  8
EBENE_1
 62
    39
  6
CONTINUOUS
 10
-1.088126
 20
1.689288
  0
SEQEND
  8
0
  0
POLYLINE
  8
EBENE_1
 62
    39
  6
CONTINUOUS
 66
     1
 40
0.003000
 41
0.003000
 70
     1
  0
VERTEX
  8
EBENE_1
 62
    39
  6
CONTINUOUS
 10
-1.602394
 20
2.151815
  0
VERTEX
  8
EBENE_1
 62
    39
  6
CONTINUOUS
 10
-1.385020
 20
1.496126
  0
VERTEX
  8
EBENE_1
 62
    39
  6
CONTINUOUS
 10
-1.716870
 20
1.483713
  0
VERTEX
  8
EBENE_1
 62
    39
  6
CONTINUOUS
 10
-1.750711
 20
1.488080
  0
VERTEX
  8
EBENE_1
 62
    39
  6
CONTINUOUS
 10
-1.788986
 20
1.499709
  0
VERTEX
  8
EBENE_1
 62
    39
  6
CONTINUOUS
 10
-1.830668
 20
1.518278
  0
VERTEX
  8
EBENE_1
 62
    39
  6
CONTINUOUS
 10
-1.874729
 20
1.543461
  0
VERTEX
  8
EBENE_1
 62
    39
  6
CONTINUOUS
 10
-1.920141
 20
1.574936
  0
VERTEX
  8
EBENE_1
 62
    39
  6
CONTINUOUS
 10
-1.965876
 20
1.612377
  0
VERTEX
  8
EBENE_1
 62
    39
  6
CONTINUOUS
 10
-2.010906
 20
1.655462
  0
VERTEX
  8
EBENE_1
 62
    39
  6
CONTINUOUS
 10
-2.054204
 20
1.703866
  0
VERTEX
  8
EBENE_1
 62
    39
  6
CONTINUOUS
 10
-2.094741
 20
1.757265
  0
VERTEX
  8
EBENE_1
 62
    39
  6
CONTINUOUS
 10
-2.131490
 20
1.815336
  0
VERTEX
  8
EBENE_1
 62
    39
  6
CONTINUOUS
 10
-2.163423
 20
1.877754
  0
VERTEX
  8
EBENE_1
 62
    39
  6
CONTINUOUS
 10
-2.189513
 20
1.944196
  0
VERTEX
  8
EBENE_1
 62
    39
  6
CONTINUOUS
 10
-2.208730
 20
2.014337
  0
VERTEX
  8
EBENE_1
 62
    39
  6
CONTINUOUS
 10
-2.220047
 20
2.087854
  0
VERTEX
  8
EBENE_1
 62
    39
  6
CONTINUOUS
 10
-2.195761
 20
2.188010
  0
VERTEX
  8
EBENE_1
 62
    39
  6
CONTINUOUS
 10
-2.141814
 20
2.251900
  0
VERTEX
  8
EBENE_1
 62
    39
  6
CONTINUOUS
 10
-2.069787
 20
2.275067
  0
VERTEX
  8
EBENE_1
 62
    39
  6
CONTINUOUS
 10
-1.720331
 20
2.281024
  0
VERTEX
  8
EBENE_1
 62
    39
  6
CONTINUOUS
 10
-1.653071
 20
2.258711
  0
VERTEX
  8
EBENE_1
 62
    39
  6
CONTINUOUS
 10
-1.627850
 20
2.206521
  0
SEQEND
  8
0
  0
POLYLINE
  8
EBENE_1
 62
    39
  6
CONTINUOUS
 66
     1
 40
0.003000
 41
0.003000
 70
     1
  0
VERTEX
  8
EBENE_1
 62
    39
  6
CONTINUOUS
 10
1.350472
 20
-0.061811
  0
VERTEX
  8
EBENE_1
 62
    39
  6
CONTINUOUS
 10
1.605157
 20
-0.835803
  0
VERTEX
  8
EBENE_1
 62
    39
  6
CONTINUOUS
 10
0.943807
 20
-0.843453
  0
VERTEX
  8
EBENE_1
 62
    39
  6
CONTINUOUS
 10
0.909798
 20
-0.839457
  0
VERTEX
  8
EBENE_1
 62
    39
  6
CONTINUOUS
 10
0.872022
 20
-0.829780
  0
VERTEX
  8
EBENE_1
 62
    39
  6
CONTINUOUS
 10
0.831185
 20
-0.814637
  0
VERTEX
  8
EBENE_1
 62
    39
  6
CONTINUOUS
 10
0.787996
 20
-0.794245
  0
VERTEX
  8
EBENE_1
 62
    39
  6
CONTINUOUS
 10
0.743160
 20
-0.768820
  0
VERTEX
  8
EBENE_1
 62
    39
  6
CONTINUOUS
 10
0.697384
 20
-0.738577
  0
VERTEX
  8
EBENE_1
 62
    39
  6
CONTINUOUS
 10
0.651377
 20
-0.703732
  0
VERTEX
  8
EBENE_1
 62
    39
  6
CONTINUOUS
 10
0.605843
 20
-0.664501
  0
VERTEX
  8
EBENE_1
 62
    39
  6
CONTINUOUS
 10
0.561491
 20
-0.621101
  0
VERTEX
  8
EBENE_1
 62
    39
  6
CONTINUOUS
 10
0.519028
 20
-0.573746
  0
VERTEX
  8
EBENE_1
 62
    39
  6
CONTINUOUS
 10
0.479160
 20
-0.522654
  0
VERTEX
  8
EBENE_1
 62
    39
  6
CONTINUOUS
 10
0.442594
 20
-0.468039
  0
VERTEX
  8
EBENE_1
 62
    39
  6
CONTINUOUS
 10
0.410038
 20
-0.410119
  0
VERTEX
  8
EBENE_1
 62
    39
  6
CONTINUOUS
 10
0.382197
 20
-0.349108
  0
VERTEX
  8
EBENE_1
 62
    39
  6
CONTINUOUS
 10
0.359780
 20
-0.285222
  0
VERTEX
  8
EBENE_1
 62
    39
  6
CONTINUOUS
 10
0.343493
 20
-0.218679
  0
VERTEX
  8
EBENE_1
 62
    39
  6
CONTINUOUS
 10
0.334043
 20
-0.149693
  0
VERTEX
  8
EBENE_1
 62
    39
  6
CONTINUOUS
 10
0.354329
 20
-0.061277
  0
VERTEX
  8
EBENE_1
 62
    39
  6
CONTINUOUS
 10
0.396856
 20
0.004397
  0
VERTEX
  8
EBENE_1
 62
    39
  6
CONTINUOUS
 10
0.455532
 20
0.045294
  0
VERTEX
  8
EBENE_1
 62
    39
  6
CONTINUOUS
 10
0.524264
 20
0.059378
  0
VERTEX
  8
EBENE_1
 62
    39
  6
CONTINUOUS
 10
1.207280
 20
0.059378
  0
VERTEX
  8
EBENE_1
 62
    39
  6
CONTINUOUS
 10
1.290079
 20
0.039914
  0
VERTEX
  8
EBENE_1
 62
    39
  6
CONTINUOUS
 10
1.320159
 20
-0.006481
  0
SEQEND
  8
0
  0
POLYLINE
  8
EBENE_1
 62
    39
  6
CONTINUOUS
 66
     1
 40
0.003000
 41
0.003000
 70
     1
  0
VERTEX
  8
EBENE_1
 62
    39
  6
CONTINUOUS
 10
0.713874
 20
0.567862
  0
VERTEX
  8
EBENE_1
 62
    39
  6
CONTINUOUS
 10
0.961988
 20
-0.206126
  0
VERTEX
  8
EBENE_1
 62
    39
  6
CONTINUOUS
 10
0.317705
 20
-0.213776
  0
VERTEX
  8
EBENE_1
 62
    39
  6
CONTINUOUS
 10
0.282374
 20
-0.209339
  0
VERTEX
  8
EBENE_1
 62
    39
  6
CONTINUOUS
 10
0.242949
 20
-0.198505
  0
VERTEX
  8
EBENE_1
 62
    39
  6
CONTINUOUS
 10
0.200255
 20
-0.181530
  0
VERTEX
  8
EBENE_1
 62
    39
  6
CONTINUOUS
 10
0.155120
 20
-0.158676
  0
VERTEX
  8
EBENE_1
 62
    39
  6
CONTINUOUS
 10
0.108368
 20
-0.130200
  0
VERTEX
  8
EBENE_1
 62
    39
  6
CONTINUOUS
 10
0.060826
 20
-0.096361
  0
VERTEX
  8
EBENE_1
 62
    39
  6
CONTINUOUS
 10
0.013319
 20
-0.057419
  0
VERTEX
  8
EBENE_1
 62
    39
  6
CONTINUOUS
 10
-0.033325
 20
-0.013633
  0
VERTEX
  8
EBENE_1
 62
    39
  6
CONTINUOUS
 10
-0.078281
 20
0.034739
  0
VERTEX
  8
EBENE_1
 62
    39
  6
CONTINUOUS
 10
-0.120723
 20
0.087438
  0
VERTEX
  8
EBENE_1
 62
    39
  6
CONTINUOUS
 10
-0.159825
 20
0.144204
  0
VERTEX
  8
EBENE_1
 62
    39
  6
CONTINUOUS
 10
-0.194760
 20
0.204779
  0
VERTEX
  8
EBENE_1
 62
    39
  6
CONTINUOUS
 10
-0.224704
 20
0.268903
  0
VERTEX
  8
EBENE_1
 62
    39
  6
CONTINUOUS
 10
-0.248829
 20
0.336318
  0
VERTEX
  8
EBENE_1
 62
    39
  6
CONTINUOUS
 10
-0.266309
 20
0.406765
  0
VERTEX
  8
EBENE_1
 62
    39
  6
CONTINUOUS
 10
-0.276319
 20
0.479984
  0
VERTEX
  8
EBENE_1
 62
    39
  6
CONTINUOUS
 10
-0.256556
 20
0.568401
  0
VERTEX
  8
EBENE_1
 62
    39
  6
CONTINUOUS
 10
-0.215126
 20
0.634074
  0
VERTEX
  8
EBENE_1
 62
    39
  6
CONTINUOUS
 10
-0.157965
 20
0.674971
  0
VERTEX
  8
EBENE_1
 62
    39
  6
CONTINUOUS
 10
-0.091008
 20
0.689055
  0
VERTEX
  8
EBENE_1
 62
    39
  6
CONTINUOUS
 10
0.574378
 20
0.689055
  0
VERTEX
  8
EBENE_1
 62
    39
  6
CONTINUOUS
 10
0.655041
 20
0.669591
  0
VERTEX
  8
EBENE_1
 62
    39
  6
CONTINUOUS
 10
0.684343
 20
0.623195
  0
SEQEND
  8
0
  0
POLYLINE
  8
EBENE_1
 62
    39
  6
CONTINUOUS
 66
     1
 40
0.003000
 41
0.003000
 70
     1
  0
VERTEX
  8
EBENE_1
 62
    39
  6
CONTINUOUS
 10
0.104988
 20
1.131067
  0
VERTEX
  8
EBENE_1
 62
    39
  6
CONTINUOUS
 10
0.344248
 20
0.384693
  0
VERTEX
  8
EBENE_1
 62
    39
  6
CONTINUOUS
 10
-0.277047
 20
0.377315
  0
VERTEX
  8
EBENE_1
 62
    39
  6
CONTINUOUS
 10
-0.311118
 20
0.381593
  0
VERTEX
  8
EBENE_1
 62
    39
  6
CONTINUOUS
 10
-0.349136
 20
0.392041
  0
VERTEX
  8
EBENE_1
 62
    39
  6
CONTINUOUS
 10
-0.390307
 20
0.408409
  0
VERTEX
  8
EBENE_1
 62
    39
  6
CONTINUOUS
 10
-0.433832
 20
0.430448
  0
VERTEX
  8
EBENE_1
 62
    39
  6
CONTINUOUS
 10
-0.478916
 20
0.457909
  0
VERTEX
  8
EBENE_1
 62
    39
  6
CONTINUOUS
 10
-0.524762
 20
0.490540
  0
VERTEX
  8
EBENE_1
 62
    39
  6
CONTINUOUS
 10
-0.570574
 20
0.528093
  0
VERTEX
  8
EBENE_1
 62
    39
  6
CONTINUOUS
 10
-0.615554
 20
0.570317
  0
VERTEX
  8
EBENE_1
 62
    39
  6
CONTINUOUS
 10
-0.658906
 20
0.616963
  0
VERTEX
  8
EBENE_1
 62
    39
  6
CONTINUOUS
 10
-0.699834
 20
0.667782
  0
VERTEX
  8
EBENE_1
 62
    39
  6
CONTINUOUS
 10
-0.737540
 20
0.722523
  0
VERTEX
  8
EBENE_1
 62
    39
  6
CONTINUOUS
 10
-0.771230
 20
0.780936
  0
VERTEX
  8
EBENE_1
 62
    39
  6
CONTINUOUS
 10
-0.800104
 20
0.842773
  0
VERTEX
  8
EBENE_1
 62
    39
  6
CONTINUOUS
 10
-0.823369
 20
0.907783
  0
VERTEX
  8
EBENE_1
 62
    39
  6
CONTINUOUS
 10
-0.840225
 20
0.975716
  0
VERTEX
  8
EBENE_1
 62
    39
  6
CONTINUOUS
 10
-0.849878
 20
1.046323
  0
VERTEX
  8
EBENE_1
 62
    39
  6
CONTINUOUS
 10
-0.830820
 20
1.131586
  0
VERTEX
  8
EBENE_1
 62
    39
  6
CONTINUOUS
 10
-0.790869
 20
1.194917
  0
VERTEX
  8
EBENE_1
 62
    39
  6
CONTINUOUS
 10
-0.735746
 20
1.234355
  0
VERTEX
  8
EBENE_1
 62
    39
  6
CONTINUOUS
 10
-0.671177
 20
1.247937
  0
VERTEX
  8
EBENE_1
 62
    39
  6
CONTINUOUS
 10
-0.029531
 20
1.247937
  0
VERTEX
  8
EBENE_1
 62
    39
  6
CONTINUOUS
 10
0.048255
 20
1.229168
  0
VERTEX
  8
EBENE_1
 62
    39
  6
CONTINUOUS
 10
0.076512
 20
1.184427
  0
SEQEND
  8
0
  0
POLYLINE
  8
EBENE_1
 62
    39
  6
CONTINUOUS
 66
     1
 40
0.003000
 41
0.003000
 70
     1
  0
VERTEX
  8
EBENE_1
 62
    39
  6
CONTINUOUS
 10
-0.448614
 20
1.647465
  0
VERTEX
  8
EBENE_1
 62
    39
  6
CONTINUOUS
 10
-0.212740
 20
0.975051
  0
VERTEX
  8
EBENE_1
 62
    39
  6
CONTINUOUS
 10
-0.825248
 20
0.968406
  0
VERTEX
  8
EBENE_1
 62
    39
  6
CONTINUOUS
 10
-0.861224
 20
0.972716
  0
VERTEX
  8
EBENE_1
 62
    39
  6
CONTINUOUS
 10
-0.901568
 20
0.983335
  0
VERTEX
  8
EBENE_1
 62
    39
  6
CONTINUOUS
 10
-0.945329
 20
0.999988
  0
VERTEX
  8
EBENE_1
 62
    39
  6
CONTINUOUS
 10
-0.991552
 20
1.022403
  0
VERTEX
  8
EBENE_1
 62
    39
  6
CONTINUOUS
 10
-1.039286
 20
1.050306
  0
VERTEX
  8
EBENE_1
 62
    39
  6
CONTINUOUS
 10
-1.087576
 20
1.083424
  0
VERTEX
  8
EBENE_1
 62
    39
  6
CONTINUOUS
 10
-1.135470
 20
1.121484
  0
VERTEX
  8
EBENE_1
 62
    39
  6
CONTINUOUS
 10
-1.182014
 20
1.164214
  0
VERTEX
  8
EBENE_1
 62
    39
  6
CONTINUOUS
 10
-1.226256
 20
1.211339
  0
VERTEX
  8
EBENE_1
 62
    39
  6
CONTINUOUS
 10
-1.267242
 20
1.262588
  0
VERTEX
  8
EBENE_1
 62
    39
  6
CONTINUOUS
 10
-1.304019
 20
1.317687
  0
VERTEX
  8
EBENE_1
 62
    39
  6
CONTINUOUS
 10
-1.335635
 20
1.376362
  0
VERTEX
  8
EBENE_1
 62
    39
  6
CONTINUOUS
 10
-1.361136
 20
1.438341
  0
VERTEX
  8
EBENE_1
 62
    39
  6
CONTINUOUS
 10
-1.379569
 20
1.503351
  0
VERTEX
  8
EBENE_1
 62
    39
  6
CONTINUOUS
 10
-1.389980
 20
1.571118
  0
VERTEX
  8
EBENE_1
 62
    39
  6
CONTINUOUS
 10
-1.371194
 20
1.647931
  0
VERTEX
  8
EBENE_1
 62
    39
  6
CONTINUOUS
 10
-1.331808
 20
1.704986
  0
VERTEX
  8
EBENE_1
 62
    39
  6
CONTINUOUS
 10
-1.277465
 20
1.740516
  0
VERTEX
  8
EBENE_1
 62
    39
  6
CONTINUOUS
 10
-1.213807
 20
1.752752
  0
VERTEX
  8
EBENE_1
 62
    39
  6
CONTINUOUS
 10
-0.581232
 20
1.752752
  0
VERTEX
  8
EBENE_1
 62
    39
  6
CONTINUOUS
 10
-0.504546
 20
1.735843
  0
VERTEX
  8
EBENE_1
 62
    39
  6
CONTINUOUS
 10
-0.476689
 20
1.695536
  0
SEQEND
  8
0
  0
POLYLINE
  8
EBENE_1
 62
    39
  6
CONTINUOUS
 66
     1
 40
0.003000
 41
0.003000
 70
     1
  0
VERTEX
  8
EBENE_1
 62
    39
  6
CONTINUOUS
 10
-0.988339
 20
2.164701
  0
VERTEX
  8
EBENE_1
 62
    39
  6
CONTINUOUS
 10
-0.752461
 20
1.492287
  0
VERTEX
  8
EBENE_1
 62
    39
  6
CONTINUOUS
 10
-1.364972
 20
1.485642
  0
VERTEX
  8
EBENE_1
 62
    39
  6
CONTINUOUS
 10
-1.400947
 20
1.489953
  0
VERTEX
  8
EBENE_1
 62
    39
  6
CONTINUOUS
 10
-1.441291
 20
1.500571
  0
VERTEX
  8
EBENE_1
 62
    39
  6
CONTINUOUS
 10
-1.485052
 20
1.517224
  0
VERTEX
  8
EBENE_1
 62
    39
  6
CONTINUOUS
 10
-1.531275
 20
1.539638
  0
VERTEX
  8
EBENE_1
 62
    39
  6
CONTINUOUS
 10
-1.579008
 20
1.567541
  0
VERTEX
  8
EBENE_1
 62
    39
  6
CONTINUOUS
 10
-1.627298
 20
1.600659
  0
VERTEX
  8
EBENE_1
 62
    39
  6
CONTINUOUS
 10
-1.675192
 20
1.638719
  0
VERTEX
  8
EBENE_1
 62
    39
  6
CONTINUOUS
 10
-1.721737
 20
1.681448
  0
VERTEX
  8
EBENE_1
 62
    39
  6
CONTINUOUS
 10
-1.765979
 20
1.728574
  0
VERTEX
  8
EBENE_1
 62
    39
  6
CONTINUOUS
 10
-1.806965
 20
1.779823
  0
VERTEX
  8
EBENE_1
 62
    39
  6
CONTINUOUS
 10
-1.843743
 20
1.834921
  0
VERTEX
  8
EBENE_1
 62
    39
  6
CONTINUOUS
 10
-1.875359
 20
1.893597
  0
VERTEX
  8
EBENE_1
 62
    39
  6
CONTINUOUS
 10
-1.900860
 20
1.955576
  0
VERTEX
  8
EBENE_1
 62
    39
  6
CONTINUOUS
 10
-1.919293
 20
2.020586
  0
VERTEX
  8
EBENE_1
 62
    39
  6
CONTINUOUS
 10
-1.929705
 20
2.088354
  0
VERTEX
  8
EBENE_1
 62
    39
  6
CONTINUOUS
 10
-1.910916
 20
2.165167
  0
VERTEX
  8
EBENE_1
 62
    39
  6
CONTINUOUS
 10
-1.871530
 20
2.222222
  0
VERTEX
  8
EBENE_1
 62
    39
  6
CONTINUOUS
 10
-1.817187
 20
2.257752
  0
VERTEX
  8
EBENE_1
 62
    39
  6
CONTINUOUS
 10
-1.753531
 20
2.269988
  0
VERTEX
  8
EBENE_1
 62
    39
  6
CONTINUOUS
 10
-1.120957
 20
2.269988
  0
VERTEX
  8
EBENE_1
 62
    39
  6
CONTINUOUS
 10
-1.044271
 20
2.253078
  0
VERTEX
  8
EBENE_1
 62
    39
  6
CONTINUOUS
 10
-1.016413
 20
2.212771
  0
SEQEND
  8
0
  0
POLYLINE
  8
EBENE_1
 62
    39
  6
CONTINUOUS
 66
     1
 40
0.003000
 41
0.003000
 70
     1
  0
VERTEX
  8
EBENE_1
 62
    39
  6
CONTINUOUS
 10
2.036701
 20
-0.061811
  0
VERTEX
  8
EBENE_1
 62
    39
  6
CONTINUOUS
 10
2.276937
 20
-0.835799
  0
VERTEX
  8
EBENE_1
 62
    39
  6
CONTINUOUS
 10
1.653102
 20
-0.843449
  0
VERTEX
  8
EBENE_1
 62
    39
  6
CONTINUOUS
 10
1.618892
 20
-0.839013
  0
VERTEX
  8
EBENE_1
 62
    39
  6
CONTINUOUS
 10
1.580718
 20
-0.828179
  0
VERTEX
  8
EBENE_1
 62
    39
  6
CONTINUOUS
 10
1.539378
 20
-0.811205
  0
VERTEX
  8
EBENE_1
 62
    39
  6
CONTINUOUS
 10
1.495674
 20
-0.788351
  0
VERTEX
  8
EBENE_1
 62
    39
  6
CONTINUOUS
 10
1.450406
 20
-0.759875
  0
VERTEX
  8
EBENE_1
 62
    39
  6
CONTINUOUS
 10
1.404372
 20
-0.726036
  0
VERTEX
  8
EBENE_1
 62
    39
  6
CONTINUOUS
 10
1.358373
 20
-0.687095
  0
VERTEX
  8
EBENE_1
 62
    39
  6
CONTINUOUS
 10
1.313209
 20
-0.643308
  0
VERTEX
  8
EBENE_1
 62
    39
  6
CONTINUOUS
 10
1.269679
 20
-0.594936
  0
VERTEX
  8
EBENE_1
 62
    39
  6
CONTINUOUS
 10
1.228584
 20
-0.542237
  0
VERTEX
  8
EBENE_1
 62
    39
  6
CONTINUOUS
 10
1.190722
 20
-0.485471
  0
VERTEX
  8
EBENE_1
 62
    39
  6
CONTINUOUS
 10
1.156895
 20
-0.424897
  0
VERTEX
  8
EBENE_1
 62
    39
  6
CONTINUOUS
 10
1.127902
 20
-0.360773
  0
VERTEX
  8
EBENE_1
 62
    39
  6
CONTINUOUS
 10
1.104543
 20
-0.293358
  0
VERTEX
  8
EBENE_1
 62
    39
  6
CONTINUOUS
 10
1.087617
 20
-0.222912
  0
VERTEX
  8
EBENE_1
 62
    39
  6
CONTINUOUS
 10
1.077925
 20
-0.149693
  0
VERTEX
  8
EBENE_1
 62
    39
  6
CONTINUOUS
 10
1.097060
 20
-0.061277
  0
VERTEX
  8
EBENE_1
 62
    39
  6
CONTINUOUS
 10
1.137175
 20
0.004397
  0
VERTEX
  8
EBENE_1
 62
    39
  6
CONTINUOUS
 10
1.192523
 20
0.045294
  0
VERTEX
  8
EBENE_1
 62
    39
  6
CONTINUOUS
 10
1.257358
 20
0.059378
  0
VERTEX
  8
EBENE_1
 62
    39
  6
CONTINUOUS
 10
1.901630
 20
0.059378
  0
VERTEX
  8
EBENE_1
 62
    39
  6
CONTINUOUS
 10
1.979732
 20
0.039914
  0
VERTEX
  8
EBENE_1
 62
    39
  6
CONTINUOUS
 10
2.008105
 20
-0.006481
  0
SEQEND
  8
0
  0
POLYLINE
  8
EBENE_1
 62
    39
  6
CONTINUOUS
 66
     1
 40
0.003000
 41
0.003000
 70
     1
  0
VERTEX
  8
EBENE_1
 62
    39
  6
CONTINUOUS
 10
1.393531
 20
0.567866
  0
VERTEX
  8
EBENE_1
 62
    39
  6
CONTINUOUS
 10
1.633768
 20
-0.206122
  0
VERTEX
  8
EBENE_1
 62
    39
  6
CONTINUOUS
 10
1.009933
 20
-0.213772
  0
VERTEX
  8
EBENE_1
 62
    39
  6
CONTINUOUS
 10
0.975723
 20
-0.209336
  0
VERTEX
  8
EBENE_1
 62
    39
  6
CONTINUOUS
 10
0.937548
 20
-0.198502
  0
VERTEX
  8
EBENE_1
 62
    39
  6
CONTINUOUS
 10
0.896209
 20
-0.181528
  0
VERTEX
  8
EBENE_1
 62
    39
  6
CONTINUOUS
 10
0.852505
 20
-0.158674
  0
VERTEX
  8
EBENE_1
 62
    39
  6
CONTINUOUS
 10
0.807236
 20
-0.130198
  0
VERTEX
  8
EBENE_1
 62
    39
  6
CONTINUOUS
 10
0.761203
 20
-0.096359
  0
VERTEX
  8
EBENE_1
 62
    39
  6
CONTINUOUS
 10
0.715204
 20
-0.057417
  0
VERTEX
  8
EBENE_1
 62
    39
  6
CONTINUOUS
 10
0.670039
 20
-0.013631
  0
VERTEX
  8
EBENE_1
 62
    39
  6
CONTINUOUS
 10
0.626510
 20
0.034741
  0
VERTEX
  8
EBENE_1
 62
    39
  6
CONTINUOUS
 10
0.585414
 20
0.087440
  0
VERTEX
  8
EBENE_1
 62
    39
  6
CONTINUOUS
 10
0.547553
 20
0.144206
  0
VERTEX
  8
EBENE_1
 62
    39
  6
CONTINUOUS
 10
0.513726
 20
0.204780
  0
VERTEX
  8
EBENE_1
 62
    39
  6
CONTINUOUS
 10
0.484733
 20
0.268905
  0
VERTEX
  8
EBENE_1
 62
    39
  6
CONTINUOUS
 10
0.461374
 20
0.336319
  0
VERTEX
  8
EBENE_1
 62
    39
  6
CONTINUOUS
 10
0.444448
 20
0.406765
  0
VERTEX
  8
EBENE_1
 62
    39
  6
CONTINUOUS
 10
0.434756
 20
0.479984
  0
VERTEX
  8
EBENE_1
 62
    39
  6
CONTINUOUS
 10
0.453891
 20
0.568401
  0
VERTEX
  8
EBENE_1
 62
    39
  6
CONTINUOUS
 10
0.494006
 20
0.634074
  0
VERTEX
  8
EBENE_1
 62
    39
  6
CONTINUOUS
 10
0.549354
 20
0.674971
  0
VERTEX
  8
EBENE_1
 62
    39
  6
CONTINUOUS
 10
0.614189
 20
0.689055
  0
VERTEX
  8
EBENE_1
 62
    39
  6
CONTINUOUS
 10
1.258461
 20
0.689055
  0
VERTEX
  8
EBENE_1
 62
    39
  6
CONTINUOUS
 10
1.336563
 20
0.669591
  0
VERTEX
  8
EBENE_1
 62
    39
  6
CONTINUOUS
 10
1.364936
 20
0.623196
  0
SEQEND
  8
0
  0
POLYLINE
  8
EBENE_1
 62
    39
  6
CONTINUOUS
 66
     1
 40
0.003000
 41
0.003000
 70
     1
  0
VERTEX
  8
EBENE_1
 62
    39
  6
CONTINUOUS
 10
0.760957
 20
1.130213
  0
VERTEX
  8
EBENE_1
 62
    39
  6
CONTINUOUS
 10
0.990594
 20
0.378358
  0
VERTEX
  8
EBENE_1
 62
    39
  6
CONTINUOUS
 10
0.394283
 20
0.370929
  0
VERTEX
  8
EBENE_1
 62
    39
  6
CONTINUOUS
 10
0.359259
 20
0.375749
  0
VERTEX
  8
EBENE_1
 62
    39
  6
CONTINUOUS
 10
0.319981
 20
0.387621
  0
VERTEX
  8
EBENE_1
 62
    39
  6
CONTINUOUS
 10
0.277378
 20
0.406241
  0
VERTEX
  8
EBENE_1
 62
    39
  6
CONTINUOUS
 10
0.232376
 20
0.431303
  0
VERTEX
  8
EBENE_1
 62
    39
  6
CONTINUOUS
 10
0.185905
 20
0.462502
  0
VERTEX
  8
EBENE_1
 62
    39
  6
CONTINUOUS
 10
0.138891
 20
0.499533
  0
VERTEX
  8
EBENE_1
 62
    39
  6
CONTINUOUS
 10
0.092264
 20
0.542090
  0
VERTEX
  8
EBENE_1
 62
    39
  6
CONTINUOUS
 10
0.046950
 20
0.589867
  0
VERTEX
  8
EBENE_1
 62
    39
  6
CONTINUOUS
 10
0.003878
 20
0.642560
  0
VERTEX
  8
EBENE_1
 62
    39
  6
CONTINUOUS
 10
-0.036024
 20
0.699864
  0
VERTEX
  8
EBENE_1
 62
    39
  6
CONTINUOUS
 10
-0.071829
 20
0.761472
  0
VERTEX
  8
EBENE_1
 62
    39
  6
CONTINUOUS
 10
-0.102609
 20
0.827080
  0
VERTEX
  8
EBENE_1
 62
    39
  6
CONTINUOUS
 10
-0.127435
 20
0.896382
  0
VERTEX
  8
EBENE_1
 62
    39
  6
CONTINUOUS
 10
-0.145380
 20
0.969072
  0
VERTEX
  8
EBENE_1
 62
    39
  6
CONTINUOUS
 10
-0.155516
 20
1.044846
  0
VERTEX
  8
EBENE_1
 62
    39
  6
CONTINUOUS
 10
-0.137226
 20
1.130732
  0
VERTEX
  8
EBENE_1
 62
    39
  6
CONTINUOUS
 10
-0.098881
 20
1.194528
  0
VERTEX
  8
EBENE_1
 62
    39
  6
CONTINUOUS
 10
-0.045974
 20
1.234255
  0
VERTEX
  8
EBENE_1
 62
    39
  6
CONTINUOUS
 10
0.016000
 20
1.247937
  0
VERTEX
  8
EBENE_1
 62
    39
  6
CONTINUOUS
 10
0.631846
 20
1.247937
  0
VERTEX
  8
EBENE_1
 62
    39
  6
CONTINUOUS
 10
0.706504
 20
1.229029
  0
VERTEX
  8
EBENE_1
 62
    39
  6
CONTINUOUS
 10
0.733625
 20
1.183960
  0
SEQEND
  8
0
  0
POLYLINE
  8
EBENE_1
 62
    39
  6
CONTINUOUS
 66
     1
 40
0.003000
 41
0.003000
 70
     1
  0
VERTEX
  8
EBENE_1
 62
    39
  6
CONTINUOUS
 10
0.167795
 20
1.645752
  0
VERTEX
  8
EBENE_1
 62
    39
  6
CONTINUOUS
 10
0.372858
 20
0.962378
  0
VERTEX
  8
EBENE_1
 62
    39
  6
CONTINUOUS
 10
-0.159638
 20
0.955626
  0
VERTEX
  8
EBENE_1
 62
    39
  6
CONTINUOUS
 10
-0.193302
 20
0.960569
  0
VERTEX
  8
EBENE_1
 62
    39
  6
CONTINUOUS
 10
-0.231259
 20
0.972847
  0
VERTEX
  8
EBENE_1
 62
    39
  6
CONTINUOUS
 10
-0.272490
 20
0.992121
  0
VERTEX
  8
EBENE_1
 62
    39
  6
CONTINUOUS
 10
-0.315975
 20
1.018048
  0
VERTEX
  8
EBENE_1
 62
    39
  6
CONTINUOUS
 10
-0.360695
 20
1.050287
  0
VERTEX
  8
EBENE_1
 62
    39
  6
CONTINUOUS
 10
-0.405631
 20
1.088496
  0
VERTEX
  8
EBENE_1
 62
    39
  6
CONTINUOUS
 10
-0.449764
 20
1.132336
  0
VERTEX
  8
EBENE_1
 62
    39
  6
CONTINUOUS
 10
-0.492074
 20
1.181463
  0
VERTEX
  8
EBENE_1
 62
    39
  6
CONTINUOUS
 10
-0.531544
 20
1.235537
  0
VERTEX
  8
EBENE_1
 62
    39
  6
CONTINUOUS
 10
-0.567152
 20
1.294216
  0
VERTEX
  8
EBENE_1
 62
    39
  6
CONTINUOUS
 10
-0.597881
 20
1.357160
  0
VERTEX
  8
EBENE_1
 62
    39
  6
CONTINUOUS
 10
-0.622711
 20
1.424026
  0
VERTEX
  8
EBENE_1
 62
    39
  6
CONTINUOUS
 10
-0.640623
 20
1.494474
  0
VERTEX
  8
EBENE_1
 62
    39
  6
CONTINUOUS
 10
-0.650598
 20
1.568161
  0
VERTEX
  8
EBENE_1
 62
    39
  6
CONTINUOUS
 10
-0.624600
 20
1.667873
  0
VERTEX
  8
EBENE_1
 62
    39
  6
CONTINUOUS
 10
-0.569671
 20
1.730823
  0
VERTEX
  8
EBENE_1
 62
    39
  6
CONTINUOUS
 10
-0.497441
 20
1.752752
  0
VERTEX
  8
EBENE_1
 62
    39
  6
CONTINUOUS
 10
0.052500
 20
1.752752
  0
VERTEX
  8
EBENE_1
 62
    39
  6
CONTINUOUS
 10
0.119168
 20
1.735567
  0
VERTEX
  8
EBENE_1
 62
    39
  6
CONTINUOUS
 10
0.143387
 20
1.694604
  0
SEQEND
  8
0
  0
POLYLINE
  8
EBENE_1
 62
    39
  6
CONTINUOUS
 66
     1
 40
0.003000
 41
0.003000
 70
     1
  0
VERTEX
  8
EBENE_1
 62
    39
  6
CONTINUOUS
 10
-0.482654
 20
2.162984
  0
VERTEX
  8
EBENE_1
 62
    39
  6
CONTINUOUS
 10
-0.295390
 20
1.479614
  0
VERTEX
  8
EBENE_1
 62
    39
  6
CONTINUOUS
 10
-0.781665
 20
1.472862
  0
VERTEX
  8
EBENE_1
 62
    39
  6
CONTINUOUS
 10
-0.814948
 20
1.478493
  0
VERTEX
  8
EBENE_1
 62
    39
  6
CONTINUOUS
 10
-0.852693
 20
1.492602
  0
VERTEX
  8
EBENE_1
 62
    39
  6
CONTINUOUS
 10
-0.893739
 20
1.514762
  0
VERTEX
  8
EBENE_1
 62
    39
  6
CONTINUOUS
 10
-0.936923
 20
1.544547
  0
VERTEX
  8
EBENE_1
 62
    39
  6
CONTINUOUS
 10
-0.981083
 20
1.581531
  0
VERTEX
  8
EBENE_1
 62
    39
  6
CONTINUOUS
 10
-1.025057
 20
1.625287
  0
VERTEX
  8
EBENE_1
 62
    39
  6
CONTINUOUS
 10
-1.067681
 20
1.675389
  0
VERTEX
  8
EBENE_1
 62
    39
  6
CONTINUOUS
 10
-1.107795
 20
1.731411
  0
VERTEX
  8
EBENE_1
 62
    39
  6
CONTINUOUS
 10
-1.144235
 20
1.792926
  0
VERTEX
  8
EBENE_1
 62
    39
  6
CONTINUOUS
 10
-1.175839
 20
1.859508
  0
VERTEX
  8
EBENE_1
 62
    39
  6
CONTINUOUS
 10
-1.201445
 20
1.930731
  0
VERTEX
  8
EBENE_1
 62
    39
  6
CONTINUOUS
 10
-1.219890
 20
2.006168
  0
VERTEX
  8
EBENE_1
 62
    39
  6
CONTINUOUS
 10
-1.230012
 20
2.085394
  0
VERTEX
  8
EBENE_1
 62
    39
  6
CONTINUOUS
 10
-1.206270
 20
2.185106
  0
VERTEX
  8
EBENE_1
 62
    39
  6
CONTINUOUS
 10
-1.156108
 20
2.248058
  0
VERTEX
  8
EBENE_1
 62
    39
  6
CONTINUOUS
 10
-1.090146
 20
2.269988
  0
VERTEX
  8
EBENE_1
 62
    39
  6
CONTINUOUS
 10
-0.587941
 20
2.269988
  0
VERTEX
  8
EBENE_1
 62
    39
  6
CONTINUOUS
 10
-0.527059
 20
2.252803
  0
VERTEX
  8
EBENE_1
 62
    39
  6
CONTINUOUS
 10
-0.504942
 20
2.211839
  0
SEQEND
  8
0
  0
POLYLINE
  8
EBENE_1
 62
    39
  6
CONTINUOUS
 66
     1
 40
0.003000
 41
0.003000
 70
     1
  0
VERTEX
  8
EBENE_1
 62
    39
  6
CONTINUOUS
 10
2.275012
 20
-0.083130
  0
VERTEX
  8
EBENE_1
 62
    39
  6
CONTINUOUS
 10
2.528488
 20
-0.828693
  0
VERTEX
  8
EBENE_1
 62
    39
  6
CONTINUOUS
 10
2.141524
 20
-0.842807
  0
VERTEX
  8
EBENE_1
 62
    39
  6
CONTINUOUS
 10
2.107303
 20
-0.838921
  0
VERTEX
  8
EBENE_1
 62
    39
  6
CONTINUOUS
 10
2.069008
 20
-0.828678
  0
VERTEX
  8
EBENE_1
 62
    39
  6
CONTINUOUS
 10
2.027442
 20
-0.812323
  0
VERTEX
  8
EBENE_1
 62
    39
  6
CONTINUOUS
 10
1.983408
 20
-0.790104
  0
VERTEX
  8
EBENE_1
 62
    39
  6
CONTINUOUS
 10
1.937709
 20
-0.762267
  0
VERTEX
  8
EBENE_1
 62
    39
  6
CONTINUOUS
 10
1.891147
 20
-0.729059
  0
VERTEX
  8
EBENE_1
 62
    39
  6
CONTINUOUS
 10
1.844527
 20
-0.690727
  0
VERTEX
  8
EBENE_1
 62
    39
  6
CONTINUOUS
 10
1.798651
 20
-0.647517
  0
VERTEX
  8
EBENE_1
 62
    39
  6
CONTINUOUS
 10
1.754321
 20
-0.599677
  0
VERTEX
  8
EBENE_1
 62
    39
  6
CONTINUOUS
 10
1.712341
 20
-0.547453
  0
VERTEX
  8
EBENE_1
 62
    39
  6
CONTINUOUS
 10
1.673514
 20
-0.491091
  0
VERTEX
  8
EBENE_1
 62
    39
  6
CONTINUOUS
 10
1.638642
 20
-0.430840
  0
VERTEX
  8
EBENE_1
 62
    39
  6
CONTINUOUS
 10
1.608529
 20
-0.366944
  0
VERTEX
  8
EBENE_1
 62
    39
  6
CONTINUOUS
 10
1.583978
 20
-0.299651
  0
VERTEX
  8
EBENE_1
 62
    39
  6
CONTINUOUS
 10
1.565791
 20
-0.229209
  0
VERTEX
  8
EBENE_1
 62
    39
  6
CONTINUOUS
 10
1.554772
 20
-0.155862
  0
VERTEX
  8
EBENE_1
 62
    39
  6
CONTINUOUS
 10
1.572241
 20
-0.066780
  0
VERTEX
  8
EBENE_1
 62
    39
  6
CONTINUOUS
 10
1.611064
 20
-0.000182
  0
VERTEX
  8
EBENE_1
 62
    39
  6
CONTINUOUS
 10
1.665544
 20
0.041795
  0
VERTEX
  8
EBENE_1
 62
    39
  6
CONTINUOUS
 10
1.729984
 20
0.057012
  0
VERTEX
  8
EBENE_1
 62
    39
  6
CONTINUOUS
 10
2.137488
 20
0.063787
  0
VERTEX
  8
EBENE_1
 62
    39
  6
CONTINUOUS
 10
2.215918
 20
0.038415
  0
VERTEX
  8
EBENE_1
 62
    39
  6
CONTINUOUS
 10
2.245328
 20
-0.020928
  0
SEQEND
  8
0
  0
POLYLINE
  8
EBENE_1
 62
    39
  6
CONTINUOUS
 66
     1
 40
0.003000
 41
0.003000
 70
     1
  0
VERTEX
  8
EBENE_1
 62
    39
  6
CONTINUOUS
 10
1.631843
 20
0.546543
  0
VERTEX
  8
EBENE_1
 62
    39
  6
CONTINUOUS
 10
1.885319
 20
-0.199016
  0
VERTEX
  8
EBENE_1
 62
    39
  6
CONTINUOUS
 10
1.498350
 20
-0.213130
  0
VERTEX
  8
EBENE_1
 62
    39
  6
CONTINUOUS
 10
1.464130
 20
-0.209244
  0
VERTEX
  8
EBENE_1
 62
    39
  6
CONTINUOUS
 10
1.425836
 20
-0.199001
  0
VERTEX
  8
EBENE_1
 62
    39
  6
CONTINUOUS
 10
1.384270
 20
-0.182646
  0
VERTEX
  8
EBENE_1
 62
    39
  6
CONTINUOUS
 10
1.340237
 20
-0.160427
  0
VERTEX
  8
EBENE_1
 62
    39
  6
CONTINUOUS
 10
1.294538
 20
-0.132590
  0
VERTEX
  8
EBENE_1
 62
    39
  6
CONTINUOUS
 10
1.247977
 20
-0.099383
  0
VERTEX
  8
EBENE_1
 62
    39
  6
CONTINUOUS
 10
1.201357
 20
-0.061051
  0
VERTEX
  8
EBENE_1
 62
    39
  6
CONTINUOUS
 10
1.155481
 20
-0.017842
  0
VERTEX
  8
EBENE_1
 62
    39
  6
CONTINUOUS
 10
1.111151
 20
0.029999
  0
VERTEX
  8
EBENE_1
 62
    39
  6
CONTINUOUS
 10
1.069171
 20
0.082223
  0
VERTEX
  8
EBENE_1
 62
    39
  6
CONTINUOUS
 10
1.030344
 20
0.138584
  0
VERTEX
  8
EBENE_1
 62
    39
  6
CONTINUOUS
 10
0.995473
 20
0.198836
  0
VERTEX
  8
EBENE_1
 62
    39
  6
CONTINUOUS
 10
0.965360
 20
0.262732
  0
VERTEX
  8
EBENE_1
 62
    39
  6
CONTINUOUS
 10
0.940808
 20
0.330025
  0
VERTEX
  8
EBENE_1
 62
    39
  6
CONTINUOUS
 10
0.922622
 20
0.400468
  0
VERTEX
  8
EBENE_1
 62
    39
  6
CONTINUOUS
 10
0.911602
 20
0.473815
  0
VERTEX
  8
EBENE_1
 62
    39
  6
CONTINUOUS
 10
0.929071
 20
0.562897
  0
VERTEX
  8
EBENE_1
 62
    39
  6
CONTINUOUS
 10
0.967895
 20
0.629495
  0
VERTEX
  8
EBENE_1
 62
    39
  6
CONTINUOUS
 10
1.022375
 20
0.671472
  0
VERTEX
  8
EBENE_1
 62
    39
  6
CONTINUOUS
 10
1.086815
 20
0.686689
  0
VERTEX
  8
EBENE_1
 62
    39
  6
CONTINUOUS
 10
1.494315
 20
0.693465
  0
VERTEX
  8
EBENE_1
 62
    39
  6
CONTINUOUS
 10
1.572747
 20
0.668092
  0
VERTEX
  8
EBENE_1
 62
    39
  6
CONTINUOUS
 10
1.602158
 20
0.608748
  0
SEQEND
  8
0
  0
POLYLINE
  8
EBENE_1
 62
    39
  6
CONTINUOUS
 66
     1
 40
0.003000
 41
0.003000
 70
     1
  0
VERTEX
  8
EBENE_1
 62
    39
  6
CONTINUOUS
 10
1.079114
 20
1.104315
  0
VERTEX
  8
EBENE_1
 62
    39
  6
CONTINUOUS
 10
1.350236
 20
0.385185
  0
VERTEX
  8
EBENE_1
 62
    39
  6
CONTINUOUS
 10
0.936331
 20
0.371567
  0
VERTEX
  8
EBENE_1
 62
    39
  6
CONTINUOUS
 10
0.899728
 20
0.375315
  0
VERTEX
  8
EBENE_1
 62
    39
  6
CONTINUOUS
 10
0.858768
 20
0.385195
  0
VERTEX
  8
EBENE_1
 62
    39
  6
CONTINUOUS
 10
0.814309
 20
0.400971
  0
VERTEX
  8
EBENE_1
 62
    39
  6
CONTINUOUS
 10
0.767210
 20
0.422402
  0
VERTEX
  8
EBENE_1
 62
    39
  6
CONTINUOUS
 10
0.718330
 20
0.449253
  0
VERTEX
  8
EBENE_1
 62
    39
  6
CONTINUOUS
 10
0.668528
 20
0.481283
  0
VERTEX
  8
EBENE_1
 62
    39
  6
CONTINUOUS
 10
0.618662
 20
0.518257
  0
VERTEX
  8
EBENE_1
 62
    39
  6
CONTINUOUS
 10
0.569593
 20
0.559935
  0
VERTEX
  8
EBENE_1
 62
    39
  6
CONTINUOUS
 10
0.522177
 20
0.606080
  0
VERTEX
  8
EBENE_1
 62
    39
  6
CONTINUOUS
 10
0.477275
 20
0.656453
  0
VERTEX
  8
EBENE_1
 62
    39
  6
CONTINUOUS
 10
0.435745
 20
0.710817
  0
VERTEX
  8
EBENE_1
 62
    39
  6
CONTINUOUS
 10
0.398447
 20
0.768933
  0
VERTEX
  8
EBENE_1
 62
    39
  6
CONTINUOUS
 10
0.366238
 20
0.830564
  0
VERTEX
  8
EBENE_1
 62
    39
  6
CONTINUOUS
 10
0.339978
 20
0.895472
  0
VERTEX
  8
EBENE_1
 62
    39
  6
CONTINUOUS
 10
0.320526
 20
0.963418
  0
VERTEX
  8
EBENE_1
 62
    39
  6
CONTINUOUS
 10
0.308740
 20
1.034165
  0
VERTEX
  8
EBENE_1
 62
    39
  6
CONTINUOUS
 10
0.327425
 20
1.120089
  0
VERTEX
  8
EBENE_1
 62
    39
  6
CONTINUOUS
 10
0.368950
 20
1.184327
  0
VERTEX
  8
EBENE_1
 62
    39
  6
CONTINUOUS
 10
0.427223
 20
1.224815
  0
VERTEX
  8
EBENE_1
 62
    39
  6
CONTINUOUS
 10
0.496150
 20
1.239492
  0
VERTEX
  8
EBENE_1
 62
    39
  6
CONTINUOUS
 10
0.932016
 20
1.246028
  0
VERTEX
  8
EBENE_1
 62
    39
  6
CONTINUOUS
 10
1.015907
 20
1.221554
  0
VERTEX
  8
EBENE_1
 62
    39
  6
CONTINUOUS
 10
1.047364
 20
1.164313
  0
SEQEND
  8
0
  0
POLYLINE
  8
EBENE_1
 62
    39
  6
CONTINUOUS
 66
     1
 40
0.003000
 41
0.003000
 70
     1
  0
VERTEX
  8
EBENE_1
 62
    39
  6
CONTINUOUS
 10
0.500563
 20
1.628614
  0
VERTEX
  8
EBENE_1
 62
    39
  6
CONTINUOUS
 10
0.772740
 20
0.975031
  0
VERTEX
  8
EBENE_1
 62
    39
  6
CONTINUOUS
 10
0.357224
 20
0.962657
  0
VERTEX
  8
EBENE_1
 62
    39
  6
CONTINUOUS
 10
0.320479
 20
0.966064
  0
VERTEX
  8
EBENE_1
 62
    39
  6
CONTINUOUS
 10
0.279360
 20
0.975044
  0
VERTEX
  8
EBENE_1
 62
    39
  6
CONTINUOUS
 10
0.234727
 20
0.989381
  0
VERTEX
  8
EBENE_1
 62
    39
  6
CONTINUOUS
 10
0.187445
 20
1.008860
  0
VERTEX
  8
EBENE_1
 62
    39
  6
CONTINUOUS
 10
0.138375
 20
1.033263
  0
VERTEX
  8
EBENE_1
 62
    39
  6
CONTINUOUS
 10
0.088379
 20
1.062374
  0
VERTEX
  8
EBENE_1
 62
    39
  6
CONTINUOUS
 10
0.038319
 20
1.095977
  0
VERTEX
  8
EBENE_1
 62
    39
  6
CONTINUOUS
 10
-0.010941
 20
1.133856
  0
VERTEX
  8
EBENE_1
 62
    39
  6
CONTINUOUS
 10
-0.058541
 20
1.175794
  0
VERTEX
  8
EBENE_1
 62
    39
  6
CONTINUOUS
 10
-0.103618
 20
1.221576
  0
VERTEX
  8
EBENE_1
 62
    39
  6
CONTINUOUS
 10
-0.145310
 20
1.270984
  0
VERTEX
  8
EBENE_1
 62
    39
  6
CONTINUOUS
 10
-0.182754
 20
1.323803
  0
VERTEX
  8
EBENE_1
 62
    39
  6
CONTINUOUS
 10
-0.215088
 20
1.379816
  0
VERTEX
  8
EBENE_1
 62
    39
  6
CONTINUOUS
 10
-0.241451
 20
1.438807
  0
VERTEX
  8
EBENE_1
 62
    39
  6
CONTINUOUS
 10
-0.260979
 20
1.500560
  0
VERTEX
  8
EBENE_1
 62
    39
  6
CONTINUOUS
 10
-0.272811
 20
1.564858
  0
VERTEX
  8
EBENE_1
 62
    39
  6
CONTINUOUS
 10
-0.254055
 20
1.642950
  0
VERTEX
  8
EBENE_1
 62
    39
  6
CONTINUOUS
 10
-0.212368
 20
1.701333
  0
VERTEX
  8
EBENE_1
 62
    39
  6
CONTINUOUS
 10
-0.153868
 20
1.738130
  0
VERTEX
  8
EBENE_1
 62
    39
  6
CONTINUOUS
 10
-0.084673
 20
1.751469
  0
VERTEX
  8
EBENE_1
 62
    39
  6
CONTINUOUS
 10
0.352894
 20
1.757409
  0
VERTEX
  8
EBENE_1
 62
    39
  6
CONTINUOUS
 10
0.437112
 20
1.735168
  0
VERTEX
  8
EBENE_1
 62
    39
  6
CONTINUOUS
 10
0.468691
 20
1.683145
  0
SEQEND
  8
0
  0
POLYLINE
  8
EBENE_1
 62
    39
  6
CONTINUOUS
 66
     1
 40
0.003000
 41
0.003000
 70
     1
  0
VERTEX
  8
EBENE_1
 62
    39
  6
CONTINUOUS
 10
0.101870
 20
2.163252
  0
VERTEX
  8
EBENE_1
 62
    39
  6
CONTINUOUS
 10
0.341807
 20
1.479256
  0
VERTEX
  8
EBENE_1
 62
    39
  6
CONTINUOUS
 10
-0.281252
 20
1.472496
  0
VERTEX
  8
EBENE_1
 62
    39
  6
CONTINUOUS
 10
-0.317846
 20
1.476881
  0
VERTEX
  8
EBENE_1
 62
    39
  6
CONTINUOUS
 10
-0.358885
 20
1.487682
  0
VERTEX
  8
EBENE_1
 62
    39
  6
CONTINUOUS
 10
-0.403399
 20
1.504622
  0
VERTEX
  8
EBENE_1
 62
    39
  6
CONTINUOUS
 10
-0.450418
 20
1.527423
  0
VERTEX
  8
EBENE_1
 62
    39
  6
CONTINUOUS
 10
-0.498973
 20
1.555806
  0
VERTEX
  8
EBENE_1
 62
    39
  6
CONTINUOUS
 10
-0.548095
 20
1.589495
  0
VERTEX
  8
EBENE_1
 62
    39
  6
CONTINUOUS
 10
-0.596814
 20
1.628211
  0
VERTEX
  8
EBENE_1
 62
    39
  6
CONTINUOUS
 10
-0.644160
 20
1.671676
  0
VERTEX
  8
EBENE_1
 62
    39
  6
CONTINUOUS
 10
-0.689164
 20
1.719614
  0
VERTEX
  8
EBENE_1
 62
    39
  6
CONTINUOUS
 10
-0.730856
 20
1.771745
  0
VERTEX
  8
EBENE_1
 62
    39
  6
CONTINUOUS
 10
-0.768267
 20
1.827793
  0
VERTEX
  8
EBENE_1
 62
    39
  6
CONTINUOUS
 10
-0.800427
 20
1.887479
  0
VERTEX
  8
EBENE_1
 62
    39
  6
CONTINUOUS
 10
-0.826367
 20
1.950526
  0
VERTEX
  8
EBENE_1
 62
    39
  6
CONTINUOUS
 10
-0.845118
 20
2.016656
  0
VERTEX
  8
EBENE_1
 62
    39
  6
CONTINUOUS
 10
-0.855709
 20
2.085591
  0
VERTEX
  8
EBENE_1
 62
    39
  6
CONTINUOUS
 10
-0.836598
 20
2.163726
  0
VERTEX
  8
EBENE_1
 62
    39
  6
CONTINUOUS
 10
-0.796533
 20
2.221763
  0
VERTEX
  8
EBENE_1
 62
    39
  6
CONTINUOUS
 10
-0.741255
 20
2.257904
  0
VERTEX
  8
EBENE_1
 62
    39
  6
CONTINUOUS
 10
-0.676504
 20
2.270350
  0
VERTEX
  8
EBENE_1
 62
    39
  6
CONTINUOUS
 10
-0.033031
 20
2.270350
  0
VERTEX
  8
EBENE_1
 62
    39
  6
CONTINUOUS
 10
0.044974
 20
2.253150
  0
VERTEX
  8
EBENE_1
 62
    39
  6
CONTINUOUS
 10
0.073311
 20
2.212150
  0
SEQEND
  8
0
  0
POLYLINE
  8
EBENE_1
 62
    39
  6
CONTINUOUS
 66
     1
 40
0.003000
 41
0.003000
 70
     1
  0
VERTEX
  8
EBENE_1
 62
    39
  6
CONTINUOUS
 10
2.335421
 20
0.571311
  0
VERTEX
  8
EBENE_1
 62
    39
  6
CONTINUOUS
 10
2.575886
 20
-0.202677
  0
VERTEX
  8
EBENE_1
 62
    39
  6
CONTINUOUS
 10
1.951457
 20
-0.210327
  0
VERTEX
  8
EBENE_1
 62
    39
  6
CONTINUOUS
 10
1.917214
 20
-0.205891
  0
VERTEX
  8
EBENE_1
 62
    39
  6
CONTINUOUS
 10
1.879003
 20
-0.195057
  0
VERTEX
  8
EBENE_1
 62
    39
  6
CONTINUOUS
 10
1.837625
 20
-0.178083
  0
VERTEX
  8
EBENE_1
 62
    39
  6
CONTINUOUS
 10
1.793879
 20
-0.155229
  0
VERTEX
  8
EBENE_1
 62
    39
  6
CONTINUOUS
 10
1.748567
 20
-0.126753
  0
VERTEX
  8
EBENE_1
 62
    39
  6
CONTINUOUS
 10
1.702489
 20
-0.092914
  0
VERTEX
  8
EBENE_1
 62
    39
  6
CONTINUOUS
 10
1.656446
 20
-0.053972
  0
VERTEX
  8
EBENE_1
 62
    39
  6
CONTINUOUS
 10
1.611239
 20
-0.010186
  0
VERTEX
  8
EBENE_1
 62
    39
  6
CONTINUOUS
 10
1.567667
 20
0.038187
  0
VERTEX
  8
EBENE_1
 62
    39
  6
CONTINUOUS
 10
1.526532
 20
0.090886
  0
VERTEX
  8
EBENE_1
 62
    39
  6
CONTINUOUS
 10
1.488635
 20
0.147652
  0
VERTEX
  8
EBENE_1
 62
    39
  6
CONTINUOUS
 10
1.454775
 20
0.208227
  0
VERTEX
  8
EBENE_1
 62
    39
  6
CONTINUOUS
 10
1.425754
 20
0.272352
  0
VERTEX
  8
EBENE_1
 62
    39
  6
CONTINUOUS
 10
1.402372
 20
0.339767
  0
VERTEX
  8
EBENE_1
 62
    39
  6
CONTINUOUS
 10
1.385430
 20
0.410214
  0
VERTEX
  8
EBENE_1
 62
    39
  6
CONTINUOUS
 10
1.375728
 20
0.483433
  0
VERTEX
  8
EBENE_1
 62
    39
  6
CONTINUOUS
 10
1.394881
 20
0.571848
  0
VERTEX
  8
EBENE_1
 62
    39
  6
CONTINUOUS
 10
1.435035
 20
0.637522
  0
VERTEX
  8
EBENE_1
 62
    39
  6
CONTINUOUS
 10
1.490436
 20
0.678419
  0
VERTEX
  8
EBENE_1
 62
    39
  6
CONTINUOUS
 10
1.555331
 20
0.692504
  0
VERTEX
  8
EBENE_1
 62
    39
  6
CONTINUOUS
 10
2.200220
 20
0.692504
  0
VERTEX
  8
EBENE_1
 62
    39
  6
CONTINUOUS
 10
2.278398
 20
0.673040
  0
VERTEX
  8
EBENE_1
 62
    39
  6
CONTINUOUS
 10
2.306798
 20
0.626644
  0
SEQEND
  8
0
  0
POLYLINE
  8
EBENE_1
 62
    39
  6
CONTINUOUS
 66
     1
 40
0.003000
 41
0.003000
 70
     1
  0
VERTEX
  8
EBENE_1
 62
    39
  6
CONTINUOUS
 10
1.768201
 20
1.124713
  0
VERTEX
  8
EBENE_1
 62
    39
  6
CONTINUOUS
 10
2.000028
 20
0.378543
  0
VERTEX
  8
EBENE_1
 62
    39
  6
CONTINUOUS
 10
1.398039
 20
0.371169
  0
VERTEX
  8
EBENE_1
 62
    39
  6
CONTINUOUS
 10
1.362682
 20
0.375953
  0
VERTEX
  8
EBENE_1
 62
    39
  6
CONTINUOUS
 10
1.323031
 20
0.387737
  0
VERTEX
  8
EBENE_1
 62
    39
  6
CONTINUOUS
 10
1.280022
 20
0.406217
  0
VERTEX
  8
EBENE_1
 62
    39
  6
CONTINUOUS
 10
1.234593
 20
0.431090
  0
VERTEX
  8
EBENE_1
 62
    39
  6
CONTINUOUS
 10
1.187679
 20
0.462053
  0
VERTEX
  8
EBENE_1
 62
    39
  6
CONTINUOUS
 10
1.140219
 20
0.498804
  0
VERTEX
  8
EBENE_1
 62
    39
  6
CONTINUOUS
 10
1.093148
 20
0.541039
  0
VERTEX
  8
EBENE_1
 62
    39
  6
CONTINUOUS
 10
1.047403
 20
0.588455
  0
VERTEX
  8
EBENE_1
 62
    39
  6
CONTINUOUS
 10
1.003920
 20
0.640750
  0
VERTEX
  8
EBENE_1
 62
    39
  6
CONTINUOUS
 10
0.963638
 20
0.697620
  0
VERTEX
  8
EBENE_1
 62
    39
  6
CONTINUOUS
 10
0.927492
 20
0.758762
  0
VERTEX
  8
EBENE_1
 62
    39
  6
CONTINUOUS
 10
0.896419
 20
0.823873
  0
VERTEX
  8
EBENE_1
 62
    39
  6
CONTINUOUS
 10
0.871357
 20
0.892651
  0
VERTEX
  8
EBENE_1
 62
    39
  6
CONTINUOUS
 10
0.853241
 20
0.964791
  0
VERTEX
  8
EBENE_1
 62
    39
  6
CONTINUOUS
 10
0.843008
 20
1.039992
  0
VERTEX
  8
EBENE_1
 62
    39
  6
CONTINUOUS
 10
0.861473
 20
1.125229
  0
VERTEX
  8
EBENE_1
 62
    39
  6
CONTINUOUS
 10
0.900183
 20
1.188542
  0
VERTEX
  8
EBENE_1
 62
    39
  6
CONTINUOUS
 10
0.953592
 20
1.227969
  0
VERTEX
  8
EBENE_1
 62
    39
  6
CONTINUOUS
 10
1.016154
 20
1.241547
  0
VERTEX
  8
EBENE_1
 62
    39
  6
CONTINUOUS
 10
1.637862
 20
1.241547
  0
VERTEX
  8
EBENE_1
 62
    39
  6
CONTINUOUS
 10
1.713229
 20
1.222783
  0
VERTEX
  8
EBENE_1
 62
    39
  6
CONTINUOUS
 10
1.740608
 20
1.178055
  0
SEQEND
  8
0
  0
POLYLINE
  8
EBENE_1
 62
    39
  6
CONTINUOUS
 66
     1
 40
0.003000
 41
0.003000
 70
     1
  0
VERTEX
  8
EBENE_1
 62
    39
  6
CONTINUOUS
 10
1.176398
 20
1.645783
  0
VERTEX
  8
EBENE_1
 62
    39
  6
CONTINUOUS
 10
1.388646
 20
0.962622
  0
VERTEX
  8
EBENE_1
 62
    39
  6
CONTINUOUS
 10
0.837488
 20
0.955870
  0
VERTEX
  8
EBENE_1
 62
    39
  6
CONTINUOUS
 10
0.802644
 20
0.960811
  0
VERTEX
  8
EBENE_1
 62
    39
  6
CONTINUOUS
 10
0.763357
 20
0.973086
  0
VERTEX
  8
EBENE_1
 62
    39
  6
CONTINUOUS
 10
0.720681
 20
0.992353
  0
VERTEX
  8
EBENE_1
 62
    39
  6
CONTINUOUS
 10
0.675672
 20
1.018272
  0
VERTEX
  8
EBENE_1
 62
    39
  6
CONTINUOUS
 10
0.629385
 20
1.050501
  0
VERTEX
  8
EBENE_1
 62
    39
  6
CONTINUOUS
 10
0.582874
 20
1.088699
  0
VERTEX
  8
EBENE_1
 62
    39
  6
CONTINUOUS
 10
0.537195
 20
1.132525
  0
VERTEX
  8
EBENE_1
 62
    39
  6
CONTINUOUS
 10
0.493402
 20
1.181637
  0
VERTEX
  8
EBENE_1
 62
    39
  6
CONTINUOUS
 10
0.452549
 20
1.235695
  0
VERTEX
  8
EBENE_1
 62
    39
  6
CONTINUOUS
 10
0.415693
 20
1.294356
  0
VERTEX
  8
EBENE_1
 62
    39
  6
CONTINUOUS
 10
0.383887
 20
1.357280
  0
VERTEX
  8
EBENE_1
 62
    39
  6
CONTINUOUS
 10
0.358187
 20
1.424126
  0
VERTEX
  8
EBENE_1
 62
    39
  6
CONTINUOUS
 10
0.339647
 20
1.494552
  0
VERTEX
  8
EBENE_1
 62
    39
  6
CONTINUOUS
 10
0.329323
 20
1.568217
  0
VERTEX
  8
EBENE_1
 62
    39
  6
CONTINUOUS
 10
0.356234
 20
1.667899
  0
VERTEX
  8
EBENE_1
 62
    39
  6
CONTINUOUS
 10
0.413088
 20
1.730832
  0
VERTEX
  8
EBENE_1
 62
    39
  6
CONTINUOUS
 10
0.487850
 20
1.752756
  0
VERTEX
  8
EBENE_1
 62
    39
  6
CONTINUOUS
 10
1.057063
 20
1.752756
  0
VERTEX
  8
EBENE_1
 62
    39
  6
CONTINUOUS
 10
1.126068
 20
1.735575
  0
VERTEX
  8
EBENE_1
 62
    39
  6
CONTINUOUS
 10
1.151135
 20
1.694623
  0
SEQEND
  8
0
  0
POLYLINE
  8
EBENE_1
 62
    39
  6
CONTINUOUS
 66
     1
 40
0.003000
 41
0.003000
 70
     1
  0
VERTEX
  8
EBENE_1
 62
    39
  6
CONTINUOUS
 10
0.636673
 20
2.163020
  0
VERTEX
  8
EBENE_1
 62
    39
  6
CONTINUOUS
 10
0.848925
 20
1.479854
  0
VERTEX
  8
EBENE_1
 62
    39
  6
CONTINUOUS
 10
0.297768
 20
1.473102
  0
VERTEX
  8
EBENE_1
 62
    39
  6
CONTINUOUS
 10
0.262923
 20
1.478044
  0
VERTEX
  8
EBENE_1
 62
    39
  6
CONTINUOUS
 10
0.223635
 20
1.490319
  0
VERTEX
  8
EBENE_1
 62
    39
  6
CONTINUOUS
 10
0.180959
 20
1.509587
  0
VERTEX
  8
EBENE_1
 62
    39
  6
CONTINUOUS
 10
0.135950
 20
1.535506
  0
VERTEX
  8
EBENE_1
 62
    39
  6
CONTINUOUS
 10
0.089663
 20
1.567735
  0
VERTEX
  8
EBENE_1
 62
    39
  6
CONTINUOUS
 10
0.043152
 20
1.605934
  0
VERTEX
  8
EBENE_1
 62
    39
  6
CONTINUOUS
 10
-0.002527
 20
1.649759
  0
VERTEX
  8
EBENE_1
 62
    39
  6
CONTINUOUS
 10
-0.046320
 20
1.698872
  0
VERTEX
  8
EBENE_1
 62
    39
  6
CONTINUOUS
 10
-0.087172
 20
1.752929
  0
VERTEX
  8
EBENE_1
 62
    39
  6
CONTINUOUS
 10
-0.124029
 20
1.811591
  0
VERTEX
  8
EBENE_1
 62
    39
  6
CONTINUOUS
 10
-0.155834
 20
1.874515
  0
VERTEX
  8
EBENE_1
 62
    39
  6
CONTINUOUS
 10
-0.181534
 20
1.941361
  0
VERTEX
  8
EBENE_1
 62
    39
  6
CONTINUOUS
 10
-0.200073
 20
2.011787
  0
VERTEX
  8
EBENE_1
 62
    39
  6
CONTINUOUS
 10
-0.210398
 20
2.085453
  0
VERTEX
  8
EBENE_1
 62
    39
  6
CONTINUOUS
 10
-0.183488
 20
2.185134
  0
VERTEX
  8
EBENE_1
 62
    39
  6
CONTINUOUS
 10
-0.126633
 20
2.248065
  0
VERTEX
  8
EBENE_1
 62
    39
  6
CONTINUOUS
 10
-0.051870
 20
2.269988
  0
VERTEX
  8
EBENE_1
 62
    39
  6
CONTINUOUS
 10
0.517339
 20
2.269988
  0
VERTEX
  8
EBENE_1
 62
    39
  6
CONTINUOUS
 10
0.586344
 20
2.252809
  0
VERTEX
  8
EBENE_1
 62
    39
  6
CONTINUOUS
 10
0.611411
 20
2.211858
  0
SEQEND
  8
0
  0
POLYLINE
  8
EBENE_1
 62
    39
  6
CONTINUOUS
 66
     1
 40
0.003000
 41
0.003000
 70
     1
  0
VERTEX
  8
EBENE_1
 62
    39
  6
CONTINUOUS
 10
1.803874
 20
0.635134
  0
VERTEX
  8
EBENE_1
 62
    39
  6
CONTINUOUS
 10
1.795864
 20
0.632948
  0
VERTEX
  8
EBENE_1
 62
    39
  6
CONTINUOUS
 10
1.790156
 20
0.627212
  0
VERTEX
  8
EBENE_1
 62
    39
  6
CONTINUOUS
 10
1.787980
 20
0.619157
  0
VERTEX
  8
EBENE_1
 62
    39
  6
CONTINUOUS
 10
1.790156
 20
0.611107
  0
VERTEX
  8
EBENE_1
 62
    39
  6
CONTINUOUS
 10
1.795864
 20
0.605372
  0
VERTEX
  8
EBENE_1
 62
    39
  6
CONTINUOUS
 10
1.803874
 20
0.603185
  0
VERTEX
  8
EBENE_1
 62
    39
  6
CONTINUOUS
 10
1.811887
 20
0.605372
  0
VERTEX
  8
EBENE_1
 62
    39
  6
CONTINUOUS
 10
1.817596
 20
0.611107
  0
VERTEX
  8
EBENE_1
 62
    39
  6
CONTINUOUS
 10
1.819772
 20
0.619157
  0
VERTEX
  8
EBENE_1
 62
    39
  6
CONTINUOUS
 10
1.817596
 20
0.627212
  0
VERTEX
  8
EBENE_1
 62
    39
  6
CONTINUOUS
 10
1.811887
 20
0.632948
  0
SEQEND
  8
0
  0
POLYLINE
  8
EBENE_1
 62
    39
  6
CONTINUOUS
 66
     1
 40
0.003000
 41
0.003000
 70
     1
  0
VERTEX
  8
EBENE_1
 62
    39
  6
CONTINUOUS
 10
2.078209
 20
0.641528
  0
VERTEX
  8
EBENE_1
 62
    39
  6
CONTINUOUS
 10
2.070198
 20
0.639341
  0
VERTEX
  8
EBENE_1
 62
    39
  6
CONTINUOUS
 10
2.064491
 20
0.633604
  0
VERTEX
  8
EBENE_1
 62
    39
  6
CONTINUOUS
 10
2.062315
 20
0.625551
  0
VERTEX
  8
EBENE_1
 62
    39
  6
CONTINUOUS
 10
2.064491
 20
0.617499
  0
VERTEX
  8
EBENE_1
 62
    39
  6
CONTINUOUS
 10
2.070198
 20
0.611764
  0
VERTEX
  8
EBENE_1
 62
    39
  6
CONTINUOUS
 10
2.078209
 20
0.609579
  0
VERTEX
  8
EBENE_1
 62
    39
  6
CONTINUOUS
 10
2.086222
 20
0.611764
  0
VERTEX
  8
EBENE_1
 62
    39
  6
CONTINUOUS
 10
2.091930
 20
0.617499
  0
VERTEX
  8
EBENE_1
 62
    39
  6
CONTINUOUS
 10
2.094106
 20
0.625551
  0
VERTEX
  8
EBENE_1
 62
    39
  6
CONTINUOUS
 10
2.091930
 20
0.633604
  0
VERTEX
  8
EBENE_1
 62
    39
  6
CONTINUOUS
 10
2.086222
 20
0.639341
  0
SEQEND
  8
0
  0
POLYLINE
  8
EBENE_1
 62
    39
  6
CONTINUOUS
 66
     1
 40
0.003000
 41
0.003000
 70
     1
  0
VERTEX
  8
EBENE_1
 62
    39
  6
CONTINUOUS
 10
2.282606
 20
0.539283
  0
VERTEX
  8
EBENE_1
 62
    39
  6
CONTINUOUS
 10
2.274593
 20
0.537098
  0
VERTEX
  8
EBENE_1
 62
    39
  6
CONTINUOUS
 10
2.268885
 20
0.531363
  0
VERTEX
  8
EBENE_1
 62
    39
  6
CONTINUOUS
 10
2.266709
 20
0.523311
  0
VERTEX
  8
EBENE_1
 62
    39
  6
CONTINUOUS
 10
2.268885
 20
0.515258
  0
VERTEX
  8
EBENE_1
 62
    39
  6
CONTINUOUS
 10
2.274593
 20
0.509521
  0
VERTEX
  8
EBENE_1
 62
    39
  6
CONTINUOUS
 10
2.282606
 20
0.507335
  0
VERTEX
  8
EBENE_1
 62
    39
  6
CONTINUOUS
 10
2.290617
 20
0.509521
  0
VERTEX
  8
EBENE_1
 62
    39
  6
CONTINUOUS
 10
2.296324
 20
0.515258
  0
VERTEX
  8
EBENE_1
 62
    39
  6
CONTINUOUS
 10
2.298500
 20
0.523311
  0
VERTEX
  8
EBENE_1
 62
    39
  6
CONTINUOUS
 10
2.296324
 20
0.531363
  0
VERTEX
  8
EBENE_1
 62
    39
  6
CONTINUOUS
 10
2.290617
 20
0.537098
  0
SEQEND
  8
0
  0
POLYLINE
  8
EBENE_1
 62
    39
  6
CONTINUOUS
 66
     1
 40
0.003000
 41
0.003000
 70
     1
  0
VERTEX
  8
EBENE_1
 62
    39
  6
CONTINUOUS
 10
-2.354567
 20
2.226276
  0
VERTEX
  8
EBENE_1
 62
    39
  6
CONTINUOUS
 10
-2.362580
 20
2.224089
  0
VERTEX
  8
EBENE_1
 62
    39
  6
CONTINUOUS
 10
-2.368289
 20
2.218352
  0
VERTEX
  8
EBENE_1
 62
    39
  6
CONTINUOUS
 10
-2.370465
 20
2.210299
  0
VERTEX
  8
EBENE_1
 62
    39
  6
CONTINUOUS
 10
-2.368289
 20
2.202246
  0
VERTEX
  8
EBENE_1
 62
    39
  6
CONTINUOUS
 10
-2.362580
 20
2.196509
  0
VERTEX
  8
EBENE_1
 62
    39
  6
CONTINUOUS
 10
-2.354567
 20
2.194323
  0
VERTEX
  8
EBENE_1
 62
    39
  6
CONTINUOUS
 10
-2.346557
 20
2.196509
  0
VERTEX
  8
EBENE_1
 62
    39
  6
CONTINUOUS
 10
-2.340849
 20
2.202246
  0
VERTEX
  8
EBENE_1
 62
    39
  6
CONTINUOUS
 10
-2.338673
 20
2.210299
  0
VERTEX
  8
EBENE_1
 62
    39
  6
CONTINUOUS
 10
-2.340849
 20
2.218352
  0
VERTEX
  8
EBENE_1
 62
    39
  6
CONTINUOUS
 10
-2.346557
 20
2.224089
  0
SEQEND
  8
0
  0
POLYLINE
  8
EBENE_1
 62
    39
  6
CONTINUOUS
 66
     1
 40
0.003000
 41
0.003000
 70
     1
  0
VERTEX
  8
EBENE_1
 62
    39
  6
CONTINUOUS
 10
-1.949776
 20
2.226276
  0
VERTEX
  8
EBENE_1
 62
    39
  6
CONTINUOUS
 10
-1.957789
 20
2.224089
  0
VERTEX
  8
EBENE_1
 62
    39
  6
CONTINUOUS
 10
-1.963497
 20
2.218352
  0
VERTEX
  8
EBENE_1
 62
    39
  6
CONTINUOUS
 10
-1.965673
 20
2.210299
  0
VERTEX
  8
EBENE_1
 62
    39
  6
CONTINUOUS
 10
-1.963497
 20
2.202246
  0
VERTEX
  8
EBENE_1
 62
    39
  6
CONTINUOUS
 10
-1.957789
 20
2.196509
  0
VERTEX
  8
EBENE_1
 62
    39
  6
CONTINUOUS
 10
-1.949776
 20
2.194323
  0
VERTEX
  8
EBENE_1
 62
    39
  6
CONTINUOUS
 10
-1.941765
 20
2.196509
  0
VERTEX
  8
EBENE_1
 62
    39
  6
CONTINUOUS
 10
-1.936058
 20
2.202246
  0
VERTEX
  8
EBENE_1
 62
    39
  6
CONTINUOUS
 10
-1.933882
 20
2.210299
  0
VERTEX
  8
EBENE_1
 62
    39
  6
CONTINUOUS
 10
-1.936058
 20
2.218352
  0
VERTEX
  8
EBENE_1
 62
    39
  6
CONTINUOUS
 10
-1.941765
 20
2.224089
  0
SEQEND
  8
0
  0
POLYLINE
  8
EBENE_1
 62
    39
  6
CONTINUOUS
 66
     1
 40
0.003000
 41
0.003000
 70
     1
  0
VERTEX
  8
EBENE_1
 62
    39
  6
CONTINUOUS
 10
-1.544984
 20
2.226276
  0
VERTEX
  8
EBENE_1
 62
    39
  6
CONTINUOUS
 10
-1.552996
 20
2.224089
  0
VERTEX
  8
EBENE_1
 62
    39
  6
CONTINUOUS
 10
-1.558703
 20
2.218352
  0
VERTEX
  8
EBENE_1
 62
    39
  6
CONTINUOUS
 10
-1.560878
 20
2.210299
  0
VERTEX
  8
EBENE_1
 62
    39
  6
CONTINUOUS
 10
-1.558703
 20
2.202246
  0
VERTEX
  8
EBENE_1
 62
    39
  6
CONTINUOUS
 10
-1.552996
 20
2.196509
  0
VERTEX
  8
EBENE_1
 62
    39
  6
CONTINUOUS
 10
-1.544984
 20
2.194323
  0
VERTEX
  8
EBENE_1
 62
    39
  6
CONTINUOUS
 10
-1.536972
 20
2.196509
  0
VERTEX
  8
EBENE_1
 62
    39
  6
CONTINUOUS
 10
-1.531265
 20
2.202246
  0
VERTEX
  8
EBENE_1
 62
    39
  6
CONTINUOUS
 10
-1.529091
 20
2.210299
  0
VERTEX
  8
EBENE_1
 62
    39
  6
CONTINUOUS
 10
-1.531265
 20
2.218352
  0
VERTEX
  8
EBENE_1
 62
    39
  6
CONTINUOUS
 10
-1.536972
 20
2.224089
  0
SEQEND
  8
0
  0
POLYLINE
  8
EBENE_1
 62
    39
  6
CONTINUOUS
 66
     1
 40
0.003000
 41
0.003000
 70
     1
  0
VERTEX
  8
EBENE_1
 62
    39
  6
CONTINUOUS
 10
-1.267350
 20
2.226276
  0
VERTEX
  8
EBENE_1
 62
    39
  6
CONTINUOUS
 10
-1.275364
 20
2.224089
  0
VERTEX
  8
EBENE_1
 62
    39
  6
CONTINUOUS
 10
-1.281072
 20
2.218352
  0
VERTEX
  8
EBENE_1
 62
    39
  6
CONTINUOUS
 10
-1.283248
 20
2.210299
  0
VERTEX
  8
EBENE_1
 62
    39
  6
CONTINUOUS
 10
-1.281072
 20
2.202246
  0
VERTEX
  8
EBENE_1
 62
    39
  6
CONTINUOUS
 10
-1.275364
 20
2.196509
  0
VERTEX
  8
EBENE_1
 62
    39
  6
CONTINUOUS
 10
-1.267350
 20
2.194323
  0
VERTEX
  8
EBENE_1
 62
    39
  6
CONTINUOUS
 10
-1.259340
 20
2.196509
  0
VERTEX
  8
EBENE_1
 62
    39
  6
CONTINUOUS
 10
-1.253632
 20
2.202246
  0
VERTEX
  8
EBENE_1
 62
    39
  6
CONTINUOUS
 10
-1.251457
 20
2.210299
  0
VERTEX
  8
EBENE_1
 62
    39
  6
CONTINUOUS
 10
-1.253632
 20
2.218352
  0
VERTEX
  8
EBENE_1
 62
    39
  6
CONTINUOUS
 10
-1.259340
 20
2.224089
  0
SEQEND
  8
0
  0
POLYLINE
  8
EBENE_1
 62
    39
  6
CONTINUOUS
 66
     1
 40
0.003000
 41
0.003000
 70
     1
  0
VERTEX
  8
EBENE_1
 62
    39
  6
CONTINUOUS
 10
-0.900709
 20
2.232665
  0
VERTEX
  8
EBENE_1
 62
    39
  6
CONTINUOUS
 10
-0.908721
 20
2.230479
  0
VERTEX
  8
EBENE_1
 62
    39
  6
CONTINUOUS
 10
-0.914428
 20
2.224742
  0
VERTEX
  8
EBENE_1
 62
    39
  6
CONTINUOUS
 10
-0.916602
 20
2.216689
  0
VERTEX
  8
EBENE_1
 62
    39
  6
CONTINUOUS
 10
-0.914428
 20
2.208637
  0
VERTEX
  8
EBENE_1
 62
    39
  6
CONTINUOUS
 10
-0.908721
 20
2.202902
  0
VERTEX
  8
EBENE_1
 62
    39
  6
CONTINUOUS
 10
-0.900709
 20
2.200717
  0
VERTEX
  8
EBENE_1
 62
    39
  6
CONTINUOUS
 10
-0.892697
 20
2.202902
  0
VERTEX
  8
EBENE_1
 62
    39
  6
CONTINUOUS
 10
-0.886990
 20
2.208637
  0
VERTEX
  8
EBENE_1
 62
    39
  6
CONTINUOUS
 10
-0.884815
 20
2.216689
  0
VERTEX
  8
EBENE_1
 62
    39
  6
CONTINUOUS
 10
-0.886990
 20
2.224742
  0
VERTEX
  8
EBENE_1
 62
    39
  6
CONTINUOUS
 10
-0.892697
 20
2.230479
  0
SEQEND
  8
0
  0
POLYLINE
  8
EBENE_1
 62
    39
  6
CONTINUOUS
 66
     1
 40
0.003000
 41
0.003000
 70
     1
  0
VERTEX
  8
EBENE_1
 62
    39
  6
CONTINUOUS
 10
-0.525591
 20
2.232661
  0
VERTEX
  8
EBENE_1
 62
    39
  6
CONTINUOUS
 10
-0.533603
 20
2.230476
  0
VERTEX
  8
EBENE_1
 62
    39
  6
CONTINUOUS
 10
-0.539309
 20
2.224740
  0
VERTEX
  8
EBENE_1
 62
    39
  6
CONTINUOUS
 10
-0.541484
 20
2.216685
  0
VERTEX
  8
EBENE_1
 62
    39
  6
CONTINUOUS
 10
-0.539309
 20
2.208635
  0
VERTEX
  8
EBENE_1
 62
    39
  6
CONTINUOUS
 10
-0.533603
 20
2.202899
  0
VERTEX
  8
EBENE_1
 62
    39
  6
CONTINUOUS
 10
-0.525591
 20
2.200713
  0
VERTEX
  8
EBENE_1
 62
    39
  6
CONTINUOUS
 10
-0.517578
 20
2.202899
  0
VERTEX
  8
EBENE_1
 62
    39
  6
CONTINUOUS
 10
-0.511872
 20
2.208635
  0
VERTEX
  8
EBENE_1
 62
    39
  6
CONTINUOUS
 10
-0.509697
 20
2.216685
  0
VERTEX
  8
EBENE_1
 62
    39
  6
CONTINUOUS
 10
-0.511872
 20
2.224740
  0
VERTEX
  8
EBENE_1
 62
    39
  6
CONTINUOUS
 10
-0.517578
 20
2.230476
  0
SEQEND
  8
0
  0
POLYLINE
  8
EBENE_1
 62
    39
  6
CONTINUOUS
 66
     1
 40
0.003000
 41
0.003000
 70
     1
  0
VERTEX
  8
EBENE_1
 62
    39
  6
CONTINUOUS
 10
-0.330610
 20
2.226276
  0
VERTEX
  8
EBENE_1
 62
    39
  6
CONTINUOUS
 10
-0.338621
 20
2.224089
  0
VERTEX
  8
EBENE_1
 62
    39
  6
CONTINUOUS
 10
-0.344328
 20
2.218352
  0
VERTEX
  8
EBENE_1
 62
    39
  6
CONTINUOUS
 10
-0.346504
 20
2.210299
  0
VERTEX
  8
EBENE_1
 62
    39
  6
CONTINUOUS
 10
-0.344328
 20
2.202246
  0
VERTEX
  8
EBENE_1
 62
    39
  6
CONTINUOUS
 10
-0.338621
 20
2.196509
  0
VERTEX
  8
EBENE_1
 62
    39
  6
CONTINUOUS
 10
-0.330610
 20
2.194323
  0
VERTEX
  8
EBENE_1
 62
    39
  6
CONTINUOUS
 10
-0.322597
 20
2.196509
  0
VERTEX
  8
EBENE_1
 62
    39
  6
CONTINUOUS
 10
-0.316888
 20
2.202246
  0
VERTEX
  8
EBENE_1
 62
    39
  6
CONTINUOUS
 10
-0.314713
 20
2.210299
  0
VERTEX
  8
EBENE_1
 62
    39
  6
CONTINUOUS
 10
-0.316888
 20
2.218352
  0
VERTEX
  8
EBENE_1
 62
    39
  6
CONTINUOUS
 10
-0.322597
 20
2.224089
  0
SEQEND
  8
0
  0
POLYLINE
  8
EBENE_1
 62
    39
  6
CONTINUOUS
 66
     1
 40
0.003000
 41
0.003000
 70
     1
  0
VERTEX
  8
EBENE_1
 62
    39
  6
CONTINUOUS
 10
0.074185
 20
2.226276
  0
VERTEX
  8
EBENE_1
 62
    39
  6
CONTINUOUS
 10
0.066172
 20
2.224089
  0
VERTEX
  8
EBENE_1
 62
    39
  6
CONTINUOUS
 10
0.060463
 20
2.218352
  0
VERTEX
  8
EBENE_1
 62
    39
  6
CONTINUOUS
 10
0.058287
 20
2.210299
  0
VERTEX
  8
EBENE_1
 62
    39
  6
CONTINUOUS
 10
0.060463
 20
2.202246
  0
VERTEX
  8
EBENE_1
 62
    39
  6
CONTINUOUS
 10
0.066172
 20
2.196509
  0
VERTEX
  8
EBENE_1
 62
    39
  6
CONTINUOUS
 10
0.074185
 20
2.194323
  0
VERTEX
  8
EBENE_1
 62
    39
  6
CONTINUOUS
 10
0.082195
 20
2.196509
  0
VERTEX
  8
EBENE_1
 62
    39
  6
CONTINUOUS
 10
0.087903
 20
2.202246
  0
VERTEX
  8
EBENE_1
 62
    39
  6
CONTINUOUS
 10
0.090079
 20
2.210299
  0
VERTEX
  8
EBENE_1
 62
    39
  6
CONTINUOUS
 10
0.087903
 20
2.218352
  0
VERTEX
  8
EBENE_1
 62
    39
  6
CONTINUOUS
 10
0.082195
 20
2.224089
  0
SEQEND
  8
0
  0
POLYLINE
  8
EBENE_1
 62
    39
  6
CONTINUOUS
 66
     1
 40
0.003000
 41
0.003000
 70
     1
  0
VERTEX
  8
EBENE_1
 62
    39
  6
CONTINUOUS
 10
0.478976
 20
2.226276
  0
VERTEX
  8
EBENE_1
 62
    39
  6
CONTINUOUS
 10
0.470963
 20
2.224089
  0
VERTEX
  8
EBENE_1
 62
    39
  6
CONTINUOUS
 10
0.465255
 20
2.218352
  0
VERTEX
  8
EBENE_1
 62
    39
  6
CONTINUOUS
 10
0.463079
 20
2.210299
  0
VERTEX
  8
EBENE_1
 62
    39
  6
CONTINUOUS
 10
0.465255
 20
2.202246
  0
VERTEX
  8
EBENE_1
 62
    39
  6
CONTINUOUS
 10
0.470963
 20
2.196509
  0
VERTEX
  8
EBENE_1
 62
    39
  6
CONTINUOUS
 10
0.478976
 20
2.194323
  0
VERTEX
  8
EBENE_1
 62
    39
  6
CONTINUOUS
 10
0.486987
 20
2.196509
  0
VERTEX
  8
EBENE_1
 62
    39
  6
CONTINUOUS
 10
0.492694
 20
2.202246
  0
VERTEX
  8
EBENE_1
 62
    39
  6
CONTINUOUS
 10
0.494870
 20
2.210299
  0
VERTEX
  8
EBENE_1
 62
    39
  6
CONTINUOUS
 10
0.492694
 20
2.218352
  0
VERTEX
  8
EBENE_1
 62
    39
  6
CONTINUOUS
 10
0.486987
 20
2.224089
  0
SEQEND
  8
0
  0
POLYLINE
  8
EBENE_1
 62
    39
  6
CONTINUOUS
 66
     1
 40
0.003000
 41
0.003000
 70
     1
  0
VERTEX
  8
EBENE_1
 62
    39
  6
CONTINUOUS
 10
0.478976
 20
2.226276
  0
VERTEX
  8
EBENE_1
 62
    39
  6
CONTINUOUS
 10
0.470963
 20
2.224089
  0
VERTEX
  8
EBENE_1
 62
    39
  6
CONTINUOUS
 10
0.465255
 20
2.218352
  0
VERTEX
  8
EBENE_1
 62
    39
  6
CONTINUOUS
 10
0.463079
 20
2.210299
  0
VERTEX
  8
EBENE_1
 62
    39
  6
CONTINUOUS
 10
0.465255
 20
2.202246
  0
VERTEX
  8
EBENE_1
 62
    39
  6
CONTINUOUS
 10
0.470963
 20
2.196509
  0
VERTEX
  8
EBENE_1
 62
    39
  6
CONTINUOUS
 10
0.478976
 20
2.194323
  0
VERTEX
  8
EBENE_1
 62
    39
  6
CONTINUOUS
 10
0.486987
 20
2.196509
  0
VERTEX
  8
EBENE_1
 62
    39
  6
CONTINUOUS
 10
0.492694
 20
2.202246
  0
VERTEX
  8
EBENE_1
 62
    39
  6
CONTINUOUS
 10
0.494870
 20
2.210299
  0
VERTEX
  8
EBENE_1
 62
    39
  6
CONTINUOUS
 10
0.492694
 20
2.218352
  0
VERTEX
  8
EBENE_1
 62
    39
  6
CONTINUOUS
 10
0.486987
 20
2.224089
  0
SEQEND
  8
0
  0
POLYLINE
  8
EBENE_1
 62
    39
  6
CONTINUOUS
 66
     1
 40
0.003000
 41
0.003000
 70
     1
  0
VERTEX
  8
EBENE_1
 62
    39
  6
CONTINUOUS
 10
0.883768
 20
2.226276
  0
VERTEX
  8
EBENE_1
 62
    39
  6
CONTINUOUS
 10
0.875756
 20
2.224089
  0
VERTEX
  8
EBENE_1
 62
    39
  6
CONTINUOUS
 10
0.870049
 20
2.218352
  0
VERTEX
  8
EBENE_1
 62
    39
  6
CONTINUOUS
 10
0.867874
 20
2.210299
  0
VERTEX
  8
EBENE_1
 62
    39
  6
CONTINUOUS
 10
0.870049
 20
2.202246
  0
VERTEX
  8
EBENE_1
 62
    39
  6
CONTINUOUS
 10
0.875756
 20
2.196509
  0
VERTEX
  8
EBENE_1
 62
    39
  6
CONTINUOUS
 10
0.883768
 20
2.194323
  0
VERTEX
  8
EBENE_1
 62
    39
  6
CONTINUOUS
 10
0.891780
 20
2.196509
  0
VERTEX
  8
EBENE_1
 62
    39
  6
CONTINUOUS
 10
0.897487
 20
2.202246
  0
VERTEX
  8
EBENE_1
 62
    39
  6
CONTINUOUS
 10
0.899661
 20
2.210299
  0
VERTEX
  8
EBENE_1
 62
    39
  6
CONTINUOUS
 10
0.897487
 20
2.218352
  0
VERTEX
  8
EBENE_1
 62
    39
  6
CONTINUOUS
 10
0.891780
 20
2.224089
  0
SEQEND
  8
0
  0
POLYLINE
  8
EBENE_1
 62
    39
  6
CONTINUOUS
 66
     1
 40
0.003000
 41
0.003000
 70
     1
  0
VERTEX
  8
EBENE_1
 62
    39
  6
CONTINUOUS
 10
0.957949
 20
2.136811
  0
VERTEX
  8
EBENE_1
 62
    39
  6
CONTINUOUS
 10
0.949936
 20
2.134625
  0
VERTEX
  8
EBENE_1
 62
    39
  6
CONTINUOUS
 10
0.944227
 20
2.128889
  0
VERTEX
  8
EBENE_1
 62
    39
  6
CONTINUOUS
 10
0.942051
 20
2.120835
  0
VERTEX
  8
EBENE_1
 62
    39
  6
CONTINUOUS
 10
0.944227
 20
2.112785
  0
VERTEX
  8
EBENE_1
 62
    39
  6
CONTINUOUS
 10
0.949936
 20
2.107049
  0
VERTEX
  8
EBENE_1
 62
    39
  6
CONTINUOUS
 10
0.957949
 20
2.104862
  0
VERTEX
  8
EBENE_1
 62
    39
  6
CONTINUOUS
 10
0.965959
 20
2.107049
  0
VERTEX
  8
EBENE_1
 62
    39
  6
CONTINUOUS
 10
0.971667
 20
2.112785
  0
VERTEX
  8
EBENE_1
 62
    39
  6
CONTINUOUS
 10
0.973843
 20
2.120835
  0
VERTEX
  8
EBENE_1
 62
    39
  6
CONTINUOUS
 10
0.971667
 20
2.128889
  0
VERTEX
  8
EBENE_1
 62
    39
  6
CONTINUOUS
 10
0.965959
 20
2.134625
  0
SEQEND
  8
0
  0
POLYLINE
  8
EBENE_1
 62
    39
  6
CONTINUOUS
 66
     1
 40
0.003000
 41
0.003000
 70
     1
  0
VERTEX
  8
EBENE_1
 62
    39
  6
CONTINUOUS
 10
2.171012
 20
1.098972
  0
VERTEX
  8
EBENE_1
 62
    39
  6
CONTINUOUS
 10
2.440154
 20
0.385083
  0
VERTEX
  8
EBENE_1
 62
    39
  6
CONTINUOUS
 10
2.029268
 20
0.371567
  0
VERTEX
  8
EBENE_1
 62
    39
  6
CONTINUOUS
 10
1.992932
 20
0.375288
  0
VERTEX
  8
EBENE_1
 62
    39
  6
CONTINUOUS
 10
1.952270
 20
0.385096
  0
VERTEX
  8
EBENE_1
 62
    39
  6
CONTINUOUS
 10
1.908135
 20
0.400756
  0
VERTEX
  8
EBENE_1
 62
    39
  6
CONTINUOUS
 10
1.861380
 20
0.422032
  0
VERTEX
  8
EBENE_1
 62
    39
  6
CONTINUOUS
 10
1.812856
 20
0.448686
  0
VERTEX
  8
EBENE_1
 62
    39
  6
CONTINUOUS
 10
1.763417
 20
0.480484
  0
VERTEX
  8
EBENE_1
 62
    39
  6
CONTINUOUS
 10
1.713916
 20
0.517187
  0
VERTEX
  8
EBENE_1
 62
    39
  6
CONTINUOUS
 10
1.665204
 20
0.558562
  0
VERTEX
  8
EBENE_1
 62
    39
  6
CONTINUOUS
 10
1.618134
 20
0.604370
  0
VERTEX
  8
EBENE_1
 62
    39
  6
CONTINUOUS
 10
1.573560
 20
0.654375
  0
VERTEX
  8
EBENE_1
 62
    39
  6
CONTINUOUS
 10
1.532333
 20
0.708343
  0
VERTEX
  8
EBENE_1
 62
    39
  6
CONTINUOUS
 10
1.495306
 20
0.766035
  0
VERTEX
  8
EBENE_1
 62
    39
  6
CONTINUOUS
 10
1.463332
 20
0.827216
  0
VERTEX
  8
EBENE_1
 62
    39
  6
CONTINUOUS
 10
1.437263
 20
0.891650
  0
VERTEX
  8
EBENE_1
 62
    39
  6
CONTINUOUS
 10
1.417952
 20
0.959100
  0
VERTEX
  8
EBENE_1
 62
    39
  6
CONTINUOUS
 10
1.406252
 20
1.029331
  0
VERTEX
  8
EBENE_1
 62
    39
  6
CONTINUOUS
 10
1.424800
 20
1.114629
  0
VERTEX
  8
EBENE_1
 62
    39
  6
CONTINUOUS
 10
1.466024
 20
1.178399
  0
VERTEX
  8
EBENE_1
 62
    39
  6
CONTINUOUS
 10
1.523873
 20
1.218592
  0
VERTEX
  8
EBENE_1
 62
    39
  6
CONTINUOUS
 10
1.592295
 20
1.233161
  0
VERTEX
  8
EBENE_1
 62
    39
  6
CONTINUOUS
 10
2.024984
 20
1.239650
  0
VERTEX
  8
EBENE_1
 62
    39
  6
CONTINUOUS
 10
2.108264
 20
1.215356
  0
VERTEX
  8
EBENE_1
 62
    39
  6
CONTINUOUS
 10
2.139493
 20
1.158534
  0
SEQEND
  8
0
  0
POLYLINE
  8
EBENE_1
 62
    39
  6
CONTINUOUS
 66
     1
 40
0.003000
 41
0.003000
 70
     1
  0
VERTEX
  8
EBENE_1
 62
    39
  6
CONTINUOUS
 10
1.550217
 20
1.623197
  0
VERTEX
  8
EBENE_1
 62
    39
  6
CONTINUOUS
 10
1.796984
 20
0.968661
  0
VERTEX
  8
EBENE_1
 62
    39
  6
CONTINUOUS
 10
1.420260
 20
0.956268
  0
VERTEX
  8
EBENE_1
 62
    39
  6
CONTINUOUS
 10
1.384574
 20
0.960108
  0
VERTEX
  8
EBENE_1
 62
    39
  6
CONTINUOUS
 10
1.344436
 20
0.970282
  0
VERTEX
  8
EBENE_1
 62
    39
  6
CONTINUOUS
 10
1.300792
 20
0.986527
  0
VERTEX
  8
EBENE_1
 62
    39
  6
CONTINUOUS
 10
1.254593
 20
1.008581
  0
VERTEX
  8
EBENE_1
 62
    39
  6
CONTINUOUS
 10
1.206786
 20
1.036181
  0
VERTEX
  8
EBENE_1
 62
    39
  6
CONTINUOUS
 10
1.158321
 20
1.069063
  0
VERTEX
  8
EBENE_1
 62
    39
  6
CONTINUOUS
 10
1.110146
 20
1.106965
  0
VERTEX
  8
EBENE_1
 62
    39
  6
CONTINUOUS
 10
1.063210
 20
1.149624
  0
VERTEX
  8
EBENE_1
 62
    39
  6
CONTINUOUS
 10
1.018461
 20
1.196777
  0
VERTEX
  8
EBENE_1
 62
    39
  6
CONTINUOUS
 10
0.976849
 20
1.248161
  0
VERTEX
  8
EBENE_1
 62
    39
  6
CONTINUOUS
 10
0.939322
 20
1.303513
  0
VERTEX
  8
EBENE_1
 62
    39
  6
CONTINUOUS
 10
0.906829
 20
1.362571
  0
VERTEX
  8
EBENE_1
 62
    39
  6
CONTINUOUS
 10
0.880318
 20
1.425071
  0
VERTEX
  8
EBENE_1
 62
    39
  6
CONTINUOUS
 10
0.860739
 20
1.490750
  0
VERTEX
  8
EBENE_1
 62
    39
  6
CONTINUOUS
 10
0.849039
 20
1.559346
  0
VERTEX
  8
EBENE_1
 62
    39
  6
CONTINUOUS
 10
0.866046
 20
1.637552
  0
VERTEX
  8
EBENE_1
 62
    39
  6
CONTINUOUS
 10
0.903843
 20
1.696019
  0
VERTEX
  8
EBENE_1
 62
    39
  6
CONTINUOUS
 10
0.956883
 20
1.732870
  0
VERTEX
  8
EBENE_1
 62
    39
  6
CONTINUOUS
 10
1.019618
 20
1.746228
  0
VERTEX
  8
EBENE_1
 62
    39
  6
CONTINUOUS
 10
1.416331
 20
1.752177
  0
VERTEX
  8
EBENE_1
 62
    39
  6
CONTINUOUS
 10
1.492688
 20
1.729904
  0
VERTEX
  8
EBENE_1
 62
    39
  6
CONTINUOUS
 10
1.521319
 20
1.677806
  0
SEQEND
  8
0
  0
POLYLINE
  8
EBENE_1
 62
    39
  6
CONTINUOUS
 66
     1
 40
0.003000
 41
0.003000
 70
     1
  0
VERTEX
  8
EBENE_1
 62
    39
  6
CONTINUOUS
 10
1.010496
 20
2.140429
  0
VERTEX
  8
EBENE_1
 62
    39
  6
CONTINUOUS
 10
1.257264
 20
1.485894
  0
VERTEX
  8
EBENE_1
 62
    39
  6
CONTINUOUS
 10
0.880539
 20
1.473500
  0
VERTEX
  8
EBENE_1
 62
    39
  6
CONTINUOUS
 10
0.844853
 20
1.477340
  0
VERTEX
  8
EBENE_1
 62
    39
  6
CONTINUOUS
 10
0.804714
 20
1.487514
  0
VERTEX
  8
EBENE_1
 62
    39
  6
CONTINUOUS
 10
0.761070
 20
1.503759
  0
VERTEX
  8
EBENE_1
 62
    39
  6
CONTINUOUS
 10
0.714870
 20
1.525813
  0
VERTEX
  8
EBENE_1
 62
    39
  6
CONTINUOUS
 10
0.667063
 20
1.553413
  0
VERTEX
  8
EBENE_1
 62
    39
  6
CONTINUOUS
 10
0.618597
 20
1.586295
  0
VERTEX
  8
EBENE_1
 62
    39
  6
CONTINUOUS
 10
0.570422
 20
1.624197
  0
VERTEX
  8
EBENE_1
 62
    39
  6
CONTINUOUS
 10
0.523486
 20
1.666856
  0
VERTEX
  8
EBENE_1
 62
    39
  6
CONTINUOUS
 10
0.478738
 20
1.714009
  0
VERTEX
  8
EBENE_1
 62
    39
  6
CONTINUOUS
 10
0.437126
 20
1.765393
  0
VERTEX
  8
EBENE_1
 62
    39
  6
CONTINUOUS
 10
0.399599
 20
1.820745
  0
VERTEX
  8
EBENE_1
 62
    39
  6
CONTINUOUS
 10
0.367107
 20
1.879803
  0
VERTEX
  8
EBENE_1
 62
    39
  6
CONTINUOUS
 10
0.340597
 20
1.942303
  0
VERTEX
  8
EBENE_1
 62
    39
  6
CONTINUOUS
 10
0.321018
 20
2.007983
  0
VERTEX
  8
EBENE_1
 62
    39
  6
CONTINUOUS
 10
0.309319
 20
2.076579
  0
VERTEX
  8
EBENE_1
 62
    39
  6
CONTINUOUS
 10
0.326325
 20
2.154786
  0
VERTEX
  8
EBENE_1
 62
    39
  6
CONTINUOUS
 10
0.364121
 20
2.213254
  0
VERTEX
  8
EBENE_1
 62
    39
  6
CONTINUOUS
 10
0.417159
 20
2.250106
  0
VERTEX
  8
EBENE_1
 62
    39
  6
CONTINUOUS
 10
0.479894
 20
2.263465
  0
VERTEX
  8
EBENE_1
 62
    39
  6
CONTINUOUS
 10
0.876610
 20
2.269413
  0
VERTEX
  8
EBENE_1
 62
    39
  6
CONTINUOUS
 10
0.952965
 20
2.247138
  0
VERTEX
  8
EBENE_1
 62
    39
  6
CONTINUOUS
 10
0.981598
 20
2.195038
  0
SEQEND
  8
0
  0
POLYLINE
  8
EBENE_1
 62
    39
  6
CONTINUOUS
 66
     1
 40
0.003000
 41
0.003000
 70
     1
  0
VERTEX
  8
EBENE_1
 62
    39
  6
CONTINUOUS
 10
0.591299
 20
2.219886
  0
VERTEX
  8
EBENE_1
 62
    39
  6
CONTINUOUS
 10
0.583289
 20
2.217699
  0
VERTEX
  8
EBENE_1
 62
    39
  6
CONTINUOUS
 10
0.577581
 20
2.211962
  0
VERTEX
  8
EBENE_1
 62
    39
  6
CONTINUOUS
 10
0.575406
 20
2.203909
  0
VERTEX
  8
EBENE_1
 62
    39
  6
CONTINUOUS
 10
0.577581
 20
2.195858
  0
VERTEX
  8
EBENE_1
 62
    39
  6
CONTINUOUS
 10
0.583289
 20
2.190123
  0
VERTEX
  8
EBENE_1
 62
    39
  6
CONTINUOUS
 10
0.591299
 20
2.187937
  0
VERTEX
  8
EBENE_1
 62
    39
  6
CONTINUOUS
 10
0.599312
 20
2.190123
  0
VERTEX
  8
EBENE_1
 62
    39
  6
CONTINUOUS
 10
0.605021
 20
2.195858
  0
VERTEX
  8
EBENE_1
 62
    39
  6
CONTINUOUS
 10
0.607197
 20
2.203909
  0
VERTEX
  8
EBENE_1
 62
    39
  6
CONTINUOUS
 10
0.605021
 20
2.211962
  0
VERTEX
  8
EBENE_1
 62
    39
  6
CONTINUOUS
 10
0.599312
 20
2.217699
  0
SEQEND
  8
0
  0
POLYLINE
  8
EBENE_1
 62
    39
  6
CONTINUOUS
 66
     1
 40
0.003000
 41
0.003000
 70
     1
  0
VERTEX
  8
EBENE_1
 62
    39
  6
CONTINUOUS
 10
0.818071
 20
2.226276
  0
VERTEX
  8
EBENE_1
 62
    39
  6
CONTINUOUS
 10
0.810058
 20
2.224089
  0
VERTEX
  8
EBENE_1
 62
    39
  6
CONTINUOUS
 10
0.804349
 20
2.218352
  0
VERTEX
  8
EBENE_1
 62
    39
  6
CONTINUOUS
 10
0.802173
 20
2.210299
  0
VERTEX
  8
EBENE_1
 62
    39
  6
CONTINUOUS
 10
0.804349
 20
2.202246
  0
VERTEX
  8
EBENE_1
 62
    39
  6
CONTINUOUS
 10
0.810058
 20
2.196509
  0
VERTEX
  8
EBENE_1
 62
    39
  6
CONTINUOUS
 10
0.818071
 20
2.194323
  0
VERTEX
  8
EBENE_1
 62
    39
  6
CONTINUOUS
 10
0.826081
 20
2.196509
  0
VERTEX
  8
EBENE_1
 62
    39
  6
CONTINUOUS
 10
0.831789
 20
2.202246
  0
VERTEX
  8
EBENE_1
 62
    39
  6
CONTINUOUS
 10
0.833965
 20
2.210299
  0
VERTEX
  8
EBENE_1
 62
    39
  6
CONTINUOUS
 10
0.831789
 20
2.218352
  0
VERTEX
  8
EBENE_1
 62
    39
  6
CONTINUOUS
 10
0.826081
 20
2.224089
  0
SEQEND
  8
0
  0
POLYLINE
  8
EBENE_1
 62
    39
  6
CONTINUOUS
 66
     1
 40
0.003000
 41
0.003000
 70
     1
  0
VERTEX
  8
EBENE_1
 62
    39
  6
CONTINUOUS
 10
0.288240
 20
2.219882
  0
VERTEX
  8
EBENE_1
 62
    39
  6
CONTINUOUS
 10
0.280230
 20
2.217695
  0
VERTEX
  8
EBENE_1
 62
    39
  6
CONTINUOUS
 10
0.274522
 20
2.211958
  0
VERTEX
  8
EBENE_1
 62
    39
  6
CONTINUOUS
 10
0.272346
 20
2.203906
  0
VERTEX
  8
EBENE_1
 62
    39
  6
CONTINUOUS
 10
0.274522
 20
2.195855
  0
VERTEX
  8
EBENE_1
 62
    39
  6
CONTINUOUS
 10
0.280230
 20
2.190120
  0
VERTEX
  8
EBENE_1
 62
    39
  6
CONTINUOUS
 10
0.288240
 20
2.187933
  0
VERTEX
  8
EBENE_1
 62
    39
  6
CONTINUOUS
 10
0.296253
 20
2.190120
  0
VERTEX
  8
EBENE_1
 62
    39
  6
CONTINUOUS
 10
0.301962
 20
2.195855
  0
VERTEX
  8
EBENE_1
 62
    39
  6
CONTINUOUS
 10
0.304138
 20
2.203906
  0
VERTEX
  8
EBENE_1
 62
    39
  6
CONTINUOUS
 10
0.301962
 20
2.211958
  0
VERTEX
  8
EBENE_1
 62
    39
  6
CONTINUOUS
 10
0.296253
 20
2.217695
  0
SEQEND
  8
0
  0
POLYLINE
  8
EBENE_1
 62
    39
  6
CONTINUOUS
 66
     1
 40
0.003000
 41
0.003000
 70
     1
  0
VERTEX
  8
EBENE_1
 62
    39
  6
CONTINUOUS
 10
0.955827
 20
2.149594
  0
VERTEX
  8
EBENE_1
 62
    39
  6
CONTINUOUS
 10
0.947815
 20
2.147408
  0
VERTEX
  8
EBENE_1
 62
    39
  6
CONTINUOUS
 10
0.942108
 20
2.141671
  0
VERTEX
  8
EBENE_1
 62
    39
  6
CONTINUOUS
 10
0.939933
 20
2.133618
  0
VERTEX
  8
EBENE_1
 62
    39
  6
CONTINUOUS
 10
0.942108
 20
2.125565
  0
VERTEX
  8
EBENE_1
 62
    39
  6
CONTINUOUS
 10
0.947815
 20
2.119828
  0
VERTEX
  8
EBENE_1
 62
    39
  6
CONTINUOUS
 10
0.955827
 20
2.117642
  0
VERTEX
  8
EBENE_1
 62
    39
  6
CONTINUOUS
 10
0.963839
 20
2.119828
  0
VERTEX
  8
EBENE_1
 62
    39
  6
CONTINUOUS
 10
0.969546
 20
2.125565
  0
VERTEX
  8
EBENE_1
 62
    39
  6
CONTINUOUS
 10
0.971720
 20
2.133618
  0
VERTEX
  8
EBENE_1
 62
    39
  6
CONTINUOUS
 10
0.969546
 20
2.141671
  0
VERTEX
  8
EBENE_1
 62
    39
  6
CONTINUOUS
 10
0.963839
 20
2.147408
  0
SEQEND
  8
0
  0
POLYLINE
  8
EBENE_1
 62
    39
  6
CONTINUOUS
 66
     1
 40
0.003000
 41
0.003000
 70
     1
  0
VERTEX
  8
EBENE_1
 62
    39
  6
CONTINUOUS
 10
1.303398
 20
1.708673
  0
VERTEX
  8
EBENE_1
 62
    39
  6
CONTINUOUS
 10
1.295386
 20
1.706488
  0
VERTEX
  8
EBENE_1
 62
    39
  6
CONTINUOUS
 10
1.289679
 20
1.700753
  0
VERTEX
  8
EBENE_1
 62
    39
  6
CONTINUOUS
 10
1.287504
 20
1.692701
  0
VERTEX
  8
EBENE_1
 62
    39
  6
CONTINUOUS
 10
1.289679
 20
1.684648
  0
VERTEX
  8
EBENE_1
 62
    39
  6
CONTINUOUS
 10
1.295386
 20
1.678911
  0
VERTEX
  8
EBENE_1
 62
    39
  6
CONTINUOUS
 10
1.303398
 20
1.676724
  0
VERTEX
  8
EBENE_1
 62
    39
  6
CONTINUOUS
 10
1.311410
 20
1.678911
  0
VERTEX
  8
EBENE_1
 62
    39
  6
CONTINUOUS
 10
1.317117
 20
1.684648
  0
VERTEX
  8
EBENE_1
 62
    39
  6
CONTINUOUS
 10
1.319291
 20
1.692701
  0
VERTEX
  8
EBENE_1
 62
    39
  6
CONTINUOUS
 10
1.317117
 20
1.700753
  0
VERTEX
  8
EBENE_1
 62
    39
  6
CONTINUOUS
 10
1.311410
 20
1.706488
  0
SEQEND
  8
0
  0
POLYLINE
  8
EBENE_1
 62
    39
  6
CONTINUOUS
 66
     1
 40
0.003000
 41
0.003000
 70
     1
  0
VERTEX
  8
EBENE_1
 62
    39
  6
CONTINUOUS
 10
1.485657
 20
1.600043
  0
VERTEX
  8
EBENE_1
 62
    39
  6
CONTINUOUS
 10
1.477647
 20
1.597858
  0
VERTEX
  8
EBENE_1
 62
    39
  6
CONTINUOUS
 10
1.471939
 20
1.592121
  0
VERTEX
  8
EBENE_1
 62
    39
  6
CONTINUOUS
 10
1.469764
 20
1.584067
  0
VERTEX
  8
EBENE_1
 62
    39
  6
CONTINUOUS
 10
1.471939
 20
1.576017
  0
VERTEX
  8
EBENE_1
 62
    39
  6
CONTINUOUS
 10
1.477647
 20
1.570281
  0
VERTEX
  8
EBENE_1
 62
    39
  6
CONTINUOUS
 10
1.485657
 20
1.568094
  0
VERTEX
  8
EBENE_1
 62
    39
  6
CONTINUOUS
 10
1.493671
 20
1.570281
  0
VERTEX
  8
EBENE_1
 62
    39
  6
CONTINUOUS
 10
1.499379
 20
1.576017
  0
VERTEX
  8
EBENE_1
 62
    39
  6
CONTINUOUS
 10
1.501555
 20
1.584067
  0
VERTEX
  8
EBENE_1
 62
    39
  6
CONTINUOUS
 10
1.499379
 20
1.592121
  0
VERTEX
  8
EBENE_1
 62
    39
  6
CONTINUOUS
 10
1.493671
 20
1.597858
  0
SEQEND
  8
0
  0
POLYLINE
  8
EBENE_1
 62
    39
  6
CONTINUOUS
 66
     1
 40
0.003000
 41
0.003000
 70
     1
  0
VERTEX
  8
EBENE_1
 62
    39
  6
CONTINUOUS
 10
1.833228
 20
1.165520
  0
VERTEX
  8
EBENE_1
 62
    39
  6
CONTINUOUS
 10
1.825218
 20
1.163333
  0
VERTEX
  8
EBENE_1
 62
    39
  6
CONTINUOUS
 10
1.819510
 20
1.157596
  0
VERTEX
  8
EBENE_1
 62
    39
  6
CONTINUOUS
 10
1.817335
 20
1.149543
  0
VERTEX
  8
EBENE_1
 62
    39
  6
CONTINUOUS
 10
1.819510
 20
1.141492
  0
VERTEX
  8
EBENE_1
 62
    39
  6
CONTINUOUS
 10
1.825218
 20
1.135756
  0
VERTEX
  8
EBENE_1
 62
    39
  6
CONTINUOUS
 10
1.833228
 20
1.133571
  0
VERTEX
  8
EBENE_1
 62
    39
  6
CONTINUOUS
 10
1.841241
 20
1.135756
  0
VERTEX
  8
EBENE_1
 62
    39
  6
CONTINUOUS
 10
1.846950
 20
1.141492
  0
VERTEX
  8
EBENE_1
 62
    39
  6
CONTINUOUS
 10
1.849126
 20
1.149543
  0
VERTEX
  8
EBENE_1
 62
    39
  6
CONTINUOUS
 10
1.846950
 20
1.157596
  0
VERTEX
  8
EBENE_1
 62
    39
  6
CONTINUOUS
 10
1.841241
 20
1.163333
  0
SEQEND
  8
0
  0
POLYLINE
  8
EBENE_1
 62
    39
  6
CONTINUOUS
 66
     1
 40
0.003000
 41
0.003000
 70
     1
  0
VERTEX
  8
EBENE_1
 62
    39
  6
CONTINUOUS
 10
2.110862
 20
1.069669
  0
VERTEX
  8
EBENE_1
 62
    39
  6
CONTINUOUS
 10
2.102850
 20
1.067483
  0
VERTEX
  8
EBENE_1
 62
    39
  6
CONTINUOUS
 10
2.097143
 20
1.061746
  0
VERTEX
  8
EBENE_1
 62
    39
  6
CONTINUOUS
 10
2.094969
 20
1.053693
  0
VERTEX
  8
EBENE_1
 62
    39
  6
CONTINUOUS
 10
2.097143
 20
1.045641
  0
VERTEX
  8
EBENE_1
 62
    39
  6
CONTINUOUS
 10
2.102850
 20
1.039906
  0
VERTEX
  8
EBENE_1
 62
    39
  6
CONTINUOUS
 10
2.110862
 20
1.037720
  0
VERTEX
  8
EBENE_1
 62
    39
  6
CONTINUOUS
 10
2.118874
 20
1.039906
  0
VERTEX
  8
EBENE_1
 62
    39
  6
CONTINUOUS
 10
2.124581
 20
1.045641
  0
VERTEX
  8
EBENE_1
 62
    39
  6
CONTINUOUS
 10
2.126756
 20
1.053693
  0
VERTEX
  8
EBENE_1
 62
    39
  6
CONTINUOUS
 10
2.124581
 20
1.061746
  0
VERTEX
  8
EBENE_1
 62
    39
  6
CONTINUOUS
 10
2.118874
 20
1.067483
  0
SEQEND
  8
0
  0
TEXT
  8
EBENE_1
 62
    39
 10
-3.678339
 20
4.897118
 40
0.276794
  1
Altdeutsche Deckung
 41
1.000000
  7
SN0
 71
     0
 72
     5
 11
-0.524842
 21
4.897118
  0
TEXT
  8
EBENE_1
 62
    39
 10
-3.488488
 20
-4.683165
 40
0.115218
  1
alle Rechte: Ulrich Lutter
 41
1.000000
  7
SN0
 71
     0
 72
     5
 11
-1.967465
 21
-4.683165
  0
ENDSEC
  0
EOF
