  0
SECTION
  2
HEADER
  9
$ACADVER
  1
AC1006
  9
$EXTMIN
 10
-1.020189
 20
-0.791020
  9
$EXTMAX
 10
1.504307
 20
1.529181
  9
$LTSCALE
 40
0.000394
  9
$PDMODE
 70
    35
  9
$PDSIZE
 40
0.000315
  0
ENDSEC
  0
SECTION
  2
TABLES
  0
TABLE
  2
LTYPE
 70
     9
  0
LTYPE
  2
CONTINUOUS
 70
    64
  3
Solid line
 72
    65
 73
     0
 40
0.000000
  0
LTYPE
  2
DASHED
 70
    64
  3
__ __ __ __ __ __ __ __ __ __ __ __ __ __ __
 72
    65
 73
     2
 40
0.000003
 49
0.000002
 49
-0.000001
  0
LTYPE
  2
HIDDEN
 70
    64
  3
 _ _ _ _ _ _ _ _ _ _ _ _ _ _ _ _ _ _ _ _ _ _
 72
    65
 73
     2
 40
0.000001
 49
0.000001
 49
-0.000000
  0
LTYPE
  2
CENTER
 70
    64
  3
____ _ ____ _ ____ _ ____ _ ____ _ ____ _ ____
 72
    65
 73
     4
 40
0.000008
 49
0.000005
 49
-0.000001
 49
0.000001
 49
-0.000001
  0
LTYPE
  2
PHANTOM
 70
    64
  3
_____ _ _ _____ _ _ _____ _ _ _____ _ _ ____
 72
    65
 73
     6
 40
0.000010
 49
0.000005
 49
-0.000001
 49
0.000001
 49
-0.000001
 49
0.000001
 49
-0.000001
  0
LTYPE
  2
DOT
 70
    64
  3
...............................................
 72
    65
 73
     2
 40
0.000001
 49
0.000000
 49
-0.000001
  0
LTYPE
  2
DASHDOT
 70
    64
  3
__ . __ . __ . __ . __ . __ . __ . __ . __ . __
 72
    65
 73
     4
 40
0.000004
 49
0.000002
 49
-0.000001
 49
0.000000
 49
-0.000001
  0
LTYPE
  2
BORDER
 70
    64
  3
__ __ . __ __ . __ __ . __ __ . __ __ . __ __
 72
    65
 73
     6
 40
0.000007
 49
0.000002
 49
-0.000001
 49
0.000002
 49
-0.000001
 49
0.000000
 49
-0.000001
  0
LTYPE
  2
DIVIDE
 70
    64
  3
__ . . __ . . __ . . __ . . __ . . __ . . __
 72
    65
 73
     6
 40
0.000005
 49
0.000002
 49
-0.000001
 49
0.000000
 49
-0.000001
 49
0.000000
 49
-0.000001
  0
LTYPE
  2
DOTDOT
 70
    64
  3
 . .  . .  . .  . .  . .  . . 
 72
    65
 73
     5
 40
0.000002
 49
-0.000001
 49
0.000000
 49
-0.000001
 49
0.000000
 49
-0.000001
  0
ENDTAB
  0
TABLE
  2
STYLE
 70
     2
  0
STYLE
 70
     0
  2
SN0
 40
0.000000
 41
0.000004
 50
0.000000
 71
     0
 42
0.000000
  3
SCRIPTS
  0
STYLE
 70
    68
  2
SV0
 40
0.000000
 41
0.000004
 50
0.000000
 71
     0
 42
0.000000
  3
SCRIPTS
  0
ENDTAB
  0
TABLE
  2
LAYER
 70
     3
  0
LAYER
  2
FOREGROUND
 70
    64
 62
     7
  6
CONTINUOUS
  0
LAYER
  2
BACKGROUND
 70
    65
 62
    -7
  6
CONTINUOUS
  0
LAYER
  2
EBENE_1
 70
    64
 62
     7
  6
CONTINUOUS
  0
ENDTAB
  0
ENDSEC
  0
SECTION
  2
ENTITIES
  0
POLYLINE
  8
EBENE_1
 62
    39
  6
CONTINUOUS
 66
     1
 40
0.003000
 41
0.003000
  0
VERTEX
  8
EBENE_1
 62
    39
  6
CONTINUOUS
 10
0.174925
 20
0.197681
  0
VERTEX
  8
EBENE_1
 62
    39
  6
CONTINUOUS
 10
0.491917
 20
-0.322071
  0
VERTEX
  8
EBENE_1
 62
    39
  6
CONTINUOUS
 10
0.160055
 20
-0.408583
  0
SEQEND
  8
0
  0
POLYLINE
  8
EBENE_1
 62
    39
  6
CONTINUOUS
 66
     1
 40
0.003000
 41
0.003000
  0
VERTEX
  8
EBENE_1
 62
    39
  6
CONTINUOUS
 10
0.160055
 20
-0.408583
  0
VERTEX
  8
EBENE_1
 62
    39
  6
CONTINUOUS
 10
0.151443
 20
-0.410195
  0
VERTEX
  8
EBENE_1
 62
    39
  6
CONTINUOUS
 10
0.142226
 20
-0.411262
  0
VERTEX
  8
EBENE_1
 62
    39
  6
CONTINUOUS
 10
0.132435
 20
-0.411784
  0
VERTEX
  8
EBENE_1
 62
    39
  6
CONTINUOUS
 10
0.122102
 20
-0.411763
  0
VERTEX
  8
EBENE_1
 62
    39
  6
CONTINUOUS
 10
0.111257
 20
-0.411202
  0
VERTEX
  8
EBENE_1
 62
    39
  6
CONTINUOUS
 10
0.099933
 20
-0.410103
  0
VERTEX
  8
EBENE_1
 62
    39
  6
CONTINUOUS
 10
0.088159
 20
-0.408468
  0
VERTEX
  8
EBENE_1
 62
    39
  6
CONTINUOUS
 10
0.075967
 20
-0.406298
  0
VERTEX
  8
EBENE_1
 62
    39
  6
CONTINUOUS
 10
0.063389
 20
-0.403595
  0
VERTEX
  8
EBENE_1
 62
    39
  6
CONTINUOUS
 10
0.050454
 20
-0.400363
  0
VERTEX
  8
EBENE_1
 62
    39
  6
CONTINUOUS
 10
0.037196
 20
-0.396601
  0
VERTEX
  8
EBENE_1
 62
    39
  6
CONTINUOUS
 10
0.023644
 20
-0.392314
  0
VERTEX
  8
EBENE_1
 62
    39
  6
CONTINUOUS
 10
0.009831
 20
-0.387502
  0
VERTEX
  8
EBENE_1
 62
    39
  6
CONTINUOUS
 10
-0.004214
 20
-0.382167
  0
VERTEX
  8
EBENE_1
 62
    39
  6
CONTINUOUS
 10
-0.018458
 20
-0.376312
  0
VERTEX
  8
EBENE_1
 62
    39
  6
CONTINUOUS
 10
-0.032871
 20
-0.369938
  0
VERTEX
  8
EBENE_1
 62
    39
  6
CONTINUOUS
 10
-0.047422
 20
-0.363048
  0
VERTEX
  8
EBENE_1
 62
    39
  6
CONTINUOUS
 10
-0.062078
 20
-0.355644
  0
VERTEX
  8
EBENE_1
 62
    39
  6
CONTINUOUS
 10
-0.076810
 20
-0.347727
  0
VERTEX
  8
EBENE_1
 62
    39
  6
CONTINUOUS
 10
-0.091585
 20
-0.339299
  0
VERTEX
  8
EBENE_1
 62
    39
  6
CONTINUOUS
 10
-0.106374
 20
-0.330363
  0
VERTEX
  8
EBENE_1
 62
    39
  6
CONTINUOUS
 10
-0.121143
 20
-0.320920
  0
VERTEX
  8
EBENE_1
 62
    39
  6
CONTINUOUS
 10
-0.135864
 20
-0.310973
  0
VERTEX
  8
EBENE_1
 62
    39
  6
CONTINUOUS
 10
-0.150503
 20
-0.300523
  0
VERTEX
  8
EBENE_1
 62
    39
  6
CONTINUOUS
 10
-0.165031
 20
-0.289573
  0
VERTEX
  8
EBENE_1
 62
    39
  6
CONTINUOUS
 10
-0.179416
 20
-0.278124
  0
VERTEX
  8
EBENE_1
 62
    39
  6
CONTINUOUS
 10
-0.193626
 20
-0.266178
  0
VERTEX
  8
EBENE_1
 62
    39
  6
CONTINUOUS
 10
-0.207631
 20
-0.253738
  0
VERTEX
  8
EBENE_1
 62
    39
  6
CONTINUOUS
 10
-0.221399
 20
-0.240805
  0
VERTEX
  8
EBENE_1
 62
    39
  6
CONTINUOUS
 10
-0.234900
 20
-0.227382
  0
VERTEX
  8
EBENE_1
 62
    39
  6
CONTINUOUS
 10
-0.248102
 20
-0.213469
  0
VERTEX
  8
EBENE_1
 62
    39
  6
CONTINUOUS
 10
-0.260974
 20
-0.199071
  0
VERTEX
  8
EBENE_1
 62
    39
  6
CONTINUOUS
 10
-0.273484
 20
-0.184187
  0
VERTEX
  8
EBENE_1
 62
    39
  6
CONTINUOUS
 10
-0.285602
 20
-0.168821
  0
VERTEX
  8
EBENE_1
 62
    39
  6
CONTINUOUS
 10
-0.297297
 20
-0.152974
  0
VERTEX
  8
EBENE_1
 62
    39
  6
CONTINUOUS
 10
-0.308537
 20
-0.136649
  0
VERTEX
  8
EBENE_1
 62
    39
  6
CONTINUOUS
 10
-0.319291
 20
-0.119847
  0
VERTEX
  8
EBENE_1
 62
    39
  6
CONTINUOUS
 10
-0.329528
 20
-0.102570
  0
VERTEX
  8
EBENE_1
 62
    39
  6
CONTINUOUS
 10
-0.339216
 20
-0.084820
  0
VERTEX
  8
EBENE_1
 62
    39
  6
CONTINUOUS
 10
-0.348326
 20
-0.066600
  0
VERTEX
  8
EBENE_1
 62
    39
  6
CONTINUOUS
 10
-0.356825
 20
-0.047910
  0
VERTEX
  8
EBENE_1
 62
    39
  6
CONTINUOUS
 10
-0.364682
 20
-0.028755
  0
VERTEX
  8
EBENE_1
 62
    39
  6
CONTINUOUS
 10
-0.371866
 20
-0.009134
  0
SEQEND
  8
0
  0
POLYLINE
  8
EBENE_1
 62
    39
  6
CONTINUOUS
 66
     1
 40
0.003000
 41
0.003000
  0
VERTEX
  8
EBENE_1
 62
    39
  6
CONTINUOUS
 10
-0.371866
 20
-0.009134
  0
VERTEX
  8
EBENE_1
 62
    39
  6
CONTINUOUS
 10
-0.375339
 20
0.012989
  0
VERTEX
  8
EBENE_1
 62
    39
  6
CONTINUOUS
 10
-0.376783
 20
0.034077
  0
VERTEX
  8
EBENE_1
 62
    39
  6
CONTINUOUS
 10
-0.376306
 20
0.054053
  0
VERTEX
  8
EBENE_1
 62
    39
  6
CONTINUOUS
 10
-0.374015
 20
0.072843
  0
VERTEX
  8
EBENE_1
 62
    39
  6
CONTINUOUS
 10
-0.370016
 20
0.090370
  0
VERTEX
  8
EBENE_1
 62
    39
  6
CONTINUOUS
 10
-0.364417
 20
0.106559
  0
VERTEX
  8
EBENE_1
 62
    39
  6
CONTINUOUS
 10
-0.357325
 20
0.121334
  0
VERTEX
  8
EBENE_1
 62
    39
  6
CONTINUOUS
 10
-0.348846
 20
0.134620
  0
VERTEX
  8
EBENE_1
 62
    39
  6
CONTINUOUS
 10
-0.339088
 20
0.146340
  0
VERTEX
  8
EBENE_1
 62
    39
  6
CONTINUOUS
 10
-0.328158
 20
0.156419
  0
VERTEX
  8
EBENE_1
 62
    39
  6
CONTINUOUS
 10
-0.316163
 20
0.164782
  0
VERTEX
  8
EBENE_1
 62
    39
  6
CONTINUOUS
 10
-0.303210
 20
0.171353
  0
VERTEX
  8
EBENE_1
 62
    39
  6
CONTINUOUS
 10
-0.289406
 20
0.176055
  0
SEQEND
  8
0
  0
POLYLINE
  8
EBENE_1
 62
    39
  6
CONTINUOUS
 66
     1
 40
0.003000
 41
0.003000
  0
VERTEX
  8
EBENE_1
 62
    39
  6
CONTINUOUS
 10
-0.289406
 20
0.176055
  0
VERTEX
  8
EBENE_1
 62
    39
  6
CONTINUOUS
 10
0.055969
 20
0.268650
  0
SEQEND
  8
0
  0
POLYLINE
  8
EBENE_1
 62
    39
  6
CONTINUOUS
 66
     1
 40
0.003000
 41
0.003000
  0
VERTEX
  8
EBENE_1
 62
    39
  6
CONTINUOUS
 10
0.055969
 20
0.268650
  0
VERTEX
  8
EBENE_1
 62
    39
  6
CONTINUOUS
 10
0.078205
 20
0.272904
  0
VERTEX
  8
EBENE_1
 62
    39
  6
CONTINUOUS
 10
0.095980
 20
0.272755
  0
VERTEX
  8
EBENE_1
 62
    39
  6
CONTINUOUS
 10
0.110106
 20
0.268907
  0
VERTEX
  8
EBENE_1
 62
    39
  6
CONTINUOUS
 10
0.121394
 20
0.262066
  0
VERTEX
  8
EBENE_1
 62
    39
  6
CONTINUOUS
 10
0.130654
 20
0.252937
  0
VERTEX
  8
EBENE_1
 62
    39
  6
CONTINUOUS
 10
0.138697
 20
0.242227
  0
VERTEX
  8
EBENE_1
 62
    39
  6
CONTINUOUS
 10
0.146335
 20
0.230640
  0
VERTEX
  8
EBENE_1
 62
    39
  6
CONTINUOUS
 10
0.154378
 20
0.218884
  0
VERTEX
  8
EBENE_1
 62
    39
  6
CONTINUOUS
 10
0.163638
 20
0.207662
  0
VERTEX
  8
EBENE_1
 62
    39
  6
CONTINUOUS
 10
0.174925
 20
0.197681
  0
SEQEND
  8
0
  0
POLYLINE
  8
EBENE_1
 62
    39
  6
CONTINUOUS
 66
     1
 40
0.003000
 41
0.003000
 70
     1
  0
VERTEX
  8
EBENE_1
 62
    39
  6
CONTINUOUS
 10
0.174925
 20
0.194980
  0
VERTEX
  8
EBENE_1
 62
    39
  6
CONTINUOUS
 10
0.486508
 20
-0.315988
  0
VERTEX
  8
EBENE_1
 62
    39
  6
CONTINUOUS
 10
0.160055
 20
-0.401150
  0
VERTEX
  8
EBENE_1
 62
    39
  6
CONTINUOUS
 10
0.151590
 20
-0.402719
  0
VERTEX
  8
EBENE_1
 62
    39
  6
CONTINUOUS
 10
0.142530
 20
-0.403751
  0
VERTEX
  8
EBENE_1
 62
    39
  6
CONTINUOUS
 10
0.132906
 20
-0.404248
  0
VERTEX
  8
EBENE_1
 62
    39
  6
CONTINUOUS
 10
0.122750
 20
-0.404211
  0
VERTEX
  8
EBENE_1
 62
    39
  6
CONTINUOUS
 10
0.112090
 20
-0.403643
  0
VERTEX
  8
EBENE_1
 62
    39
  6
CONTINUOUS
 10
0.100958
 20
-0.402545
  0
VERTEX
  8
EBENE_1
 62
    39
  6
CONTINUOUS
 10
0.089385
 20
-0.400920
  0
VERTEX
  8
EBENE_1
 62
    39
  6
CONTINUOUS
 10
0.077402
 20
-0.398770
  0
VERTEX
  8
EBENE_1
 62
    39
  6
CONTINUOUS
 10
0.065037
 20
-0.396097
  0
VERTEX
  8
EBENE_1
 62
    39
  6
CONTINUOUS
 10
0.052324
 20
-0.392903
  0
VERTEX
  8
EBENE_1
 62
    39
  6
CONTINUOUS
 10
0.039291
 20
-0.389189
  0
VERTEX
  8
EBENE_1
 62
    39
  6
CONTINUOUS
 10
0.025970
 20
-0.384959
  0
VERTEX
  8
EBENE_1
 62
    39
  6
CONTINUOUS
 10
0.012391
 20
-0.380213
  0
VERTEX
  8
EBENE_1
 62
    39
  6
CONTINUOUS
 10
-0.001416
 20
-0.374954
  0
VERTEX
  8
EBENE_1
 62
    39
  6
CONTINUOUS
 10
-0.015419
 20
-0.369185
  0
VERTEX
  8
EBENE_1
 62
    39
  6
CONTINUOUS
 10
-0.029588
 20
-0.362906
  0
VERTEX
  8
EBENE_1
 62
    39
  6
CONTINUOUS
 10
-0.043892
 20
-0.356120
  0
VERTEX
  8
EBENE_1
 62
    39
  6
CONTINUOUS
 10
-0.058301
 20
-0.348830
  0
VERTEX
  8
EBENE_1
 62
    39
  6
CONTINUOUS
 10
-0.072784
 20
-0.341037
  0
VERTEX
  8
EBENE_1
 62
    39
  6
CONTINUOUS
 10
-0.087311
 20
-0.332743
  0
VERTEX
  8
EBENE_1
 62
    39
  6
CONTINUOUS
 10
-0.101851
 20
-0.323950
  0
VERTEX
  8
EBENE_1
 62
    39
  6
CONTINUOUS
 10
-0.116374
 20
-0.314661
  0
VERTEX
  8
EBENE_1
 62
    39
  6
CONTINUOUS
 10
-0.130848
 20
-0.304877
  0
VERTEX
  8
EBENE_1
 62
    39
  6
CONTINUOUS
 10
-0.145243
 20
-0.294600
  0
VERTEX
  8
EBENE_1
 62
    39
  6
CONTINUOUS
 10
-0.159529
 20
-0.283833
  0
VERTEX
  8
EBENE_1
 62
    39
  6
CONTINUOUS
 10
-0.173675
 20
-0.272577
  0
VERTEX
  8
EBENE_1
 62
    39
  6
CONTINUOUS
 10
-0.187650
 20
-0.260835
  0
VERTEX
  8
EBENE_1
 62
    39
  6
CONTINUOUS
 10
-0.201424
 20
-0.248609
  0
VERTEX
  8
EBENE_1
 62
    39
  6
CONTINUOUS
 10
-0.214967
 20
-0.235899
  0
VERTEX
  8
EBENE_1
 62
    39
  6
CONTINUOUS
 10
-0.228247
 20
-0.222710
  0
VERTEX
  8
EBENE_1
 62
    39
  6
CONTINUOUS
 10
-0.241233
 20
-0.209042
  0
VERTEX
  8
EBENE_1
 62
    39
  6
CONTINUOUS
 10
-0.253897
 20
-0.194898
  0
VERTEX
  8
EBENE_1
 62
    39
  6
CONTINUOUS
 10
-0.266205
 20
-0.180280
  0
VERTEX
  8
EBENE_1
 62
    39
  6
CONTINUOUS
 10
-0.278130
 20
-0.165189
  0
VERTEX
  8
EBENE_1
 62
    39
  6
CONTINUOUS
 10
-0.289638
 20
-0.149628
  0
VERTEX
  8
EBENE_1
 62
    39
  6
CONTINUOUS
 10
-0.300701
 20
-0.133599
  0
VERTEX
  8
EBENE_1
 62
    39
  6
CONTINUOUS
 10
-0.311287
 20
-0.117104
  0
VERTEX
  8
EBENE_1
 62
    39
  6
CONTINUOUS
 10
-0.321365
 20
-0.100145
  0
VERTEX
  8
EBENE_1
 62
    39
  6
CONTINUOUS
 10
-0.330906
 20
-0.082724
  0
VERTEX
  8
EBENE_1
 62
    39
  6
CONTINUOUS
 10
-0.339879
 20
-0.064843
  0
VERTEX
  8
EBENE_1
 62
    39
  6
CONTINUOUS
 10
-0.348252
 20
-0.046504
  0
VERTEX
  8
EBENE_1
 62
    39
  6
CONTINUOUS
 10
-0.355995
 20
-0.027709
  0
VERTEX
  8
EBENE_1
 62
    39
  6
CONTINUOUS
 10
-0.363079
 20
-0.008461
  0
VERTEX
  8
EBENE_1
 62
    39
  6
CONTINUOUS
 10
-0.363079
 20
-0.008461
  0
VERTEX
  8
EBENE_1
 62
    39
  6
CONTINUOUS
 10
-0.366431
 20
0.013352
  0
VERTEX
  8
EBENE_1
 62
    39
  6
CONTINUOUS
 10
-0.367819
 20
0.034134
  0
VERTEX
  8
EBENE_1
 62
    39
  6
CONTINUOUS
 10
-0.367343
 20
0.053816
  0
VERTEX
  8
EBENE_1
 62
    39
  6
CONTINUOUS
 10
-0.365102
 20
0.072328
  0
VERTEX
  8
EBENE_1
 62
    39
  6
CONTINUOUS
 10
-0.361196
 20
0.089599
  0
VERTEX
  8
EBENE_1
 62
    39
  6
CONTINUOUS
 10
-0.355725
 20
0.105560
  0
VERTEX
  8
EBENE_1
 62
    39
  6
CONTINUOUS
 10
-0.348789
 20
0.120140
  0
VERTEX
  8
EBENE_1
 62
    39
  6
CONTINUOUS
 10
-0.340486
 20
0.133270
  0
VERTEX
  8
EBENE_1
 62
    39
  6
CONTINUOUS
 10
-0.330917
 20
0.144878
  0
VERTEX
  8
EBENE_1
 62
    39
  6
CONTINUOUS
 10
-0.320182
 20
0.154896
  0
VERTEX
  8
EBENE_1
 62
    39
  6
CONTINUOUS
 10
-0.308379
 20
0.163252
  0
VERTEX
  8
EBENE_1
 62
    39
  6
CONTINUOUS
 10
-0.295610
 20
0.169877
  0
VERTEX
  8
EBENE_1
 62
    39
  6
CONTINUOUS
 10
-0.281972
 20
0.174701
  0
VERTEX
  8
EBENE_1
 62
    39
  6
CONTINUOUS
 10
0.057996
 20
0.265272
  0
VERTEX
  8
EBENE_1
 62
    39
  6
CONTINUOUS
 10
0.079866
 20
0.269381
  0
VERTEX
  8
EBENE_1
 62
    39
  6
CONTINUOUS
 10
0.097344
 20
0.269187
  0
VERTEX
  8
EBENE_1
 62
    39
  6
CONTINUOUS
 10
0.111228
 20
0.265376
  0
VERTEX
  8
EBENE_1
 62
    39
  6
CONTINUOUS
 10
0.122319
 20
0.258632
  0
VERTEX
  8
EBENE_1
 62
    39
  6
CONTINUOUS
 10
0.131415
 20
0.249642
  0
VERTEX
  8
EBENE_1
 62
    39
  6
CONTINUOUS
 10
0.139314
 20
0.239091
  0
VERTEX
  8
EBENE_1
 62
    39
  6
CONTINUOUS
 10
0.146816
 20
0.227664
  0
VERTEX
  8
EBENE_1
 62
    39
  6
CONTINUOUS
 10
0.154719
 20
0.216046
  0
VERTEX
  8
EBENE_1
 62
    39
  6
CONTINUOUS
 10
0.163823
 20
0.204923
  0
SEQEND
  8
0
  0
POLYLINE
  8
EBENE_1
 62
    39
  6
CONTINUOUS
 66
     1
 40
0.003000
 41
0.003000
  0
VERTEX
  8
EBENE_1
 62
    39
  6
CONTINUOUS
 10
-0.102185
 20
0.171323
  0
VERTEX
  8
EBENE_1
 62
    39
  6
CONTINUOUS
 10
-0.096678
 20
0.172950
  0
VERTEX
  8
EBENE_1
 62
    39
  6
CONTINUOUS
 10
-0.092822
 20
0.177130
  0
VERTEX
  8
EBENE_1
 62
    39
  6
CONTINUOUS
 10
-0.091370
 20
0.182815
  0
SEQEND
  8
0
  0
POLYLINE
  8
EBENE_1
 62
    39
  6
CONTINUOUS
 66
     1
 40
0.003000
 41
0.003000
  0
VERTEX
  8
EBENE_1
 62
    39
  6
CONTINUOUS
 10
-0.091370
 20
0.182815
  0
VERTEX
  8
EBENE_1
 62
    39
  6
CONTINUOUS
 10
-0.092822
 20
0.188796
  0
VERTEX
  8
EBENE_1
 62
    39
  6
CONTINUOUS
 10
-0.096678
 20
0.192826
  0
VERTEX
  8
EBENE_1
 62
    39
  6
CONTINUOUS
 10
-0.102185
 20
0.194303
  0
SEQEND
  8
0
  0
POLYLINE
  8
EBENE_1
 62
    39
  6
CONTINUOUS
 66
     1
 40
0.003000
 41
0.003000
  0
VERTEX
  8
EBENE_1
 62
    39
  6
CONTINUOUS
 10
-0.102185
 20
0.194303
  0
VERTEX
  8
EBENE_1
 62
    39
  6
CONTINUOUS
 10
-0.108169
 20
0.192826
  0
VERTEX
  8
EBENE_1
 62
    39
  6
CONTINUOUS
 10
-0.112200
 20
0.188796
  0
VERTEX
  8
EBENE_1
 62
    39
  6
CONTINUOUS
 10
-0.113677
 20
0.182815
  0
SEQEND
  8
0
  0
POLYLINE
  8
EBENE_1
 62
    39
  6
CONTINUOUS
 66
     1
 40
0.003000
 41
0.003000
  0
VERTEX
  8
EBENE_1
 62
    39
  6
CONTINUOUS
 10
-0.113677
 20
0.182815
  0
VERTEX
  8
EBENE_1
 62
    39
  6
CONTINUOUS
 10
-0.112200
 20
0.177130
  0
VERTEX
  8
EBENE_1
 62
    39
  6
CONTINUOUS
 10
-0.108169
 20
0.172950
  0
VERTEX
  8
EBENE_1
 62
    39
  6
CONTINUOUS
 10
-0.102185
 20
0.171323
  0
SEQEND
  8
0
  0
POLYLINE
  8
EBENE_1
 62
    39
  6
CONTINUOUS
 66
     1
 40
0.003000
 41
0.003000
  0
VERTEX
  8
EBENE_1
 62
    39
  6
CONTINUOUS
 10
0.018795
 20
0.197681
  0
VERTEX
  8
EBENE_1
 62
    39
  6
CONTINUOUS
 10
0.024778
 20
0.199309
  0
VERTEX
  8
EBENE_1
 62
    39
  6
CONTINUOUS
 10
0.028807
 20
0.203490
  0
VERTEX
  8
EBENE_1
 62
    39
  6
CONTINUOUS
 10
0.030283
 20
0.209173
  0
SEQEND
  8
0
  0
POLYLINE
  8
EBENE_1
 62
    39
  6
CONTINUOUS
 66
     1
 40
0.003000
 41
0.003000
  0
VERTEX
  8
EBENE_1
 62
    39
  6
CONTINUOUS
 10
0.030283
 20
0.209173
  0
VERTEX
  8
EBENE_1
 62
    39
  6
CONTINUOUS
 10
0.028807
 20
0.214855
  0
VERTEX
  8
EBENE_1
 62
    39
  6
CONTINUOUS
 10
0.024778
 20
0.219035
  0
VERTEX
  8
EBENE_1
 62
    39
  6
CONTINUOUS
 10
0.018795
 20
0.220661
  0
SEQEND
  8
0
  0
POLYLINE
  8
EBENE_1
 62
    39
  6
CONTINUOUS
 66
     1
 40
0.003000
 41
0.003000
  0
VERTEX
  8
EBENE_1
 62
    39
  6
CONTINUOUS
 10
0.018795
 20
0.220661
  0
VERTEX
  8
EBENE_1
 62
    39
  6
CONTINUOUS
 10
0.013112
 20
0.219035
  0
VERTEX
  8
EBENE_1
 62
    39
  6
CONTINUOUS
 10
0.008931
 20
0.214855
  0
VERTEX
  8
EBENE_1
 62
    39
  6
CONTINUOUS
 10
0.007303
 20
0.209173
  0
SEQEND
  8
0
  0
POLYLINE
  8
EBENE_1
 62
    39
  6
CONTINUOUS
 66
     1
 40
0.003000
 41
0.003000
  0
VERTEX
  8
EBENE_1
 62
    39
  6
CONTINUOUS
 10
0.007303
 20
0.209173
  0
VERTEX
  8
EBENE_1
 62
    39
  6
CONTINUOUS
 10
0.008931
 20
0.203490
  0
VERTEX
  8
EBENE_1
 62
    39
  6
CONTINUOUS
 10
0.013112
 20
0.199309
  0
VERTEX
  8
EBENE_1
 62
    39
  6
CONTINUOUS
 10
0.018795
 20
0.197681
  0
SEQEND
  8
0
  0
POLYLINE
  8
EBENE_1
 62
    39
  6
CONTINUOUS
 66
     1
 40
0.003000
 41
0.003000
  0
VERTEX
  8
EBENE_1
 62
    39
  6
CONTINUOUS
 10
0.137752
 20
0.152398
  0
VERTEX
  8
EBENE_1
 62
    39
  6
CONTINUOUS
 10
0.143434
 20
0.153850
  0
VERTEX
  8
EBENE_1
 62
    39
  6
CONTINUOUS
 10
0.147613
 20
0.157705
  0
VERTEX
  8
EBENE_1
 62
    39
  6
CONTINUOUS
 10
0.149240
 20
0.163213
  0
SEQEND
  8
0
  0
POLYLINE
  8
EBENE_1
 62
    39
  6
CONTINUOUS
 66
     1
 40
0.003000
 41
0.003000
  0
VERTEX
  8
EBENE_1
 62
    39
  6
CONTINUOUS
 10
0.149240
 20
0.163213
  0
VERTEX
  8
EBENE_1
 62
    39
  6
CONTINUOUS
 10
0.147613
 20
0.169195
  0
VERTEX
  8
EBENE_1
 62
    39
  6
CONTINUOUS
 10
0.143434
 20
0.173225
  0
VERTEX
  8
EBENE_1
 62
    39
  6
CONTINUOUS
 10
0.137752
 20
0.174701
  0
SEQEND
  8
0
  0
POLYLINE
  8
EBENE_1
 62
    39
  6
CONTINUOUS
 66
     1
 40
0.003000
 41
0.003000
  0
VERTEX
  8
EBENE_1
 62
    39
  6
CONTINUOUS
 10
0.137752
 20
0.174701
  0
VERTEX
  8
EBENE_1
 62
    39
  6
CONTINUOUS
 10
0.132069
 20
0.173225
  0
VERTEX
  8
EBENE_1
 62
    39
  6
CONTINUOUS
 10
0.127888
 20
0.169195
  0
VERTEX
  8
EBENE_1
 62
    39
  6
CONTINUOUS
 10
0.126260
 20
0.163213
  0
SEQEND
  8
0
  0
POLYLINE
  8
EBENE_1
 62
    39
  6
CONTINUOUS
 66
     1
 40
0.003000
 41
0.003000
  0
VERTEX
  8
EBENE_1
 62
    39
  6
CONTINUOUS
 10
0.126260
 20
0.163213
  0
VERTEX
  8
EBENE_1
 62
    39
  6
CONTINUOUS
 10
0.127888
 20
0.157705
  0
VERTEX
  8
EBENE_1
 62
    39
  6
CONTINUOUS
 10
0.132069
 20
0.153850
  0
VERTEX
  8
EBENE_1
 62
    39
  6
CONTINUOUS
 10
0.137752
 20
0.152398
  0
SEQEND
  8
0
  0
POLYLINE
  8
EBENE_1
 62
    39
  6
CONTINUOUS
 66
     1
 40
0.003000
 41
0.003000
  0
VERTEX
  8
EBENE_1
 62
    39
  6
CONTINUOUS
 10
0.507461
 20
0.280142
  0
VERTEX
  8
EBENE_1
 62
    39
  6
CONTINUOUS
 10
0.824453
 20
-0.239614
  0
VERTEX
  8
EBENE_1
 62
    39
  6
CONTINUOUS
 10
0.492591
 20
-0.326126
  0
SEQEND
  8
0
  0
POLYLINE
  8
EBENE_1
 62
    39
  6
CONTINUOUS
 66
     1
 40
0.003000
 41
0.003000
  0
VERTEX
  8
EBENE_1
 62
    39
  6
CONTINUOUS
 10
0.492591
 20
-0.326126
  0
VERTEX
  8
EBENE_1
 62
    39
  6
CONTINUOUS
 10
0.483978
 20
-0.327738
  0
VERTEX
  8
EBENE_1
 62
    39
  6
CONTINUOUS
 10
0.474761
 20
-0.328804
  0
VERTEX
  8
EBENE_1
 62
    39
  6
CONTINUOUS
 10
0.464971
 20
-0.329326
  0
VERTEX
  8
EBENE_1
 62
    39
  6
CONTINUOUS
 10
0.454637
 20
-0.329305
  0
VERTEX
  8
EBENE_1
 62
    39
  6
CONTINUOUS
 10
0.443792
 20
-0.328744
  0
VERTEX
  8
EBENE_1
 62
    39
  6
CONTINUOUS
 10
0.432466
 20
-0.327645
  0
VERTEX
  8
EBENE_1
 62
    39
  6
CONTINUOUS
 10
0.420691
 20
-0.326009
  0
VERTEX
  8
EBENE_1
 62
    39
  6
CONTINUOUS
 10
0.408498
 20
-0.323839
  0
VERTEX
  8
EBENE_1
 62
    39
  6
CONTINUOUS
 10
0.395918
 20
-0.321137
  0
VERTEX
  8
EBENE_1
 62
    39
  6
CONTINUOUS
 10
0.382981
 20
-0.317904
  0
VERTEX
  8
EBENE_1
 62
    39
  6
CONTINUOUS
 10
0.369720
 20
-0.314142
  0
VERTEX
  8
EBENE_1
 62
    39
  6
CONTINUOUS
 10
0.356165
 20
-0.309855
  0
VERTEX
  8
EBENE_1
 62
    39
  6
CONTINUOUS
 10
0.342348
 20
-0.305042
  0
VERTEX
  8
EBENE_1
 62
    39
  6
CONTINUOUS
 10
0.328298
 20
-0.299708
  0
VERTEX
  8
EBENE_1
 62
    39
  6
CONTINUOUS
 10
0.314049
 20
-0.293853
  0
VERTEX
  8
EBENE_1
 62
    39
  6
CONTINUOUS
 10
0.299630
 20
-0.287479
  0
VERTEX
  8
EBENE_1
 62
    39
  6
CONTINUOUS
 10
0.285072
 20
-0.280589
  0
VERTEX
  8
EBENE_1
 62
    39
  6
CONTINUOUS
 10
0.270408
 20
-0.273184
  0
VERTEX
  8
EBENE_1
 62
    39
  6
CONTINUOUS
 10
0.255668
 20
-0.265267
  0
VERTEX
  8
EBENE_1
 62
    39
  6
CONTINUOUS
 10
0.240882
 20
-0.256840
  0
VERTEX
  8
EBENE_1
 62
    39
  6
CONTINUOUS
 10
0.226083
 20
-0.247904
  0
VERTEX
  8
EBENE_1
 62
    39
  6
CONTINUOUS
 10
0.211302
 20
-0.238461
  0
VERTEX
  8
EBENE_1
 62
    39
  6
CONTINUOUS
 10
0.196569
 20
-0.228514
  0
VERTEX
  8
EBENE_1
 62
    39
  6
CONTINUOUS
 10
0.181915
 20
-0.218064
  0
VERTEX
  8
EBENE_1
 62
    39
  6
CONTINUOUS
 10
0.167372
 20
-0.207114
  0
VERTEX
  8
EBENE_1
 62
    39
  6
CONTINUOUS
 10
0.152971
 20
-0.195665
  0
VERTEX
  8
EBENE_1
 62
    39
  6
CONTINUOUS
 10
0.138743
 20
-0.183720
  0
VERTEX
  8
EBENE_1
 62
    39
  6
CONTINUOUS
 10
0.124719
 20
-0.171280
  0
VERTEX
  8
EBENE_1
 62
    39
  6
CONTINUOUS
 10
0.110930
 20
-0.158347
  0
VERTEX
  8
EBENE_1
 62
    39
  6
CONTINUOUS
 10
0.097407
 20
-0.144924
  0
VERTEX
  8
EBENE_1
 62
    39
  6
CONTINUOUS
 10
0.084181
 20
-0.131012
  0
VERTEX
  8
EBENE_1
 62
    39
  6
CONTINUOUS
 10
0.071284
 20
-0.116613
  0
VERTEX
  8
EBENE_1
 62
    39
  6
CONTINUOUS
 10
0.058747
 20
-0.101730
  0
VERTEX
  8
EBENE_1
 62
    39
  6
CONTINUOUS
 10
0.046600
 20
-0.086364
  0
VERTEX
  8
EBENE_1
 62
    39
  6
CONTINUOUS
 10
0.034876
 20
-0.070518
  0
VERTEX
  8
EBENE_1
 62
    39
  6
CONTINUOUS
 10
0.023604
 20
-0.054193
  0
VERTEX
  8
EBENE_1
 62
    39
  6
CONTINUOUS
 10
0.012816
 20
-0.037391
  0
VERTEX
  8
EBENE_1
 62
    39
  6
CONTINUOUS
 10
0.002543
 20
-0.020114
  0
VERTEX
  8
EBENE_1
 62
    39
  6
CONTINUOUS
 10
-0.007183
 20
-0.002365
  0
VERTEX
  8
EBENE_1
 62
    39
  6
CONTINUOUS
 10
-0.016332
 20
0.015855
  0
VERTEX
  8
EBENE_1
 62
    39
  6
CONTINUOUS
 10
-0.024873
 20
0.034543
  0
VERTEX
  8
EBENE_1
 62
    39
  6
CONTINUOUS
 10
-0.032774
 20
0.053699
  0
VERTEX
  8
EBENE_1
 62
    39
  6
CONTINUOUS
 10
-0.040004
 20
0.073319
  0
SEQEND
  8
0
  0
POLYLINE
  8
EBENE_1
 62
    39
  6
CONTINUOUS
 66
     1
 40
0.003000
 41
0.003000
  0
VERTEX
  8
EBENE_1
 62
    39
  6
CONTINUOUS
 10
-0.040004
 20
0.073319
  0
VERTEX
  8
EBENE_1
 62
    39
  6
CONTINUOUS
 10
-0.043477
 20
0.095443
  0
VERTEX
  8
EBENE_1
 62
    39
  6
CONTINUOUS
 10
-0.044920
 20
0.116531
  0
VERTEX
  8
EBENE_1
 62
    39
  6
CONTINUOUS
 10
-0.044437
 20
0.136508
  0
VERTEX
  8
EBENE_1
 62
    39
  6
CONTINUOUS
 10
-0.042135
 20
0.155298
  0
VERTEX
  8
EBENE_1
 62
    39
  6
CONTINUOUS
 10
-0.038117
 20
0.172826
  0
VERTEX
  8
EBENE_1
 62
    39
  6
CONTINUOUS
 10
-0.032490
 20
0.189015
  0
VERTEX
  8
EBENE_1
 62
    39
  6
CONTINUOUS
 10
-0.025359
 20
0.203790
  0
VERTEX
  8
EBENE_1
 62
    39
  6
CONTINUOUS
 10
-0.016829
 20
0.217076
  0
VERTEX
  8
EBENE_1
 62
    39
  6
CONTINUOUS
 10
-0.007005
 20
0.228797
  0
VERTEX
  8
EBENE_1
 62
    39
  6
CONTINUOUS
 10
0.004008
 20
0.238876
  0
VERTEX
  8
EBENE_1
 62
    39
  6
CONTINUOUS
 10
0.016104
 20
0.247239
  0
VERTEX
  8
EBENE_1
 62
    39
  6
CONTINUOUS
 10
0.029179
 20
0.253809
  0
VERTEX
  8
EBENE_1
 62
    39
  6
CONTINUOUS
 10
0.043126
 20
0.258512
  0
SEQEND
  8
0
  0
POLYLINE
  8
EBENE_1
 62
    39
  6
CONTINUOUS
 66
     1
 40
0.003000
 41
0.003000
  0
VERTEX
  8
EBENE_1
 62
    39
  6
CONTINUOUS
 10
0.043126
 20
0.258512
  0
VERTEX
  8
EBENE_1
 62
    39
  6
CONTINUOUS
 10
0.388504
 20
0.351110
  0
SEQEND
  8
0
  0
POLYLINE
  8
EBENE_1
 62
    39
  6
CONTINUOUS
 66
     1
 40
0.003000
 41
0.003000
  0
VERTEX
  8
EBENE_1
 62
    39
  6
CONTINUOUS
 10
0.388504
 20
0.351110
  0
VERTEX
  8
EBENE_1
 62
    39
  6
CONTINUOUS
 10
0.410741
 20
0.355364
  0
VERTEX
  8
EBENE_1
 62
    39
  6
CONTINUOUS
 10
0.428517
 20
0.355214
  0
VERTEX
  8
EBENE_1
 62
    39
  6
CONTINUOUS
 10
0.442644
 20
0.351365
  0
VERTEX
  8
EBENE_1
 62
    39
  6
CONTINUOUS
 10
0.453931
 20
0.344523
  0
VERTEX
  8
EBENE_1
 62
    39
  6
CONTINUOUS
 10
0.463190
 20
0.335395
  0
VERTEX
  8
EBENE_1
 62
    39
  6
CONTINUOUS
 10
0.471233
 20
0.324685
  0
VERTEX
  8
EBENE_1
 62
    39
  6
CONTINUOUS
 10
0.478871
 20
0.313099
  0
VERTEX
  8
EBENE_1
 62
    39
  6
CONTINUOUS
 10
0.486914
 20
0.301342
  0
VERTEX
  8
EBENE_1
 62
    39
  6
CONTINUOUS
 10
0.496173
 20
0.290121
  0
VERTEX
  8
EBENE_1
 62
    39
  6
CONTINUOUS
 10
0.507461
 20
0.280142
  0
SEQEND
  8
0
  0
POLYLINE
  8
EBENE_1
 62
    39
  6
CONTINUOUS
 66
     1
 40
0.003000
 41
0.003000
 70
     1
  0
VERTEX
  8
EBENE_1
 62
    39
  6
CONTINUOUS
 10
0.507461
 20
0.277437
  0
VERTEX
  8
EBENE_1
 62
    39
  6
CONTINUOUS
 10
0.819720
 20
-0.233531
  0
VERTEX
  8
EBENE_1
 62
    39
  6
CONTINUOUS
 10
0.492591
 20
-0.318693
  0
VERTEX
  8
EBENE_1
 62
    39
  6
CONTINUOUS
 10
0.484125
 20
-0.320262
  0
VERTEX
  8
EBENE_1
 62
    39
  6
CONTINUOUS
 10
0.475065
 20
-0.321294
  0
VERTEX
  8
EBENE_1
 62
    39
  6
CONTINUOUS
 10
0.465442
 20
-0.321791
  0
VERTEX
  8
EBENE_1
 62
    39
  6
CONTINUOUS
 10
0.455284
 20
-0.321754
  0
VERTEX
  8
EBENE_1
 62
    39
  6
CONTINUOUS
 10
0.444624
 20
-0.321186
  0
VERTEX
  8
EBENE_1
 62
    39
  6
CONTINUOUS
 10
0.433492
 20
-0.320088
  0
VERTEX
  8
EBENE_1
 62
    39
  6
CONTINUOUS
 10
0.421918
 20
-0.318464
  0
VERTEX
  8
EBENE_1
 62
    39
  6
CONTINUOUS
 10
0.409933
 20
-0.316313
  0
VERTEX
  8
EBENE_1
 62
    39
  6
CONTINUOUS
 10
0.397567
 20
-0.313640
  0
VERTEX
  8
EBENE_1
 62
    39
  6
CONTINUOUS
 10
0.384851
 20
-0.310446
  0
VERTEX
  8
EBENE_1
 62
    39
  6
CONTINUOUS
 10
0.371815
 20
-0.306732
  0
VERTEX
  8
EBENE_1
 62
    39
  6
CONTINUOUS
 10
0.358490
 20
-0.302501
  0
VERTEX
  8
EBENE_1
 62
    39
  6
CONTINUOUS
 10
0.344907
 20
-0.297755
  0
VERTEX
  8
EBENE_1
 62
    39
  6
CONTINUOUS
 10
0.331097
 20
-0.292497
  0
VERTEX
  8
EBENE_1
 62
    39
  6
CONTINUOUS
 10
0.317088
 20
-0.286727
  0
VERTEX
  8
EBENE_1
 62
    39
  6
CONTINUOUS
 10
0.302913
 20
-0.280448
  0
VERTEX
  8
EBENE_1
 62
    39
  6
CONTINUOUS
 10
0.288602
 20
-0.273663
  0
VERTEX
  8
EBENE_1
 62
    39
  6
CONTINUOUS
 10
0.274185
 20
-0.266372
  0
VERTEX
  8
EBENE_1
 62
    39
  6
CONTINUOUS
 10
0.259693
 20
-0.258579
  0
VERTEX
  8
EBENE_1
 62
    39
  6
CONTINUOUS
 10
0.245156
 20
-0.250285
  0
VERTEX
  8
EBENE_1
 62
    39
  6
CONTINUOUS
 10
0.230606
 20
-0.241492
  0
VERTEX
  8
EBENE_1
 62
    39
  6
CONTINUOUS
 10
0.216072
 20
-0.232203
  0
VERTEX
  8
EBENE_1
 62
    39
  6
CONTINUOUS
 10
0.201585
 20
-0.222419
  0
VERTEX
  8
EBENE_1
 62
    39
  6
CONTINUOUS
 10
0.187175
 20
-0.212142
  0
VERTEX
  8
EBENE_1
 62
    39
  6
CONTINUOUS
 10
0.172874
 20
-0.201375
  0
VERTEX
  8
EBENE_1
 62
    39
  6
CONTINUOUS
 10
0.158712
 20
-0.190119
  0
VERTEX
  8
EBENE_1
 62
    39
  6
CONTINUOUS
 10
0.144718
 20
-0.178377
  0
VERTEX
  8
EBENE_1
 62
    39
  6
CONTINUOUS
 10
0.130925
 20
-0.166150
  0
VERTEX
  8
EBENE_1
 62
    39
  6
CONTINUOUS
 10
0.117362
 20
-0.153441
  0
VERTEX
  8
EBENE_1
 62
    39
  6
CONTINUOUS
 10
0.104060
 20
-0.140252
  0
VERTEX
  8
EBENE_1
 62
    39
  6
CONTINUOUS
 10
0.091050
 20
-0.126584
  0
VERTEX
  8
EBENE_1
 62
    39
  6
CONTINUOUS
 10
0.078361
 20
-0.112440
  0
VERTEX
  8
EBENE_1
 62
    39
  6
CONTINUOUS
 10
0.066026
 20
-0.097821
  0
VERTEX
  8
EBENE_1
 62
    39
  6
CONTINUOUS
 10
0.054073
 20
-0.082731
  0
VERTEX
  8
EBENE_1
 62
    39
  6
CONTINUOUS
 10
0.042534
 20
-0.067170
  0
VERTEX
  8
EBENE_1
 62
    39
  6
CONTINUOUS
 10
0.031440
 20
-0.051141
  0
VERTEX
  8
EBENE_1
 62
    39
  6
CONTINUOUS
 10
0.020820
 20
-0.034647
  0
VERTEX
  8
EBENE_1
 62
    39
  6
CONTINUOUS
 10
0.010705
 20
-0.017688
  0
VERTEX
  8
EBENE_1
 62
    39
  6
CONTINUOUS
 10
0.001127
 20
-0.000267
  0
VERTEX
  8
EBENE_1
 62
    39
  6
CONTINUOUS
 10
-0.007885
 20
0.017614
  0
VERTEX
  8
EBENE_1
 62
    39
  6
CONTINUOUS
 10
-0.016300
 20
0.035953
  0
VERTEX
  8
EBENE_1
 62
    39
  6
CONTINUOUS
 10
-0.024087
 20
0.054748
  0
VERTEX
  8
EBENE_1
 62
    39
  6
CONTINUOUS
 10
-0.031217
 20
0.073996
  0
VERTEX
  8
EBENE_1
 62
    39
  6
CONTINUOUS
 10
-0.031217
 20
0.073996
  0
VERTEX
  8
EBENE_1
 62
    39
  6
CONTINUOUS
 10
-0.034568
 20
0.095808
  0
VERTEX
  8
EBENE_1
 62
    39
  6
CONTINUOUS
 10
-0.035954
 20
0.116591
  0
VERTEX
  8
EBENE_1
 62
    39
  6
CONTINUOUS
 10
-0.035472
 20
0.136273
  0
VERTEX
  8
EBENE_1
 62
    39
  6
CONTINUOUS
 10
-0.033220
 20
0.154785
  0
VERTEX
  8
EBENE_1
 62
    39
  6
CONTINUOUS
 10
-0.029296
 20
0.172057
  0
VERTEX
  8
EBENE_1
 62
    39
  6
CONTINUOUS
 10
-0.023797
 20
0.188018
  0
VERTEX
  8
EBENE_1
 62
    39
  6
CONTINUOUS
 10
-0.016822
 20
0.202599
  0
VERTEX
  8
EBENE_1
 62
    39
  6
CONTINUOUS
 10
-0.008468
 20
0.215729
  0
VERTEX
  8
EBENE_1
 62
    39
  6
CONTINUOUS
 10
0.001167
 20
0.227338
  0
VERTEX
  8
EBENE_1
 62
    39
  6
CONTINUOUS
 10
0.011985
 20
0.237356
  0
VERTEX
  8
EBENE_1
 62
    39
  6
CONTINUOUS
 10
0.023888
 20
0.245713
  0
VERTEX
  8
EBENE_1
 62
    39
  6
CONTINUOUS
 10
0.036779
 20
0.252338
  0
VERTEX
  8
EBENE_1
 62
    39
  6
CONTINUOUS
 10
0.050559
 20
0.257161
  0
VERTEX
  8
EBENE_1
 62
    39
  6
CONTINUOUS
 10
0.390531
 20
0.347728
  0
VERTEX
  8
EBENE_1
 62
    39
  6
CONTINUOUS
 10
0.412401
 20
0.351837
  0
VERTEX
  8
EBENE_1
 62
    39
  6
CONTINUOUS
 10
0.429879
 20
0.351644
  0
VERTEX
  8
EBENE_1
 62
    39
  6
CONTINUOUS
 10
0.443764
 20
0.347832
  0
VERTEX
  8
EBENE_1
 62
    39
  6
CONTINUOUS
 10
0.454855
 20
0.341089
  0
VERTEX
  8
EBENE_1
 62
    39
  6
CONTINUOUS
 10
0.463950
 20
0.332099
  0
VERTEX
  8
EBENE_1
 62
    39
  6
CONTINUOUS
 10
0.471850
 20
0.321548
  0
VERTEX
  8
EBENE_1
 62
    39
  6
CONTINUOUS
 10
0.479351
 20
0.310120
  0
VERTEX
  8
EBENE_1
 62
    39
  6
CONTINUOUS
 10
0.487255
 20
0.298503
  0
VERTEX
  8
EBENE_1
 62
    39
  6
CONTINUOUS
 10
0.496358
 20
0.287380
  0
SEQEND
  8
0
  0
POLYLINE
  8
EBENE_1
 62
    39
  6
CONTINUOUS
 66
     1
 40
0.003000
 41
0.003000
  0
VERTEX
  8
EBENE_1
 62
    39
  6
CONTINUOUS
 10
0.230346
 20
0.254457
  0
VERTEX
  8
EBENE_1
 62
    39
  6
CONTINUOUS
 10
0.236029
 20
0.255909
  0
VERTEX
  8
EBENE_1
 62
    39
  6
CONTINUOUS
 10
0.240211
 20
0.259764
  0
VERTEX
  8
EBENE_1
 62
    39
  6
CONTINUOUS
 10
0.241839
 20
0.265272
  0
SEQEND
  8
0
  0
POLYLINE
  8
EBENE_1
 62
    39
  6
CONTINUOUS
 66
     1
 40
0.003000
 41
0.003000
  0
VERTEX
  8
EBENE_1
 62
    39
  6
CONTINUOUS
 10
0.241839
 20
0.265272
  0
VERTEX
  8
EBENE_1
 62
    39
  6
CONTINUOUS
 10
0.240211
 20
0.271255
  0
VERTEX
  8
EBENE_1
 62
    39
  6
CONTINUOUS
 10
0.236029
 20
0.275287
  0
VERTEX
  8
EBENE_1
 62
    39
  6
CONTINUOUS
 10
0.230346
 20
0.276764
  0
SEQEND
  8
0
  0
POLYLINE
  8
EBENE_1
 62
    39
  6
CONTINUOUS
 66
     1
 40
0.003000
 41
0.003000
  0
VERTEX
  8
EBENE_1
 62
    39
  6
CONTINUOUS
 10
0.230346
 20
0.276764
  0
VERTEX
  8
EBENE_1
 62
    39
  6
CONTINUOUS
 10
0.224364
 20
0.275287
  0
VERTEX
  8
EBENE_1
 62
    39
  6
CONTINUOUS
 10
0.220334
 20
0.271255
  0
VERTEX
  8
EBENE_1
 62
    39
  6
CONTINUOUS
 10
0.218858
 20
0.265272
  0
SEQEND
  8
0
  0
POLYLINE
  8
EBENE_1
 62
    39
  6
CONTINUOUS
 66
     1
 40
0.003000
 41
0.003000
  0
VERTEX
  8
EBENE_1
 62
    39
  6
CONTINUOUS
 10
0.218858
 20
0.265272
  0
VERTEX
  8
EBENE_1
 62
    39
  6
CONTINUOUS
 10
0.220334
 20
0.259764
  0
VERTEX
  8
EBENE_1
 62
    39
  6
CONTINUOUS
 10
0.224364
 20
0.255909
  0
VERTEX
  8
EBENE_1
 62
    39
  6
CONTINUOUS
 10
0.230346
 20
0.254457
  0
SEQEND
  8
0
  0
POLYLINE
  8
EBENE_1
 62
    39
  6
CONTINUOUS
 66
     1
 40
0.003000
 41
0.003000
  0
VERTEX
  8
EBENE_1
 62
    39
  6
CONTINUOUS
 10
0.351331
 20
0.280142
  0
VERTEX
  8
EBENE_1
 62
    39
  6
CONTINUOUS
 10
0.357315
 20
0.281768
  0
VERTEX
  8
EBENE_1
 62
    39
  6
CONTINUOUS
 10
0.361346
 20
0.285948
  0
VERTEX
  8
EBENE_1
 62
    39
  6
CONTINUOUS
 10
0.362823
 20
0.291630
  0
SEQEND
  8
0
  0
POLYLINE
  8
EBENE_1
 62
    39
  6
CONTINUOUS
 66
     1
 40
0.003000
 41
0.003000
  0
VERTEX
  8
EBENE_1
 62
    39
  6
CONTINUOUS
 10
0.362823
 20
0.291630
  0
VERTEX
  8
EBENE_1
 62
    39
  6
CONTINUOUS
 10
0.361346
 20
0.297315
  0
VERTEX
  8
EBENE_1
 62
    39
  6
CONTINUOUS
 10
0.357315
 20
0.301495
  0
VERTEX
  8
EBENE_1
 62
    39
  6
CONTINUOUS
 10
0.351331
 20
0.303122
  0
SEQEND
  8
0
  0
POLYLINE
  8
EBENE_1
 62
    39
  6
CONTINUOUS
 66
     1
 40
0.003000
 41
0.003000
  0
VERTEX
  8
EBENE_1
 62
    39
  6
CONTINUOUS
 10
0.351331
 20
0.303122
  0
VERTEX
  8
EBENE_1
 62
    39
  6
CONTINUOUS
 10
0.345649
 20
0.301495
  0
VERTEX
  8
EBENE_1
 62
    39
  6
CONTINUOUS
 10
0.341469
 20
0.297315
  0
VERTEX
  8
EBENE_1
 62
    39
  6
CONTINUOUS
 10
0.339843
 20
0.291630
  0
SEQEND
  8
0
  0
POLYLINE
  8
EBENE_1
 62
    39
  6
CONTINUOUS
 66
     1
 40
0.003000
 41
0.003000
  0
VERTEX
  8
EBENE_1
 62
    39
  6
CONTINUOUS
 10
0.339843
 20
0.291630
  0
VERTEX
  8
EBENE_1
 62
    39
  6
CONTINUOUS
 10
0.341469
 20
0.285948
  0
VERTEX
  8
EBENE_1
 62
    39
  6
CONTINUOUS
 10
0.345649
 20
0.281768
  0
VERTEX
  8
EBENE_1
 62
    39
  6
CONTINUOUS
 10
0.351331
 20
0.280142
  0
SEQEND
  8
0
  0
POLYLINE
  8
EBENE_1
 62
    39
  6
CONTINUOUS
 66
     1
 40
0.003000
 41
0.003000
  0
VERTEX
  8
EBENE_1
 62
    39
  6
CONTINUOUS
 10
0.470287
 20
0.234858
  0
VERTEX
  8
EBENE_1
 62
    39
  6
CONTINUOUS
 10
0.475969
 20
0.236309
  0
VERTEX
  8
EBENE_1
 62
    39
  6
CONTINUOUS
 10
0.480149
 20
0.240163
  0
VERTEX
  8
EBENE_1
 62
    39
  6
CONTINUOUS
 10
0.481776
 20
0.245669
  0
SEQEND
  8
0
  0
POLYLINE
  8
EBENE_1
 62
    39
  6
CONTINUOUS
 66
     1
 40
0.003000
 41
0.003000
  0
VERTEX
  8
EBENE_1
 62
    39
  6
CONTINUOUS
 10
0.481776
 20
0.245669
  0
VERTEX
  8
EBENE_1
 62
    39
  6
CONTINUOUS
 10
0.480149
 20
0.251653
  0
VERTEX
  8
EBENE_1
 62
    39
  6
CONTINUOUS
 10
0.475969
 20
0.255684
  0
VERTEX
  8
EBENE_1
 62
    39
  6
CONTINUOUS
 10
0.470287
 20
0.257161
  0
SEQEND
  8
0
  0
POLYLINE
  8
EBENE_1
 62
    39
  6
CONTINUOUS
 66
     1
 40
0.003000
 41
0.003000
  0
VERTEX
  8
EBENE_1
 62
    39
  6
CONTINUOUS
 10
0.470287
 20
0.257161
  0
VERTEX
  8
EBENE_1
 62
    39
  6
CONTINUOUS
 10
0.464606
 20
0.255684
  0
VERTEX
  8
EBENE_1
 62
    39
  6
CONTINUOUS
 10
0.460426
 20
0.251653
  0
VERTEX
  8
EBENE_1
 62
    39
  6
CONTINUOUS
 10
0.458799
 20
0.245669
  0
SEQEND
  8
0
  0
POLYLINE
  8
EBENE_1
 62
    39
  6
CONTINUOUS
 66
     1
 40
0.003000
 41
0.003000
  0
VERTEX
  8
EBENE_1
 62
    39
  6
CONTINUOUS
 10
0.458799
 20
0.245669
  0
VERTEX
  8
EBENE_1
 62
    39
  6
CONTINUOUS
 10
0.460426
 20
0.240163
  0
VERTEX
  8
EBENE_1
 62
    39
  6
CONTINUOUS
 10
0.464606
 20
0.236309
  0
VERTEX
  8
EBENE_1
 62
    39
  6
CONTINUOUS
 10
0.470287
 20
0.234858
  0
SEQEND
  8
0
  0
POLYLINE
  8
EBENE_1
 62
    39
  6
CONTINUOUS
 66
     1
 40
0.003000
 41
0.003000
  0
VERTEX
  8
EBENE_1
 62
    39
  6
CONTINUOUS
 10
0.840000
 20
0.362598
  0
VERTEX
  8
EBENE_1
 62
    39
  6
CONTINUOUS
 10
1.156988
 20
-0.157154
  0
VERTEX
  8
EBENE_1
 62
    39
  6
CONTINUOUS
 10
0.825130
 20
-0.243669
  0
SEQEND
  8
0
  0
POLYLINE
  8
EBENE_1
 62
    39
  6
CONTINUOUS
 66
     1
 40
0.003000
 41
0.003000
  0
VERTEX
  8
EBENE_1
 62
    39
  6
CONTINUOUS
 10
0.825130
 20
-0.243669
  0
VERTEX
  8
EBENE_1
 62
    39
  6
CONTINUOUS
 10
0.816519
 20
-0.245281
  0
VERTEX
  8
EBENE_1
 62
    39
  6
CONTINUOUS
 10
0.807305
 20
-0.246344
  0
VERTEX
  8
EBENE_1
 62
    39
  6
CONTINUOUS
 10
0.797519
 20
-0.246860
  0
VERTEX
  8
EBENE_1
 62
    39
  6
CONTINUOUS
 10
0.787192
 20
-0.246833
  0
VERTEX
  8
EBENE_1
 62
    39
  6
CONTINUOUS
 10
0.776355
 20
-0.246263
  0
VERTEX
  8
EBENE_1
 62
    39
  6
CONTINUOUS
 10
0.765039
 20
-0.245154
  0
VERTEX
  8
EBENE_1
 62
    39
  6
CONTINUOUS
 10
0.753275
 20
-0.243508
  0
VERTEX
  8
EBENE_1
 62
    39
  6
CONTINUOUS
 10
0.741094
 20
-0.241325
  0
VERTEX
  8
EBENE_1
 62
    39
  6
CONTINUOUS
 10
0.728527
 20
-0.238610
  0
VERTEX
  8
EBENE_1
 62
    39
  6
CONTINUOUS
 10
0.715605
 20
-0.235363
  0
VERTEX
  8
EBENE_1
 62
    39
  6
CONTINUOUS
 10
0.702358
 20
-0.231587
  0
VERTEX
  8
EBENE_1
 62
    39
  6
CONTINUOUS
 10
0.688818
 20
-0.227284
  0
VERTEX
  8
EBENE_1
 62
    39
  6
CONTINUOUS
 10
0.675015
 20
-0.222456
  0
VERTEX
  8
EBENE_1
 62
    39
  6
CONTINUOUS
 10
0.660982
 20
-0.217106
  0
VERTEX
  8
EBENE_1
 62
    39
  6
CONTINUOUS
 10
0.646748
 20
-0.211235
  0
VERTEX
  8
EBENE_1
 62
    39
  6
CONTINUOUS
 10
0.632344
 20
-0.204846
  0
VERTEX
  8
EBENE_1
 62
    39
  6
CONTINUOUS
 10
0.617802
 20
-0.197940
  0
VERTEX
  8
EBENE_1
 62
    39
  6
CONTINUOUS
 10
0.603153
 20
-0.190521
  0
VERTEX
  8
EBENE_1
 62
    39
  6
CONTINUOUS
 10
0.588426
 20
-0.182589
  0
VERTEX
  8
EBENE_1
 62
    39
  6
CONTINUOUS
 10
0.573655
 20
-0.174148
  0
VERTEX
  8
EBENE_1
 62
    39
  6
CONTINUOUS
 10
0.558868
 20
-0.165199
  0
VERTEX
  8
EBENE_1
 62
    39
  6
CONTINUOUS
 10
0.544098
 20
-0.155745
  0
VERTEX
  8
EBENE_1
 62
    39
  6
CONTINUOUS
 10
0.529376
 20
-0.145787
  0
VERTEX
  8
EBENE_1
 62
    39
  6
CONTINUOUS
 10
0.514731
 20
-0.135328
  0
VERTEX
  8
EBENE_1
 62
    39
  6
CONTINUOUS
 10
0.500196
 20
-0.124370
  0
VERTEX
  8
EBENE_1
 62
    39
  6
CONTINUOUS
 10
0.485801
 20
-0.112915
  0
VERTEX
  8
EBENE_1
 62
    39
  6
CONTINUOUS
 10
0.471576
 20
-0.100965
  0
VERTEX
  8
EBENE_1
 62
    39
  6
CONTINUOUS
 10
0.457554
 20
-0.088522
  0
VERTEX
  8
EBENE_1
 62
    39
  6
CONTINUOUS
 10
0.443766
 20
-0.075589
  0
VERTEX
  8
EBENE_1
 62
    39
  6
CONTINUOUS
 10
0.430241
 20
-0.062168
  0
VERTEX
  8
EBENE_1
 62
    39
  6
CONTINUOUS
 10
0.417011
 20
-0.048261
  0
VERTEX
  8
EBENE_1
 62
    39
  6
CONTINUOUS
 10
0.404107
 20
-0.033869
  0
VERTEX
  8
EBENE_1
 62
    39
  6
CONTINUOUS
 10
0.391559
 20
-0.018995
  0
VERTEX
  8
EBENE_1
 62
    39
  6
CONTINUOUS
 10
0.379400
 20
-0.003642
  0
VERTEX
  8
EBENE_1
 62
    39
  6
CONTINUOUS
 10
0.367660
 20
0.012189
  0
VERTEX
  8
EBENE_1
 62
    39
  6
CONTINUOUS
 10
0.356369
 20
0.028496
  0
VERTEX
  8
EBENE_1
 62
    39
  6
CONTINUOUS
 10
0.345559
 20
0.045276
  0
VERTEX
  8
EBENE_1
 62
    39
  6
CONTINUOUS
 10
0.335260
 20
0.062527
  0
VERTEX
  8
EBENE_1
 62
    39
  6
CONTINUOUS
 10
0.325505
 20
0.080247
  0
VERTEX
  8
EBENE_1
 62
    39
  6
CONTINUOUS
 10
0.316323
 20
0.098434
  0
VERTEX
  8
EBENE_1
 62
    39
  6
CONTINUOUS
 10
0.307745
 20
0.117086
  0
VERTEX
  8
EBENE_1
 62
    39
  6
CONTINUOUS
 10
0.299803
 20
0.136201
  0
VERTEX
  8
EBENE_1
 62
    39
  6
CONTINUOUS
 10
0.292528
 20
0.155776
  0
SEQEND
  8
0
  0
POLYLINE
  8
EBENE_1
 62
    39
  6
CONTINUOUS
 66
     1
 40
0.003000
 41
0.003000
  0
VERTEX
  8
EBENE_1
 62
    39
  6
CONTINUOUS
 10
0.292528
 20
0.155776
  0
VERTEX
  8
EBENE_1
 62
    39
  6
CONTINUOUS
 10
0.289055
 20
0.177899
  0
VERTEX
  8
EBENE_1
 62
    39
  6
CONTINUOUS
 10
0.287613
 20
0.198988
  0
VERTEX
  8
EBENE_1
 62
    39
  6
CONTINUOUS
 10
0.288096
 20
0.218965
  0
VERTEX
  8
EBENE_1
 62
    39
  6
CONTINUOUS
 10
0.290399
 20
0.237755
  0
VERTEX
  8
EBENE_1
 62
    39
  6
CONTINUOUS
 10
0.294416
 20
0.255283
  0
VERTEX
  8
EBENE_1
 62
    39
  6
CONTINUOUS
 10
0.300043
 20
0.271472
  0
VERTEX
  8
EBENE_1
 62
    39
  6
CONTINUOUS
 10
0.307174
 20
0.286248
  0
VERTEX
  8
EBENE_1
 62
    39
  6
CONTINUOUS
 10
0.315705
 20
0.299534
  0
VERTEX
  8
EBENE_1
 62
    39
  6
CONTINUOUS
 10
0.325529
 20
0.311255
  0
VERTEX
  8
EBENE_1
 62
    39
  6
CONTINUOUS
 10
0.336542
 20
0.321335
  0
VERTEX
  8
EBENE_1
 62
    39
  6
CONTINUOUS
 10
0.348639
 20
0.329698
  0
VERTEX
  8
EBENE_1
 62
    39
  6
CONTINUOUS
 10
0.361713
 20
0.336269
  0
VERTEX
  8
EBENE_1
 62
    39
  6
CONTINUOUS
 10
0.375661
 20
0.340972
  0
SEQEND
  8
0
  0
POLYLINE
  8
EBENE_1
 62
    39
  6
CONTINUOUS
 66
     1
 40
0.003000
 41
0.003000
  0
VERTEX
  8
EBENE_1
 62
    39
  6
CONTINUOUS
 10
0.375661
 20
0.340972
  0
VERTEX
  8
EBENE_1
 62
    39
  6
CONTINUOUS
 10
0.721043
 20
0.433567
  0
SEQEND
  8
0
  0
POLYLINE
  8
EBENE_1
 62
    39
  6
CONTINUOUS
 66
     1
 40
0.003000
 41
0.003000
  0
VERTEX
  8
EBENE_1
 62
    39
  6
CONTINUOUS
 10
0.721043
 20
0.433567
  0
VERTEX
  8
EBENE_1
 62
    39
  6
CONTINUOUS
 10
0.743280
 20
0.437821
  0
VERTEX
  8
EBENE_1
 62
    39
  6
CONTINUOUS
 10
0.761055
 20
0.437671
  0
VERTEX
  8
EBENE_1
 62
    39
  6
CONTINUOUS
 10
0.775181
 20
0.433822
  0
VERTEX
  8
EBENE_1
 62
    39
  6
CONTINUOUS
 10
0.786469
 20
0.426981
  0
VERTEX
  8
EBENE_1
 62
    39
  6
CONTINUOUS
 10
0.795728
 20
0.417853
  0
VERTEX
  8
EBENE_1
 62
    39
  6
CONTINUOUS
 10
0.803772
 20
0.407143
  0
VERTEX
  8
EBENE_1
 62
    39
  6
CONTINUOUS
 10
0.811409
 20
0.395557
  0
VERTEX
  8
EBENE_1
 62
    39
  6
CONTINUOUS
 10
0.819453
 20
0.383801
  0
VERTEX
  8
EBENE_1
 62
    39
  6
CONTINUOUS
 10
0.828713
 20
0.372579
  0
VERTEX
  8
EBENE_1
 62
    39
  6
CONTINUOUS
 10
0.840000
 20
0.362598
  0
SEQEND
  8
0
  0
POLYLINE
  8
EBENE_1
 62
    39
  6
CONTINUOUS
 66
     1
 40
0.003000
 41
0.003000
 70
     1
  0
VERTEX
  8
EBENE_1
 62
    39
  6
CONTINUOUS
 10
0.840000
 20
0.359898
  0
VERTEX
  8
EBENE_1
 62
    39
  6
CONTINUOUS
 10
1.152260
 20
-0.151071
  0
VERTEX
  8
EBENE_1
 62
    39
  6
CONTINUOUS
 10
0.825803
 20
-0.236232
  0
VERTEX
  8
EBENE_1
 62
    39
  6
CONTINUOUS
 10
0.817338
 20
-0.237802
  0
VERTEX
  8
EBENE_1
 62
    39
  6
CONTINUOUS
 10
0.808278
 20
-0.238834
  0
VERTEX
  8
EBENE_1
 62
    39
  6
CONTINUOUS
 10
0.798654
 20
-0.239330
  0
VERTEX
  8
EBENE_1
 62
    39
  6
CONTINUOUS
 10
0.788497
 20
-0.239294
  0
VERTEX
  8
EBENE_1
 62
    39
  6
CONTINUOUS
 10
0.777836
 20
-0.238725
  0
VERTEX
  8
EBENE_1
 62
    39
  6
CONTINUOUS
 10
0.766703
 20
-0.237628
  0
VERTEX
  8
EBENE_1
 62
    39
  6
CONTINUOUS
 10
0.755128
 20
-0.236003
  0
VERTEX
  8
EBENE_1
 62
    39
  6
CONTINUOUS
 10
0.743141
 20
-0.233853
  0
VERTEX
  8
EBENE_1
 62
    39
  6
CONTINUOUS
 10
0.730773
 20
-0.231180
  0
VERTEX
  8
EBENE_1
 62
    39
  6
CONTINUOUS
 10
0.718055
 20
-0.227985
  0
VERTEX
  8
EBENE_1
 62
    39
  6
CONTINUOUS
 10
0.705016
 20
-0.224272
  0
VERTEX
  8
EBENE_1
 62
    39
  6
CONTINUOUS
 10
0.691688
 20
-0.220041
  0
VERTEX
  8
EBENE_1
 62
    39
  6
CONTINUOUS
 10
0.678101
 20
-0.215296
  0
VERTEX
  8
EBENE_1
 62
    39
  6
CONTINUOUS
 10
0.664286
 20
-0.210037
  0
VERTEX
  8
EBENE_1
 62
    39
  6
CONTINUOUS
 10
0.650272
 20
-0.204267
  0
VERTEX
  8
EBENE_1
 62
    39
  6
CONTINUOUS
 10
0.636091
 20
-0.197989
  0
VERTEX
  8
EBENE_1
 62
    39
  6
CONTINUOUS
 10
0.621772
 20
-0.191203
  0
VERTEX
  8
EBENE_1
 62
    39
  6
CONTINUOUS
 10
0.607348
 20
-0.183913
  0
VERTEX
  8
EBENE_1
 62
    39
  6
CONTINUOUS
 10
0.592847
 20
-0.176120
  0
VERTEX
  8
EBENE_1
 62
    39
  6
CONTINUOUS
 10
0.578300
 20
-0.167826
  0
VERTEX
  8
EBENE_1
 62
    39
  6
CONTINUOUS
 10
0.563739
 20
-0.159033
  0
VERTEX
  8
EBENE_1
 62
    39
  6
CONTINUOUS
 10
0.549193
 20
-0.149744
  0
VERTEX
  8
EBENE_1
 62
    39
  6
CONTINUOUS
 10
0.534693
 20
-0.139960
  0
VERTEX
  8
EBENE_1
 62
    39
  6
CONTINUOUS
 10
0.520269
 20
-0.129684
  0
VERTEX
  8
EBENE_1
 62
    39
  6
CONTINUOUS
 10
0.505953
 20
-0.118917
  0
VERTEX
  8
EBENE_1
 62
    39
  6
CONTINUOUS
 10
0.491774
 20
-0.107661
  0
VERTEX
  8
EBENE_1
 62
    39
  6
CONTINUOUS
 10
0.477762
 20
-0.095919
  0
VERTEX
  8
EBENE_1
 62
    39
  6
CONTINUOUS
 10
0.463950
 20
-0.083692
  0
VERTEX
  8
EBENE_1
 62
    39
  6
CONTINUOUS
 10
0.450366
 20
-0.070983
  0
VERTEX
  8
EBENE_1
 62
    39
  6
CONTINUOUS
 10
0.437042
 20
-0.057794
  0
VERTEX
  8
EBENE_1
 62
    39
  6
CONTINUOUS
 10
0.424007
 20
-0.044126
  0
VERTEX
  8
EBENE_1
 62
    39
  6
CONTINUOUS
 10
0.411293
 20
-0.029982
  0
VERTEX
  8
EBENE_1
 62
    39
  6
CONTINUOUS
 10
0.398930
 20
-0.015364
  0
VERTEX
  8
EBENE_1
 62
    39
  6
CONTINUOUS
 10
0.386949
 20
-0.000274
  0
VERTEX
  8
EBENE_1
 62
    39
  6
CONTINUOUS
 10
0.375380
 20
0.015287
  0
VERTEX
  8
EBENE_1
 62
    39
  6
CONTINUOUS
 10
0.364253
 20
0.031316
  0
VERTEX
  8
EBENE_1
 62
    39
  6
CONTINUOUS
 10
0.353599
 20
0.047810
  0
VERTEX
  8
EBENE_1
 62
    39
  6
CONTINUOUS
 10
0.343448
 20
0.064769
  0
VERTEX
  8
EBENE_1
 62
    39
  6
CONTINUOUS
 10
0.333831
 20
0.082190
  0
VERTEX
  8
EBENE_1
 62
    39
  6
CONTINUOUS
 10
0.324779
 20
0.100071
  0
VERTEX
  8
EBENE_1
 62
    39
  6
CONTINUOUS
 10
0.316322
 20
0.118410
  0
VERTEX
  8
EBENE_1
 62
    39
  6
CONTINUOUS
 10
0.308491
 20
0.137204
  0
VERTEX
  8
EBENE_1
 62
    39
  6
CONTINUOUS
 10
0.301315
 20
0.156453
  0
VERTEX
  8
EBENE_1
 62
    39
  6
CONTINUOUS
 10
0.301315
 20
0.156453
  0
VERTEX
  8
EBENE_1
 62
    39
  6
CONTINUOUS
 10
0.297974
 20
0.178266
  0
VERTEX
  8
EBENE_1
 62
    39
  6
CONTINUOUS
 10
0.296618
 20
0.199049
  0
VERTEX
  8
EBENE_1
 62
    39
  6
CONTINUOUS
 10
0.297142
 20
0.218731
  0
VERTEX
  8
EBENE_1
 62
    39
  6
CONTINUOUS
 10
0.299444
 20
0.237244
  0
VERTEX
  8
EBENE_1
 62
    39
  6
CONTINUOUS
 10
0.303421
 20
0.254515
  0
VERTEX
  8
EBENE_1
 62
    39
  6
CONTINUOUS
 10
0.308968
 20
0.270477
  0
VERTEX
  8
EBENE_1
 62
    39
  6
CONTINUOUS
 10
0.315983
 20
0.285057
  0
VERTEX
  8
EBENE_1
 62
    39
  6
CONTINUOUS
 10
0.324361
 20
0.298187
  0
VERTEX
  8
EBENE_1
 62
    39
  6
CONTINUOUS
 10
0.334001
 20
0.309796
  0
VERTEX
  8
EBENE_1
 62
    39
  6
CONTINUOUS
 10
0.344798
 20
0.319813
  0
VERTEX
  8
EBENE_1
 62
    39
  6
CONTINUOUS
 10
0.356648
 20
0.328170
  0
VERTEX
  8
EBENE_1
 62
    39
  6
CONTINUOUS
 10
0.369450
 20
0.334795
  0
VERTEX
  8
EBENE_1
 62
    39
  6
CONTINUOUS
 10
0.383098
 20
0.339618
  0
VERTEX
  8
EBENE_1
 62
    39
  6
CONTINUOUS
 10
0.723071
 20
0.430189
  0
VERTEX
  8
EBENE_1
 62
    39
  6
CONTINUOUS
 10
0.744940
 20
0.434462
  0
VERTEX
  8
EBENE_1
 62
    39
  6
CONTINUOUS
 10
0.762418
 20
0.434363
  0
VERTEX
  8
EBENE_1
 62
    39
  6
CONTINUOUS
 10
0.776303
 20
0.430590
  0
VERTEX
  8
EBENE_1
 62
    39
  6
CONTINUOUS
 10
0.787393
 20
0.423840
  0
VERTEX
  8
EBENE_1
 62
    39
  6
CONTINUOUS
 10
0.796488
 20
0.414812
  0
VERTEX
  8
EBENE_1
 62
    39
  6
CONTINUOUS
 10
0.804387
 20
0.404202
  0
VERTEX
  8
EBENE_1
 62
    39
  6
CONTINUOUS
 10
0.811889
 20
0.392708
  0
VERTEX
  8
EBENE_1
 62
    39
  6
CONTINUOUS
 10
0.819792
 20
0.381028
  0
VERTEX
  8
EBENE_1
 62
    39
  6
CONTINUOUS
 10
0.828896
 20
0.369858
  0
SEQEND
  8
0
  0
POLYLINE
  8
EBENE_1
 62
    39
  6
CONTINUOUS
 66
     1
 40
0.003000
 41
0.003000
  0
VERTEX
  8
EBENE_1
 62
    39
  6
CONTINUOUS
 10
0.562886
 20
0.336917
  0
VERTEX
  8
EBENE_1
 62
    39
  6
CONTINUOUS
 10
0.568568
 20
0.338368
  0
VERTEX
  8
EBENE_1
 62
    39
  6
CONTINUOUS
 10
0.572747
 20
0.342222
  0
VERTEX
  8
EBENE_1
 62
    39
  6
CONTINUOUS
 10
0.574374
 20
0.347728
  0
SEQEND
  8
0
  0
POLYLINE
  8
EBENE_1
 62
    39
  6
CONTINUOUS
 66
     1
 40
0.003000
 41
0.003000
  0
VERTEX
  8
EBENE_1
 62
    39
  6
CONTINUOUS
 10
0.574374
 20
0.347728
  0
VERTEX
  8
EBENE_1
 62
    39
  6
CONTINUOUS
 10
0.572747
 20
0.353712
  0
VERTEX
  8
EBENE_1
 62
    39
  6
CONTINUOUS
 10
0.568568
 20
0.357743
  0
VERTEX
  8
EBENE_1
 62
    39
  6
CONTINUOUS
 10
0.562886
 20
0.359220
  0
SEQEND
  8
0
  0
POLYLINE
  8
EBENE_1
 62
    39
  6
CONTINUOUS
 66
     1
 40
0.003000
 41
0.003000
  0
VERTEX
  8
EBENE_1
 62
    39
  6
CONTINUOUS
 10
0.562886
 20
0.359220
  0
VERTEX
  8
EBENE_1
 62
    39
  6
CONTINUOUS
 10
0.557201
 20
0.357743
  0
VERTEX
  8
EBENE_1
 62
    39
  6
CONTINUOUS
 10
0.553021
 20
0.353712
  0
VERTEX
  8
EBENE_1
 62
    39
  6
CONTINUOUS
 10
0.551394
 20
0.347728
  0
SEQEND
  8
0
  0
POLYLINE
  8
EBENE_1
 62
    39
  6
CONTINUOUS
 66
     1
 40
0.003000
 41
0.003000
  0
VERTEX
  8
EBENE_1
 62
    39
  6
CONTINUOUS
 10
0.551394
 20
0.347728
  0
VERTEX
  8
EBENE_1
 62
    39
  6
CONTINUOUS
 10
0.553021
 20
0.342222
  0
VERTEX
  8
EBENE_1
 62
    39
  6
CONTINUOUS
 10
0.557201
 20
0.338368
  0
VERTEX
  8
EBENE_1
 62
    39
  6
CONTINUOUS
 10
0.562886
 20
0.336917
  0
SEQEND
  8
0
  0
POLYLINE
  8
EBENE_1
 62
    39
  6
CONTINUOUS
 66
     1
 40
0.003000
 41
0.003000
  0
VERTEX
  8
EBENE_1
 62
    39
  6
CONTINUOUS
 10
0.683866
 20
0.362598
  0
VERTEX
  8
EBENE_1
 62
    39
  6
CONTINUOUS
 10
0.689850
 20
0.364226
  0
VERTEX
  8
EBENE_1
 62
    39
  6
CONTINUOUS
 10
0.693881
 20
0.368408
  0
VERTEX
  8
EBENE_1
 62
    39
  6
CONTINUOUS
 10
0.695358
 20
0.374091
  0
SEQEND
  8
0
  0
POLYLINE
  8
EBENE_1
 62
    39
  6
CONTINUOUS
 66
     1
 40
0.003000
 41
0.003000
  0
VERTEX
  8
EBENE_1
 62
    39
  6
CONTINUOUS
 10
0.695358
 20
0.374091
  0
VERTEX
  8
EBENE_1
 62
    39
  6
CONTINUOUS
 10
0.693881
 20
0.379772
  0
VERTEX
  8
EBENE_1
 62
    39
  6
CONTINUOUS
 10
0.689850
 20
0.383952
  0
VERTEX
  8
EBENE_1
 62
    39
  6
CONTINUOUS
 10
0.683866
 20
0.385579
  0
SEQEND
  8
0
  0
POLYLINE
  8
EBENE_1
 62
    39
  6
CONTINUOUS
 66
     1
 40
0.003000
 41
0.003000
  0
VERTEX
  8
EBENE_1
 62
    39
  6
CONTINUOUS
 10
0.683866
 20
0.385579
  0
VERTEX
  8
EBENE_1
 62
    39
  6
CONTINUOUS
 10
0.678362
 20
0.383952
  0
VERTEX
  8
EBENE_1
 62
    39
  6
CONTINUOUS
 10
0.674507
 20
0.379772
  0
VERTEX
  8
EBENE_1
 62
    39
  6
CONTINUOUS
 10
0.673055
 20
0.374091
  0
SEQEND
  8
0
  0
POLYLINE
  8
EBENE_1
 62
    39
  6
CONTINUOUS
 66
     1
 40
0.003000
 41
0.003000
  0
VERTEX
  8
EBENE_1
 62
    39
  6
CONTINUOUS
 10
0.673055
 20
0.374091
  0
VERTEX
  8
EBENE_1
 62
    39
  6
CONTINUOUS
 10
0.674507
 20
0.368408
  0
VERTEX
  8
EBENE_1
 62
    39
  6
CONTINUOUS
 10
0.678362
 20
0.364226
  0
VERTEX
  8
EBENE_1
 62
    39
  6
CONTINUOUS
 10
0.683866
 20
0.362598
  0
SEQEND
  8
0
  0
POLYLINE
  8
EBENE_1
 62
    39
  6
CONTINUOUS
 66
     1
 40
0.003000
 41
0.003000
  0
VERTEX
  8
EBENE_1
 62
    39
  6
CONTINUOUS
 10
0.802823
 20
0.317315
  0
VERTEX
  8
EBENE_1
 62
    39
  6
CONTINUOUS
 10
0.808507
 20
0.318792
  0
VERTEX
  8
EBENE_1
 62
    39
  6
CONTINUOUS
 10
0.812688
 20
0.322822
  0
VERTEX
  8
EBENE_1
 62
    39
  6
CONTINUOUS
 10
0.814315
 20
0.328803
  0
SEQEND
  8
0
  0
POLYLINE
  8
EBENE_1
 62
    39
  6
CONTINUOUS
 66
     1
 40
0.003000
 41
0.003000
  0
VERTEX
  8
EBENE_1
 62
    39
  6
CONTINUOUS
 10
0.814315
 20
0.328803
  0
VERTEX
  8
EBENE_1
 62
    39
  6
CONTINUOUS
 10
0.812688
 20
0.334312
  0
VERTEX
  8
EBENE_1
 62
    39
  6
CONTINUOUS
 10
0.808507
 20
0.338167
  0
VERTEX
  8
EBENE_1
 62
    39
  6
CONTINUOUS
 10
0.802823
 20
0.339618
  0
SEQEND
  8
0
  0
POLYLINE
  8
EBENE_1
 62
    39
  6
CONTINUOUS
 66
     1
 40
0.003000
 41
0.003000
  0
VERTEX
  8
EBENE_1
 62
    39
  6
CONTINUOUS
 10
0.802823
 20
0.339618
  0
VERTEX
  8
EBENE_1
 62
    39
  6
CONTINUOUS
 10
0.797141
 20
0.338167
  0
VERTEX
  8
EBENE_1
 62
    39
  6
CONTINUOUS
 10
0.792961
 20
0.334312
  0
VERTEX
  8
EBENE_1
 62
    39
  6
CONTINUOUS
 10
0.791335
 20
0.328803
  0
SEQEND
  8
0
  0
POLYLINE
  8
EBENE_1
 62
    39
  6
CONTINUOUS
 66
     1
 40
0.003000
 41
0.003000
  0
VERTEX
  8
EBENE_1
 62
    39
  6
CONTINUOUS
 10
0.791335
 20
0.328803
  0
VERTEX
  8
EBENE_1
 62
    39
  6
CONTINUOUS
 10
0.792961
 20
0.322822
  0
VERTEX
  8
EBENE_1
 62
    39
  6
CONTINUOUS
 10
0.797141
 20
0.318792
  0
VERTEX
  8
EBENE_1
 62
    39
  6
CONTINUOUS
 10
0.802823
 20
0.317315
  0
SEQEND
  8
0
  0
POLYLINE
  8
EBENE_1
 62
    39
  6
CONTINUOUS
 66
     1
 40
0.003000
 41
0.003000
  0
VERTEX
  8
EBENE_1
 62
    39
  6
CONTINUOUS
 10
1.172535
 20
0.445059
  0
VERTEX
  8
EBENE_1
 62
    39
  6
CONTINUOUS
 10
1.490201
 20
-0.074697
  0
VERTEX
  8
EBENE_1
 62
    39
  6
CONTINUOUS
 10
1.157665
 20
-0.161209
  0
SEQEND
  8
0
  0
POLYLINE
  8
EBENE_1
 62
    39
  6
CONTINUOUS
 66
     1
 40
0.003000
 41
0.003000
  0
VERTEX
  8
EBENE_1
 62
    39
  6
CONTINUOUS
 10
1.157665
 20
-0.161209
  0
VERTEX
  8
EBENE_1
 62
    39
  6
CONTINUOUS
 10
1.149054
 20
-0.162820
  0
VERTEX
  8
EBENE_1
 62
    39
  6
CONTINUOUS
 10
1.139840
 20
-0.163883
  0
VERTEX
  8
EBENE_1
 62
    39
  6
CONTINUOUS
 10
1.130054
 20
-0.164400
  0
VERTEX
  8
EBENE_1
 62
    39
  6
CONTINUOUS
 10
1.119728
 20
-0.164372
  0
VERTEX
  8
EBENE_1
 62
    39
  6
CONTINUOUS
 10
1.108891
 20
-0.163803
  0
VERTEX
  8
EBENE_1
 62
    39
  6
CONTINUOUS
 10
1.097575
 20
-0.162694
  0
VERTEX
  8
EBENE_1
 62
    39
  6
CONTINUOUS
 10
1.085811
 20
-0.161047
  0
VERTEX
  8
EBENE_1
 62
    39
  6
CONTINUOUS
 10
1.073630
 20
-0.158865
  0
VERTEX
  8
EBENE_1
 62
    39
  6
CONTINUOUS
 10
1.061062
 20
-0.156149
  0
VERTEX
  8
EBENE_1
 62
    39
  6
CONTINUOUS
 10
1.048140
 20
-0.152903
  0
VERTEX
  8
EBENE_1
 62
    39
  6
CONTINUOUS
 10
1.034893
 20
-0.149127
  0
VERTEX
  8
EBENE_1
 62
    39
  6
CONTINUOUS
 10
1.021353
 20
-0.144824
  0
VERTEX
  8
EBENE_1
 62
    39
  6
CONTINUOUS
 10
1.007551
 20
-0.139996
  0
VERTEX
  8
EBENE_1
 62
    39
  6
CONTINUOUS
 10
0.993517
 20
-0.134646
  0
VERTEX
  8
EBENE_1
 62
    39
  6
CONTINUOUS
 10
0.979283
 20
-0.128775
  0
VERTEX
  8
EBENE_1
 62
    39
  6
CONTINUOUS
 10
0.964880
 20
-0.122386
  0
VERTEX
  8
EBENE_1
 62
    39
  6
CONTINUOUS
 10
0.950338
 20
-0.115481
  0
VERTEX
  8
EBENE_1
 62
    39
  6
CONTINUOUS
 10
0.935688
 20
-0.108061
  0
VERTEX
  8
EBENE_1
 62
    39
  6
CONTINUOUS
 10
0.920962
 20
-0.100130
  0
VERTEX
  8
EBENE_1
 62
    39
  6
CONTINUOUS
 10
0.906191
 20
-0.091689
  0
VERTEX
  8
EBENE_1
 62
    39
  6
CONTINUOUS
 10
0.891404
 20
-0.082740
  0
VERTEX
  8
EBENE_1
 62
    39
  6
CONTINUOUS
 10
0.876634
 20
-0.073286
  0
VERTEX
  8
EBENE_1
 62
    39
  6
CONTINUOUS
 10
0.861912
 20
-0.063328
  0
VERTEX
  8
EBENE_1
 62
    39
  6
CONTINUOUS
 10
0.847267
 20
-0.052869
  0
VERTEX
  8
EBENE_1
 62
    39
  6
CONTINUOUS
 10
0.832732
 20
-0.041911
  0
VERTEX
  8
EBENE_1
 62
    39
  6
CONTINUOUS
 10
0.818337
 20
-0.030456
  0
VERTEX
  8
EBENE_1
 62
    39
  6
CONTINUOUS
 10
0.804113
 20
-0.018506
  0
VERTEX
  8
EBENE_1
 62
    39
  6
CONTINUOUS
 10
0.790091
 20
-0.006064
  0
VERTEX
  8
EBENE_1
 62
    39
  6
CONTINUOUS
 10
0.776302
 20
0.006869
  0
VERTEX
  8
EBENE_1
 62
    39
  6
CONTINUOUS
 10
0.762777
 20
0.020291
  0
VERTEX
  8
EBENE_1
 62
    39
  6
CONTINUOUS
 10
0.749548
 20
0.034198
  0
VERTEX
  8
EBENE_1
 62
    39
  6
CONTINUOUS
 10
0.736644
 20
0.048590
  0
VERTEX
  8
EBENE_1
 62
    39
  6
CONTINUOUS
 10
0.724097
 20
0.063464
  0
VERTEX
  8
EBENE_1
 62
    39
  6
CONTINUOUS
 10
0.711938
 20
0.078817
  0
VERTEX
  8
EBENE_1
 62
    39
  6
CONTINUOUS
 10
0.700197
 20
0.094648
  0
VERTEX
  8
EBENE_1
 62
    39
  6
CONTINUOUS
 10
0.688907
 20
0.110955
  0
VERTEX
  8
EBENE_1
 62
    39
  6
CONTINUOUS
 10
0.678097
 20
0.127735
  0
VERTEX
  8
EBENE_1
 62
    39
  6
CONTINUOUS
 10
0.667799
 20
0.144986
  0
VERTEX
  8
EBENE_1
 62
    39
  6
CONTINUOUS
 10
0.658043
 20
0.162707
  0
VERTEX
  8
EBENE_1
 62
    39
  6
CONTINUOUS
 10
0.648861
 20
0.180894
  0
VERTEX
  8
EBENE_1
 62
    39
  6
CONTINUOUS
 10
0.640284
 20
0.199546
  0
VERTEX
  8
EBENE_1
 62
    39
  6
CONTINUOUS
 10
0.632342
 20
0.218661
  0
VERTEX
  8
EBENE_1
 62
    39
  6
CONTINUOUS
 10
0.625067
 20
0.238236
  0
SEQEND
  8
0
  0
POLYLINE
  8
EBENE_1
 62
    39
  6
CONTINUOUS
 66
     1
 40
0.003000
 41
0.003000
  0
VERTEX
  8
EBENE_1
 62
    39
  6
CONTINUOUS
 10
0.625067
 20
0.238236
  0
VERTEX
  8
EBENE_1
 62
    39
  6
CONTINUOUS
 10
0.621594
 20
0.260360
  0
VERTEX
  8
EBENE_1
 62
    39
  6
CONTINUOUS
 10
0.620151
 20
0.281448
  0
VERTEX
  8
EBENE_1
 62
    39
  6
CONTINUOUS
 10
0.620633
 20
0.301425
  0
VERTEX
  8
EBENE_1
 62
    39
  6
CONTINUOUS
 10
0.622936
 20
0.320215
  0
VERTEX
  8
EBENE_1
 62
    39
  6
CONTINUOUS
 10
0.626954
 20
0.337743
  0
VERTEX
  8
EBENE_1
 62
    39
  6
CONTINUOUS
 10
0.632581
 20
0.353932
  0
VERTEX
  8
EBENE_1
 62
    39
  6
CONTINUOUS
 10
0.639712
 20
0.368708
  0
VERTEX
  8
EBENE_1
 62
    39
  6
CONTINUOUS
 10
0.648243
 20
0.381993
  0
VERTEX
  8
EBENE_1
 62
    39
  6
CONTINUOUS
 10
0.658068
 20
0.393714
  0
VERTEX
  8
EBENE_1
 62
    39
  6
CONTINUOUS
 10
0.669081
 20
0.403793
  0
VERTEX
  8
EBENE_1
 62
    39
  6
CONTINUOUS
 10
0.681178
 20
0.412156
  0
VERTEX
  8
EBENE_1
 62
    39
  6
CONTINUOUS
 10
0.694253
 20
0.418727
  0
VERTEX
  8
EBENE_1
 62
    39
  6
CONTINUOUS
 10
0.708201
 20
0.423429
  0
SEQEND
  8
0
  0
POLYLINE
  8
EBENE_1
 62
    39
  6
CONTINUOUS
 66
     1
 40
0.003000
 41
0.003000
  0
VERTEX
  8
EBENE_1
 62
    39
  6
CONTINUOUS
 10
0.708201
 20
0.423429
  0
VERTEX
  8
EBENE_1
 62
    39
  6
CONTINUOUS
 10
1.053579
 20
0.516028
  0
SEQEND
  8
0
  0
POLYLINE
  8
EBENE_1
 62
    39
  6
CONTINUOUS
 66
     1
 40
0.003000
 41
0.003000
  0
VERTEX
  8
EBENE_1
 62
    39
  6
CONTINUOUS
 10
1.053579
 20
0.516028
  0
VERTEX
  8
EBENE_1
 62
    39
  6
CONTINUOUS
 10
1.075833
 20
0.520281
  0
VERTEX
  8
EBENE_1
 62
    39
  6
CONTINUOUS
 10
1.093656
 20
0.520131
  0
VERTEX
  8
EBENE_1
 62
    39
  6
CONTINUOUS
 10
1.107845
 20
0.516282
  0
VERTEX
  8
EBENE_1
 62
    39
  6
CONTINUOUS
 10
1.119199
 20
0.509441
  0
VERTEX
  8
EBENE_1
 62
    39
  6
CONTINUOUS
 10
1.128518
 20
0.500312
  0
VERTEX
  8
EBENE_1
 62
    39
  6
CONTINUOUS
 10
1.136600
 20
0.489602
  0
VERTEX
  8
EBENE_1
 62
    39
  6
CONTINUOUS
 10
1.144243
 20
0.478016
  0
VERTEX
  8
EBENE_1
 62
    39
  6
CONTINUOUS
 10
1.152248
 20
0.466260
  0
VERTEX
  8
EBENE_1
 62
    39
  6
CONTINUOUS
 10
1.161412
 20
0.455039
  0
VERTEX
  8
EBENE_1
 62
    39
  6
CONTINUOUS
 10
1.172535
 20
0.445059
  0
SEQEND
  8
0
  0
POLYLINE
  8
EBENE_1
 62
    39
  6
CONTINUOUS
 66
     1
 40
0.003000
 41
0.003000
 70
     1
  0
VERTEX
  8
EBENE_1
 62
    39
  6
CONTINUOUS
 10
1.172535
 20
0.443031
  0
VERTEX
  8
EBENE_1
 62
    39
  6
CONTINUOUS
 10
1.484795
 20
-0.068614
  0
VERTEX
  8
EBENE_1
 62
    39
  6
CONTINUOUS
 10
1.158343
 20
-0.153776
  0
VERTEX
  8
EBENE_1
 62
    39
  6
CONTINUOUS
 10
1.149877
 20
-0.155345
  0
VERTEX
  8
EBENE_1
 62
    39
  6
CONTINUOUS
 10
1.140817
 20
-0.156377
  0
VERTEX
  8
EBENE_1
 62
    39
  6
CONTINUOUS
 10
1.131194
 20
-0.156873
  0
VERTEX
  8
EBENE_1
 62
    39
  6
CONTINUOUS
 10
1.121036
 20
-0.156836
  0
VERTEX
  8
EBENE_1
 62
    39
  6
CONTINUOUS
 10
1.110376
 20
-0.156268
  0
VERTEX
  8
EBENE_1
 62
    39
  6
CONTINUOUS
 10
1.099244
 20
-0.155169
  0
VERTEX
  8
EBENE_1
 62
    39
  6
CONTINUOUS
 10
1.087670
 20
-0.153543
  0
VERTEX
  8
EBENE_1
 62
    39
  6
CONTINUOUS
 10
1.075685
 20
-0.151392
  0
VERTEX
  8
EBENE_1
 62
    39
  6
CONTINUOUS
 10
1.063319
 20
-0.148717
  0
VERTEX
  8
EBENE_1
 62
    39
  6
CONTINUOUS
 10
1.050603
 20
-0.145520
  0
VERTEX
  8
EBENE_1
 62
    39
  6
CONTINUOUS
 10
1.037567
 20
-0.141803
  0
VERTEX
  8
EBENE_1
 62
    39
  6
CONTINUOUS
 10
1.024242
 20
-0.137569
  0
VERTEX
  8
EBENE_1
 62
    39
  6
CONTINUOUS
 10
1.010659
 20
-0.132820
  0
VERTEX
  8
EBENE_1
 62
    39
  6
CONTINUOUS
 10
0.996848
 20
-0.127556
  0
VERTEX
  8
EBENE_1
 62
    39
  6
CONTINUOUS
 10
0.982840
 20
-0.121781
  0
VERTEX
  8
EBENE_1
 62
    39
  6
CONTINUOUS
 10
0.968665
 20
-0.115496
  0
VERTEX
  8
EBENE_1
 62
    39
  6
CONTINUOUS
 10
0.954353
 20
-0.108704
  0
VERTEX
  8
EBENE_1
 62
    39
  6
CONTINUOUS
 10
0.939936
 20
-0.101405
  0
VERTEX
  8
EBENE_1
 62
    39
  6
CONTINUOUS
 10
0.925444
 20
-0.093604
  0
VERTEX
  8
EBENE_1
 62
    39
  6
CONTINUOUS
 10
0.910908
 20
-0.085300
  0
VERTEX
  8
EBENE_1
 62
    39
  6
CONTINUOUS
 10
0.896357
 20
-0.076496
  0
VERTEX
  8
EBENE_1
 62
    39
  6
CONTINUOUS
 10
0.881822
 20
-0.067195
  0
VERTEX
  8
EBENE_1
 62
    39
  6
CONTINUOUS
 10
0.867335
 20
-0.057398
  0
VERTEX
  8
EBENE_1
 62
    39
  6
CONTINUOUS
 10
0.852926
 20
-0.047108
  0
VERTEX
  8
EBENE_1
 62
    39
  6
CONTINUOUS
 10
0.838624
 20
-0.036325
  0
VERTEX
  8
EBENE_1
 62
    39
  6
CONTINUOUS
 10
0.824462
 20
-0.025053
  0
VERTEX
  8
EBENE_1
 62
    39
  6
CONTINUOUS
 10
0.810468
 20
-0.013293
  0
VERTEX
  8
EBENE_1
 62
    39
  6
CONTINUOUS
 10
0.796675
 20
-0.001047
  0
VERTEX
  8
EBENE_1
 62
    39
  6
CONTINUOUS
 10
0.783112
 20
0.011683
  0
VERTEX
  8
EBENE_1
 62
    39
  6
CONTINUOUS
 10
0.769810
 20
0.024894
  0
VERTEX
  8
EBENE_1
 62
    39
  6
CONTINUOUS
 10
0.756799
 20
0.038586
  0
VERTEX
  8
EBENE_1
 62
    39
  6
CONTINUOUS
 10
0.744110
 20
0.052755
  0
VERTEX
  8
EBENE_1
 62
    39
  6
CONTINUOUS
 10
0.731774
 20
0.067400
  0
VERTEX
  8
EBENE_1
 62
    39
  6
CONTINUOUS
 10
0.719821
 20
0.082519
  0
VERTEX
  8
EBENE_1
 62
    39
  6
CONTINUOUS
 10
0.708282
 20
0.098110
  0
VERTEX
  8
EBENE_1
 62
    39
  6
CONTINUOUS
 10
0.697187
 20
0.114171
  0
VERTEX
  8
EBENE_1
 62
    39
  6
CONTINUOUS
 10
0.686567
 20
0.130700
  0
VERTEX
  8
EBENE_1
 62
    39
  6
CONTINUOUS
 10
0.676452
 20
0.147694
  0
VERTEX
  8
EBENE_1
 62
    39
  6
CONTINUOUS
 10
0.666873
 20
0.165153
  0
VERTEX
  8
EBENE_1
 62
    39
  6
CONTINUOUS
 10
0.657861
 20
0.183073
  0
VERTEX
  8
EBENE_1
 62
    39
  6
CONTINUOUS
 10
0.649445
 20
0.201454
  0
VERTEX
  8
EBENE_1
 62
    39
  6
CONTINUOUS
 10
0.641657
 20
0.220292
  0
VERTEX
  8
EBENE_1
 62
    39
  6
CONTINUOUS
 10
0.634528
 20
0.239587
  0
VERTEX
  8
EBENE_1
 62
    39
  6
CONTINUOUS
 10
0.634528
 20
0.239587
  0
VERTEX
  8
EBENE_1
 62
    39
  6
CONTINUOUS
 10
0.631043
 20
0.261255
  0
VERTEX
  8
EBENE_1
 62
    39
  6
CONTINUOUS
 10
0.629565
 20
0.281916
  0
VERTEX
  8
EBENE_1
 62
    39
  6
CONTINUOUS
 10
0.629988
 20
0.301497
  0
VERTEX
  8
EBENE_1
 62
    39
  6
CONTINUOUS
 10
0.632206
 20
0.319926
  0
VERTEX
  8
EBENE_1
 62
    39
  6
CONTINUOUS
 10
0.636116
 20
0.337131
  0
VERTEX
  8
EBENE_1
 62
    39
  6
CONTINUOUS
 10
0.641611
 20
0.353041
  0
VERTEX
  8
EBENE_1
 62
    39
  6
CONTINUOUS
 10
0.648586
 20
0.367583
  0
VERTEX
  8
EBENE_1
 62
    39
  6
CONTINUOUS
 10
0.656936
 20
0.380685
  0
VERTEX
  8
EBENE_1
 62
    39
  6
CONTINUOUS
 10
0.666557
 20
0.392275
  0
VERTEX
  8
EBENE_1
 62
    39
  6
CONTINUOUS
 10
0.677342
 20
0.402282
  0
VERTEX
  8
EBENE_1
 62
    39
  6
CONTINUOUS
 10
0.689186
 20
0.410632
  0
VERTEX
  8
EBENE_1
 62
    39
  6
CONTINUOUS
 10
0.701986
 20
0.417255
  0
VERTEX
  8
EBENE_1
 62
    39
  6
CONTINUOUS
 10
0.715634
 20
0.422079
  0
VERTEX
  8
EBENE_1
 62
    39
  6
CONTINUOUS
 10
1.055606
 20
0.512646
  0
VERTEX
  8
EBENE_1
 62
    39
  6
CONTINUOUS
 10
1.077494
 20
0.516920
  0
VERTEX
  8
EBENE_1
 62
    39
  6
CONTINUOUS
 10
1.095018
 20
0.516826
  0
VERTEX
  8
EBENE_1
 62
    39
  6
CONTINUOUS
 10
1.108966
 20
0.513067
  0
VERTEX
  8
EBENE_1
 62
    39
  6
CONTINUOUS
 10
1.120123
 20
0.506342
  0
VERTEX
  8
EBENE_1
 62
    39
  6
CONTINUOUS
 10
1.129278
 20
0.497355
  0
VERTEX
  8
EBENE_1
 62
    39
  6
CONTINUOUS
 10
1.137215
 20
0.486806
  0
VERTEX
  8
EBENE_1
 62
    39
  6
CONTINUOUS
 10
1.144723
 20
0.475398
  0
VERTEX
  8
EBENE_1
 62
    39
  6
CONTINUOUS
 10
1.152588
 20
0.463832
  0
VERTEX
  8
EBENE_1
 62
    39
  6
CONTINUOUS
 10
1.161596
 20
0.452809
  0
SEQEND
  8
0
  0
POLYLINE
  8
EBENE_1
 62
    39
  6
CONTINUOUS
 66
     1
 40
0.003000
 41
0.003000
  0
VERTEX
  8
EBENE_1
 62
    39
  6
CONTINUOUS
 10
0.895421
 20
0.419374
  0
VERTEX
  8
EBENE_1
 62
    39
  6
CONTINUOUS
 10
0.901103
 20
0.420851
  0
VERTEX
  8
EBENE_1
 62
    39
  6
CONTINUOUS
 10
0.905283
 20
0.424882
  0
VERTEX
  8
EBENE_1
 62
    39
  6
CONTINUOUS
 10
0.906909
 20
0.430866
  0
SEQEND
  8
0
  0
POLYLINE
  8
EBENE_1
 62
    39
  6
CONTINUOUS
 66
     1
 40
0.003000
 41
0.003000
  0
VERTEX
  8
EBENE_1
 62
    39
  6
CONTINUOUS
 10
0.906909
 20
0.430866
  0
VERTEX
  8
EBENE_1
 62
    39
  6
CONTINUOUS
 10
0.905283
 20
0.436372
  0
VERTEX
  8
EBENE_1
 62
    39
  6
CONTINUOUS
 10
0.901103
 20
0.440226
  0
VERTEX
  8
EBENE_1
 62
    39
  6
CONTINUOUS
 10
0.895421
 20
0.441677
  0
SEQEND
  8
0
  0
POLYLINE
  8
EBENE_1
 62
    39
  6
CONTINUOUS
 66
     1
 40
0.003000
 41
0.003000
  0
VERTEX
  8
EBENE_1
 62
    39
  6
CONTINUOUS
 10
0.895421
 20
0.441677
  0
VERTEX
  8
EBENE_1
 62
    39
  6
CONTINUOUS
 10
0.889739
 20
0.440226
  0
VERTEX
  8
EBENE_1
 62
    39
  6
CONTINUOUS
 10
0.885560
 20
0.436372
  0
VERTEX
  8
EBENE_1
 62
    39
  6
CONTINUOUS
 10
0.883933
 20
0.430866
  0
SEQEND
  8
0
  0
POLYLINE
  8
EBENE_1
 62
    39
  6
CONTINUOUS
 66
     1
 40
0.003000
 41
0.003000
  0
VERTEX
  8
EBENE_1
 62
    39
  6
CONTINUOUS
 10
0.883933
 20
0.430866
  0
VERTEX
  8
EBENE_1
 62
    39
  6
CONTINUOUS
 10
0.885560
 20
0.424882
  0
VERTEX
  8
EBENE_1
 62
    39
  6
CONTINUOUS
 10
0.889739
 20
0.420851
  0
VERTEX
  8
EBENE_1
 62
    39
  6
CONTINUOUS
 10
0.895421
 20
0.419374
  0
SEQEND
  8
0
  0
POLYLINE
  8
EBENE_1
 62
    39
  6
CONTINUOUS
 66
     1
 40
0.003000
 41
0.003000
  0
VERTEX
  8
EBENE_1
 62
    39
  6
CONTINUOUS
 10
1.017083
 20
0.445059
  0
VERTEX
  8
EBENE_1
 62
    39
  6
CONTINUOUS
 10
1.022765
 20
0.446686
  0
VERTEX
  8
EBENE_1
 62
    39
  6
CONTINUOUS
 10
1.026944
 20
0.450865
  0
VERTEX
  8
EBENE_1
 62
    39
  6
CONTINUOUS
 10
1.028571
 20
0.456547
  0
SEQEND
  8
0
  0
POLYLINE
  8
EBENE_1
 62
    39
  6
CONTINUOUS
 66
     1
 40
0.003000
 41
0.003000
  0
VERTEX
  8
EBENE_1
 62
    39
  6
CONTINUOUS
 10
1.028571
 20
0.456547
  0
VERTEX
  8
EBENE_1
 62
    39
  6
CONTINUOUS
 10
1.026944
 20
0.462230
  0
VERTEX
  8
EBENE_1
 62
    39
  6
CONTINUOUS
 10
1.022765
 20
0.466412
  0
VERTEX
  8
EBENE_1
 62
    39
  6
CONTINUOUS
 10
1.017083
 20
0.468039
  0
SEQEND
  8
0
  0
POLYLINE
  8
EBENE_1
 62
    39
  6
CONTINUOUS
 66
     1
 40
0.003000
 41
0.003000
  0
VERTEX
  8
EBENE_1
 62
    39
  6
CONTINUOUS
 10
1.017083
 20
0.468039
  0
VERTEX
  8
EBENE_1
 62
    39
  6
CONTINUOUS
 10
1.011099
 20
0.466412
  0
VERTEX
  8
EBENE_1
 62
    39
  6
CONTINUOUS
 10
1.007068
 20
0.462230
  0
VERTEX
  8
EBENE_1
 62
    39
  6
CONTINUOUS
 10
1.005591
 20
0.456547
  0
SEQEND
  8
0
  0
POLYLINE
  8
EBENE_1
 62
    39
  6
CONTINUOUS
 66
     1
 40
0.003000
 41
0.003000
  0
VERTEX
  8
EBENE_1
 62
    39
  6
CONTINUOUS
 10
1.005591
 20
0.456547
  0
VERTEX
  8
EBENE_1
 62
    39
  6
CONTINUOUS
 10
1.007068
 20
0.450865
  0
VERTEX
  8
EBENE_1
 62
    39
  6
CONTINUOUS
 10
1.011099
 20
0.446686
  0
VERTEX
  8
EBENE_1
 62
    39
  6
CONTINUOUS
 10
1.017083
 20
0.445059
  0
SEQEND
  8
0
  0
POLYLINE
  8
EBENE_1
 62
    39
  6
CONTINUOUS
 66
     1
 40
0.003000
 41
0.003000
  0
VERTEX
  8
EBENE_1
 62
    39
  6
CONTINUOUS
 10
1.135362
 20
0.399772
  0
VERTEX
  8
EBENE_1
 62
    39
  6
CONTINUOUS
 10
1.141345
 20
0.401249
  0
VERTEX
  8
EBENE_1
 62
    39
  6
CONTINUOUS
 10
1.145374
 20
0.405280
  0
VERTEX
  8
EBENE_1
 62
    39
  6
CONTINUOUS
 10
1.146850
 20
0.411264
  0
SEQEND
  8
0
  0
POLYLINE
  8
EBENE_1
 62
    39
  6
CONTINUOUS
 66
     1
 40
0.003000
 41
0.003000
  0
VERTEX
  8
EBENE_1
 62
    39
  6
CONTINUOUS
 10
1.146850
 20
0.411264
  0
VERTEX
  8
EBENE_1
 62
    39
  6
CONTINUOUS
 10
1.145374
 20
0.416771
  0
VERTEX
  8
EBENE_1
 62
    39
  6
CONTINUOUS
 10
1.141345
 20
0.420627
  0
VERTEX
  8
EBENE_1
 62
    39
  6
CONTINUOUS
 10
1.135362
 20
0.422079
  0
SEQEND
  8
0
  0
POLYLINE
  8
EBENE_1
 62
    39
  6
CONTINUOUS
 66
     1
 40
0.003000
 41
0.003000
  0
VERTEX
  8
EBENE_1
 62
    39
  6
CONTINUOUS
 10
1.135362
 20
0.422079
  0
VERTEX
  8
EBENE_1
 62
    39
  6
CONTINUOUS
 10
1.129679
 20
0.420627
  0
VERTEX
  8
EBENE_1
 62
    39
  6
CONTINUOUS
 10
1.125498
 20
0.416771
  0
VERTEX
  8
EBENE_1
 62
    39
  6
CONTINUOUS
 10
1.123870
 20
0.411264
  0
SEQEND
  8
0
  0
POLYLINE
  8
EBENE_1
 62
    39
  6
CONTINUOUS
 66
     1
 40
0.003000
 41
0.003000
  0
VERTEX
  8
EBENE_1
 62
    39
  6
CONTINUOUS
 10
1.123870
 20
0.411264
  0
VERTEX
  8
EBENE_1
 62
    39
  6
CONTINUOUS
 10
1.125498
 20
0.405280
  0
VERTEX
  8
EBENE_1
 62
    39
  6
CONTINUOUS
 10
1.129679
 20
0.401249
  0
VERTEX
  8
EBENE_1
 62
    39
  6
CONTINUOUS
 10
1.135362
 20
0.399772
  0
SEQEND
  8
0
  0
POLYLINE
  8
EBENE_1
 62
    39
  6
CONTINUOUS
 66
     1
 40
0.003000
 41
0.003000
  0
VERTEX
  8
EBENE_1
 62
    39
  6
CONTINUOUS
 10
-0.883512
 20
-0.591752
  0
VERTEX
  8
EBENE_1
 62
    39
  6
CONTINUOUS
 10
-0.883512
 20
1.529181
  0
SEQEND
  8
0
  0
POLYLINE
  8
EBENE_1
 62
    39
  6
CONTINUOUS
 66
     1
 40
0.003000
 41
0.003000
 70
     1
  0
VERTEX
  8
EBENE_1
 62
    39
  6
CONTINUOUS
 10
-0.376598
 20
-0.017921
  0
VERTEX
  8
EBENE_1
 62
    39
  6
CONTINUOUS
 10
-0.765232
 20
-0.114575
  0
VERTEX
  8
EBENE_1
 62
    39
  6
CONTINUOUS
 10
-0.779626
 20
-0.117860
  0
VERTEX
  8
EBENE_1
 62
    39
  6
CONTINUOUS
 10
-0.795128
 20
-0.120246
  0
VERTEX
  8
EBENE_1
 62
    39
  6
CONTINUOUS
 10
-0.811524
 20
-0.121730
  0
VERTEX
  8
EBENE_1
 62
    39
  6
CONTINUOUS
 10
-0.828595
 20
-0.122312
  0
VERTEX
  8
EBENE_1
 62
    39
  6
CONTINUOUS
 10
-0.846127
 20
-0.121991
  0
VERTEX
  8
EBENE_1
 62
    39
  6
CONTINUOUS
 10
-0.863903
 20
-0.120766
  0
VERTEX
  8
EBENE_1
 62
    39
  6
CONTINUOUS
 10
-0.881705
 20
-0.118634
  0
VERTEX
  8
EBENE_1
 62
    39
  6
CONTINUOUS
 10
-0.899318
 20
-0.115596
  0
VERTEX
  8
EBENE_1
 62
    39
  6
CONTINUOUS
 10
-0.916526
 20
-0.111649
  0
VERTEX
  8
EBENE_1
 62
    39
  6
CONTINUOUS
 10
-0.933112
 20
-0.106794
  0
VERTEX
  8
EBENE_1
 62
    39
  6
CONTINUOUS
 10
-0.948859
 20
-0.101027
  0
VERTEX
  8
EBENE_1
 62
    39
  6
CONTINUOUS
 10
-0.963552
 20
-0.094349
  0
VERTEX
  8
EBENE_1
 62
    39
  6
CONTINUOUS
 10
-0.976973
 20
-0.086758
  0
VERTEX
  8
EBENE_1
 62
    39
  6
CONTINUOUS
 10
-0.988907
 20
-0.078254
  0
VERTEX
  8
EBENE_1
 62
    39
  6
CONTINUOUS
 10
-0.999137
 20
-0.068833
  0
VERTEX
  8
EBENE_1
 62
    39
  6
CONTINUOUS
 10
-1.007447
 20
-0.058497
  0
VERTEX
  8
EBENE_1
 62
    39
  6
CONTINUOUS
 10
-1.013619
 20
-0.047242
  0
VERTEX
  8
EBENE_1
 62
    39
  6
CONTINUOUS
 10
-1.017439
 20
-0.035069
  0
VERTEX
  8
EBENE_1
 62
    39
  6
CONTINUOUS
 10
-1.018689
 20
-0.021976
  0
VERTEX
  8
EBENE_1
 62
    39
  6
CONTINUOUS
 10
-1.018689
 20
-0.021976
  0
VERTEX
  8
EBENE_1
 62
    39
  6
CONTINUOUS
 10
-1.018689
 20
0.265949
  0
VERTEX
  8
EBENE_1
 62
    39
  6
CONTINUOUS
 10
-0.921362
 20
0.307850
  0
VERTEX
  8
EBENE_1
 62
    39
  6
CONTINUOUS
 10
-0.902583
 20
0.304449
  0
VERTEX
  8
EBENE_1
 62
    39
  6
CONTINUOUS
 10
-0.884055
 20
0.300713
  0
VERTEX
  8
EBENE_1
 62
    39
  6
CONTINUOUS
 10
-0.865778
 20
0.296645
  0
VERTEX
  8
EBENE_1
 62
    39
  6
CONTINUOUS
 10
-0.847749
 20
0.292248
  0
VERTEX
  8
EBENE_1
 62
    39
  6
CONTINUOUS
 10
-0.829965
 20
0.287526
  0
VERTEX
  8
EBENE_1
 62
    39
  6
CONTINUOUS
 10
-0.812425
 20
0.282480
  0
VERTEX
  8
EBENE_1
 62
    39
  6
CONTINUOUS
 10
-0.795125
 20
0.277115
  0
VERTEX
  8
EBENE_1
 62
    39
  6
CONTINUOUS
 10
-0.778064
 20
0.271432
  0
VERTEX
  8
EBENE_1
 62
    39
  6
CONTINUOUS
 10
-0.761238
 20
0.265436
  0
VERTEX
  8
EBENE_1
 62
    39
  6
CONTINUOUS
 10
-0.744647
 20
0.259128
  0
VERTEX
  8
EBENE_1
 62
    39
  6
CONTINUOUS
 10
-0.728287
 20
0.252513
  0
VERTEX
  8
EBENE_1
 62
    39
  6
CONTINUOUS
 10
-0.712157
 20
0.245592
  0
VERTEX
  8
EBENE_1
 62
    39
  6
CONTINUOUS
 10
-0.696253
 20
0.238369
  0
VERTEX
  8
EBENE_1
 62
    39
  6
CONTINUOUS
 10
-0.680574
 20
0.230847
  0
VERTEX
  8
EBENE_1
 62
    39
  6
CONTINUOUS
 10
-0.665117
 20
0.223029
  0
VERTEX
  8
EBENE_1
 62
    39
  6
CONTINUOUS
 10
-0.649880
 20
0.214917
  0
VERTEX
  8
EBENE_1
 62
    39
  6
CONTINUOUS
 10
-0.634861
 20
0.206516
  0
VERTEX
  8
EBENE_1
 62
    39
  6
CONTINUOUS
 10
-0.620057
 20
0.197826
  0
VERTEX
  8
EBENE_1
 62
    39
  6
CONTINUOUS
 10
-0.605466
 20
0.188853
  0
VERTEX
  8
EBENE_1
 62
    39
  6
CONTINUOUS
 10
-0.591086
 20
0.179598
  0
VERTEX
  8
EBENE_1
 62
    39
  6
CONTINUOUS
 10
-0.576914
 20
0.170065
  0
VERTEX
  8
EBENE_1
 62
    39
  6
CONTINUOUS
 10
-0.562948
 20
0.160256
  0
VERTEX
  8
EBENE_1
 62
    39
  6
CONTINUOUS
 10
-0.549185
 20
0.150174
  0
VERTEX
  8
EBENE_1
 62
    39
  6
CONTINUOUS
 10
-0.535624
 20
0.139823
  0
VERTEX
  8
EBENE_1
 62
    39
  6
CONTINUOUS
 10
-0.522262
 20
0.129206
  0
VERTEX
  8
EBENE_1
 62
    39
  6
CONTINUOUS
 10
-0.509097
 20
0.118324
  0
VERTEX
  8
EBENE_1
 62
    39
  6
CONTINUOUS
 10
-0.496126
 20
0.107183
  0
VERTEX
  8
EBENE_1
 62
    39
  6
CONTINUOUS
 10
-0.483347
 20
0.095783
  0
VERTEX
  8
EBENE_1
 62
    39
  6
CONTINUOUS
 10
-0.470758
 20
0.084129
  0
VERTEX
  8
EBENE_1
 62
    39
  6
CONTINUOUS
 10
-0.458357
 20
0.072223
  0
VERTEX
  8
EBENE_1
 62
    39
  6
CONTINUOUS
 10
-0.446140
 20
0.060068
  0
VERTEX
  8
EBENE_1
 62
    39
  6
CONTINUOUS
 10
-0.434107
 20
0.047667
  0
VERTEX
  8
EBENE_1
 62
    39
  6
CONTINUOUS
 10
-0.422253
 20
0.035023
  0
VERTEX
  8
EBENE_1
 62
    39
  6
CONTINUOUS
 10
-0.410578
 20
0.022140
  0
VERTEX
  8
EBENE_1
 62
    39
  6
CONTINUOUS
 10
-0.399079
 20
0.009019
  0
VERTEX
  8
EBENE_1
 62
    39
  6
CONTINUOUS
 10
-0.387753
 20
-0.004336
  0
VERTEX
  8
EBENE_1
 62
    39
  6
CONTINUOUS
 10
-0.376598
 20
-0.017921
  0
SEQEND
  8
0
  0
POLYLINE
  8
EBENE_1
 62
    39
  6
CONTINUOUS
 66
     1
 40
0.003000
 41
0.003000
 70
     1
  0
VERTEX
  8
EBENE_1
 62
    39
  6
CONTINUOUS
 10
-0.378626
 20
-0.014543
  0
VERTEX
  8
EBENE_1
 62
    39
  6
CONTINUOUS
 10
-0.758472
 20
-0.107138
  0
VERTEX
  8
EBENE_1
 62
    39
  6
CONTINUOUS
 10
-0.772962
 20
-0.110462
  0
VERTEX
  8
EBENE_1
 62
    39
  6
CONTINUOUS
 10
-0.788540
 20
-0.112956
  0
VERTEX
  8
EBENE_1
 62
    39
  6
CONTINUOUS
 10
-0.804991
 20
-0.114611
  0
VERTEX
  8
EBENE_1
 62
    39
  6
CONTINUOUS
 10
-0.822102
 20
-0.115418
  0
VERTEX
  8
EBENE_1
 62
    39
  6
CONTINUOUS
 10
-0.839658
 20
-0.115367
  0
VERTEX
  8
EBENE_1
 62
    39
  6
CONTINUOUS
 10
-0.857443
 20
-0.114448
  0
VERTEX
  8
EBENE_1
 62
    39
  6
CONTINUOUS
 10
-0.875244
 20
-0.112653
  0
VERTEX
  8
EBENE_1
 62
    39
  6
CONTINUOUS
 10
-0.892846
 20
-0.109971
  0
VERTEX
  8
EBENE_1
 62
    39
  6
CONTINUOUS
 10
-0.910033
 20
-0.106393
  0
VERTEX
  8
EBENE_1
 62
    39
  6
CONTINUOUS
 10
-0.926593
 20
-0.101911
  0
VERTEX
  8
EBENE_1
 62
    39
  6
CONTINUOUS
 10
-0.942309
 20
-0.096513
  0
VERTEX
  8
EBENE_1
 62
    39
  6
CONTINUOUS
 10
-0.956967
 20
-0.090192
  0
VERTEX
  8
EBENE_1
 62
    39
  6
CONTINUOUS
 10
-0.970354
 20
-0.082937
  0
VERTEX
  8
EBENE_1
 62
    39
  6
CONTINUOUS
 10
-0.982253
 20
-0.074739
  0
VERTEX
  8
EBENE_1
 62
    39
  6
CONTINUOUS
 10
-0.992450
 20
-0.065588
  0
VERTEX
  8
EBENE_1
 62
    39
  6
CONTINUOUS
 10
-1.000732
 20
-0.055476
  0
VERTEX
  8
EBENE_1
 62
    39
  6
CONTINUOUS
 10
-1.006883
 20
-0.044392
  0
VERTEX
  8
EBENE_1
 62
    39
  6
CONTINUOUS
 10
-1.010688
 20
-0.032327
  0
VERTEX
  8
EBENE_1
 62
    39
  6
CONTINUOUS
 10
-1.011933
 20
-0.019272
  0
VERTEX
  8
EBENE_1
 62
    39
  6
CONTINUOUS
 10
-1.011933
 20
-0.019272
  0
VERTEX
  8
EBENE_1
 62
    39
  6
CONTINUOUS
 10
-1.011933
 20
0.269327
  0
VERTEX
  8
EBENE_1
 62
    39
  6
CONTINUOUS
 10
-0.913929
 20
0.309205
  0
VERTEX
  8
EBENE_1
 62
    39
  6
CONTINUOUS
 10
-0.895170
 20
0.305858
  0
VERTEX
  8
EBENE_1
 62
    39
  6
CONTINUOUS
 10
-0.876702
 20
0.302176
  0
VERTEX
  8
EBENE_1
 62
    39
  6
CONTINUOUS
 10
-0.858521
 20
0.298163
  0
VERTEX
  8
EBENE_1
 62
    39
  6
CONTINUOUS
 10
-0.840623
 20
0.293821
  0
VERTEX
  8
EBENE_1
 62
    39
  6
CONTINUOUS
 10
-0.823003
 20
0.289153
  0
VERTEX
  8
EBENE_1
 62
    39
  6
CONTINUOUS
 10
-0.805656
 20
0.284162
  0
VERTEX
  8
EBENE_1
 62
    39
  6
CONTINUOUS
 10
-0.788578
 20
0.278851
  0
VERTEX
  8
EBENE_1
 62
    39
  6
CONTINUOUS
 10
-0.771765
 20
0.273224
  0
VERTEX
  8
EBENE_1
 62
    39
  6
CONTINUOUS
 10
-0.755211
 20
0.267282
  0
VERTEX
  8
EBENE_1
 62
    39
  6
CONTINUOUS
 10
-0.738912
 20
0.261029
  0
VERTEX
  8
EBENE_1
 62
    39
  6
CONTINUOUS
 10
-0.722864
 20
0.254468
  0
VERTEX
  8
EBENE_1
 62
    39
  6
CONTINUOUS
 10
-0.707062
 20
0.247602
  0
VERTEX
  8
EBENE_1
 62
    39
  6
CONTINUOUS
 10
-0.691501
 20
0.240434
  0
VERTEX
  8
EBENE_1
 62
    39
  6
CONTINUOUS
 10
-0.676178
 20
0.232967
  0
VERTEX
  8
EBENE_1
 62
    39
  6
CONTINUOUS
 10
-0.661087
 20
0.225203
  0
VERTEX
  8
EBENE_1
 62
    39
  6
CONTINUOUS
 10
-0.646223
 20
0.217147
  0
VERTEX
  8
EBENE_1
 62
    39
  6
CONTINUOUS
 10
-0.631583
 20
0.208800
  0
VERTEX
  8
EBENE_1
 62
    39
  6
CONTINUOUS
 10
-0.617161
 20
0.200165
  0
VERTEX
  8
EBENE_1
 62
    39
  6
CONTINUOUS
 10
-0.602954
 20
0.191246
  0
VERTEX
  8
EBENE_1
 62
    39
  6
CONTINUOUS
 10
-0.588956
 20
0.182046
  0
VERTEX
  8
EBENE_1
 62
    39
  6
CONTINUOUS
 10
-0.575163
 20
0.172568
  0
VERTEX
  8
EBENE_1
 62
    39
  6
CONTINUOUS
 10
-0.561570
 20
0.162813
  0
VERTEX
  8
EBENE_1
 62
    39
  6
CONTINUOUS
 10
-0.548173
 20
0.152787
  0
VERTEX
  8
EBENE_1
 62
    39
  6
CONTINUOUS
 10
-0.534968
 20
0.142490
  0
VERTEX
  8
EBENE_1
 62
    39
  6
CONTINUOUS
 10
-0.521949
 20
0.131928
  0
VERTEX
  8
EBENE_1
 62
    39
  6
CONTINUOUS
 10
-0.509113
 20
0.121101
  0
VERTEX
  8
EBENE_1
 62
    39
  6
CONTINUOUS
 10
-0.496454
 20
0.110014
  0
VERTEX
  8
EBENE_1
 62
    39
  6
CONTINUOUS
 10
-0.483967
 20
0.098669
  0
VERTEX
  8
EBENE_1
 62
    39
  6
CONTINUOUS
 10
-0.471650
 20
0.087069
  0
VERTEX
  8
EBENE_1
 62
    39
  6
CONTINUOUS
 10
-0.459496
 20
0.075218
  0
VERTEX
  8
EBENE_1
 62
    39
  6
CONTINUOUS
 10
-0.447502
 20
0.063118
  0
VERTEX
  8
EBENE_1
 62
    39
  6
CONTINUOUS
 10
-0.435662
 20
0.050772
  0
VERTEX
  8
EBENE_1
 62
    39
  6
CONTINUOUS
 10
-0.423973
 20
0.038183
  0
VERTEX
  8
EBENE_1
 62
    39
  6
CONTINUOUS
 10
-0.412429
 20
0.025354
  0
VERTEX
  8
EBENE_1
 62
    39
  6
CONTINUOUS
 10
-0.401026
 20
0.012288
  0
VERTEX
  8
EBENE_1
 62
    39
  6
CONTINUOUS
 10
-0.389760
 20
-0.001012
  0
VERTEX
  8
EBENE_1
 62
    39
  6
CONTINUOUS
 10
-0.378626
 20
-0.014543
  0
SEQEND
  8
0
  0
POLYLINE
  8
EBENE_1
 62
    39
  6
CONTINUOUS
 66
     1
 40
0.003000
 41
0.003000
 70
     1
  0
VERTEX
  8
EBENE_1
 62
    39
  6
CONTINUOUS
 10
-0.850394
 20
0.263244
  0
VERTEX
  8
EBENE_1
 62
    39
  6
CONTINUOUS
 10
-0.847965
 20
0.263870
  0
VERTEX
  8
EBENE_1
 62
    39
  6
CONTINUOUS
 10
-0.846287
 20
0.265547
  0
VERTEX
  8
EBENE_1
 62
    39
  6
CONTINUOUS
 10
-0.845661
 20
0.267976
  0
VERTEX
  8
EBENE_1
 62
    39
  6
CONTINUOUS
 10
-0.846287
 20
0.270403
  0
VERTEX
  8
EBENE_1
 62
    39
  6
CONTINUOUS
 10
-0.847965
 20
0.272079
  0
VERTEX
  8
EBENE_1
 62
    39
  6
CONTINUOUS
 10
-0.850394
 20
0.272705
  0
VERTEX
  8
EBENE_1
 62
    39
  6
CONTINUOUS
 10
-0.852823
 20
0.272079
  0
VERTEX
  8
EBENE_1
 62
    39
  6
CONTINUOUS
 10
-0.854500
 20
0.270403
  0
VERTEX
  8
EBENE_1
 62
    39
  6
CONTINUOUS
 10
-0.855126
 20
0.267976
  0
VERTEX
  8
EBENE_1
 62
    39
  6
CONTINUOUS
 10
-0.854500
 20
0.265547
  0
VERTEX
  8
EBENE_1
 62
    39
  6
CONTINUOUS
 10
-0.852823
 20
0.263870
  0
SEQEND
  8
0
  0
POLYLINE
  8
EBENE_1
 62
    39
  6
CONTINUOUS
 66
     1
 40
0.003000
 41
0.003000
 70
     1
  0
VERTEX
  8
EBENE_1
 62
    39
  6
CONTINUOUS
 10
-0.721976
 20
0.201740
  0
VERTEX
  8
EBENE_1
 62
    39
  6
CONTINUOUS
 10
-0.719547
 20
0.202366
  0
VERTEX
  8
EBENE_1
 62
    39
  6
CONTINUOUS
 10
-0.717870
 20
0.204042
  0
VERTEX
  8
EBENE_1
 62
    39
  6
CONTINUOUS
 10
-0.717244
 20
0.206469
  0
VERTEX
  8
EBENE_1
 62
    39
  6
CONTINUOUS
 10
-0.717870
 20
0.208897
  0
VERTEX
  8
EBENE_1
 62
    39
  6
CONTINUOUS
 10
-0.719547
 20
0.210575
  0
VERTEX
  8
EBENE_1
 62
    39
  6
CONTINUOUS
 10
-0.721976
 20
0.211201
  0
VERTEX
  8
EBENE_1
 62
    39
  6
CONTINUOUS
 10
-0.724403
 20
0.210575
  0
VERTEX
  8
EBENE_1
 62
    39
  6
CONTINUOUS
 10
-0.726079
 20
0.208897
  0
VERTEX
  8
EBENE_1
 62
    39
  6
CONTINUOUS
 10
-0.726705
 20
0.206469
  0
VERTEX
  8
EBENE_1
 62
    39
  6
CONTINUOUS
 10
-0.726079
 20
0.204042
  0
VERTEX
  8
EBENE_1
 62
    39
  6
CONTINUOUS
 10
-0.724403
 20
0.202366
  0
SEQEND
  8
0
  0
POLYLINE
  8
EBENE_1
 62
    39
  6
CONTINUOUS
 66
     1
 40
0.003000
 41
0.003000
 70
     1
  0
VERTEX
  8
EBENE_1
 62
    39
  6
CONTINUOUS
 10
-0.561791
 20
0.105764
  0
VERTEX
  8
EBENE_1
 62
    39
  6
CONTINUOUS
 10
-0.559362
 20
0.106389
  0
VERTEX
  8
EBENE_1
 62
    39
  6
CONTINUOUS
 10
-0.557685
 20
0.108066
  0
VERTEX
  8
EBENE_1
 62
    39
  6
CONTINUOUS
 10
-0.557059
 20
0.110492
  0
VERTEX
  8
EBENE_1
 62
    39
  6
CONTINUOUS
 10
-0.557685
 20
0.112921
  0
VERTEX
  8
EBENE_1
 62
    39
  6
CONTINUOUS
 10
-0.559362
 20
0.114599
  0
VERTEX
  8
EBENE_1
 62
    39
  6
CONTINUOUS
 10
-0.561791
 20
0.115224
  0
VERTEX
  8
EBENE_1
 62
    39
  6
CONTINUOUS
 10
-0.564218
 20
0.114599
  0
VERTEX
  8
EBENE_1
 62
    39
  6
CONTINUOUS
 10
-0.565894
 20
0.112921
  0
VERTEX
  8
EBENE_1
 62
    39
  6
CONTINUOUS
 10
-0.566520
 20
0.110492
  0
VERTEX
  8
EBENE_1
 62
    39
  6
CONTINUOUS
 10
-0.565894
 20
0.108066
  0
VERTEX
  8
EBENE_1
 62
    39
  6
CONTINUOUS
 10
-0.564218
 20
0.106389
  0
SEQEND
  8
0
  0
POLYLINE
  8
EBENE_1
 62
    39
  6
CONTINUOUS
 66
     1
 40
0.003000
 41
0.003000
 70
     1
  0
VERTEX
  8
EBENE_1
 62
    39
  6
CONTINUOUS
 10
-0.356996
 20
0.585642
  0
VERTEX
  8
EBENE_1
 62
    39
  6
CONTINUOUS
 10
-0.040681
 20
0.065886
  0
VERTEX
  8
EBENE_1
 62
    39
  6
CONTINUOUS
 10
-0.371866
 20
-0.020626
  0
VERTEX
  8
EBENE_1
 62
    39
  6
CONTINUOUS
 10
-0.379696
 20
-0.022380
  0
VERTEX
  8
EBENE_1
 62
    39
  6
CONTINUOUS
 10
-0.388291
 20
-0.024246
  0
VERTEX
  8
EBENE_1
 62
    39
  6
CONTINUOUS
 10
-0.397619
 20
-0.026204
  0
VERTEX
  8
EBENE_1
 62
    39
  6
CONTINUOUS
 10
-0.407644
 20
-0.028229
  0
VERTEX
  8
EBENE_1
 62
    39
  6
CONTINUOUS
 10
-0.418333
 20
-0.030300
  0
VERTEX
  8
EBENE_1
 62
    39
  6
CONTINUOUS
 10
-0.429649
 20
-0.032393
  0
VERTEX
  8
EBENE_1
 62
    39
  6
CONTINUOUS
 10
-0.441560
 20
-0.034487
  0
VERTEX
  8
EBENE_1
 62
    39
  6
CONTINUOUS
 10
-0.454030
 20
-0.036559
  0
VERTEX
  8
EBENE_1
 62
    39
  6
CONTINUOUS
 10
-0.467026
 20
-0.038587
  0
VERTEX
  8
EBENE_1
 62
    39
  6
CONTINUOUS
 10
-0.480512
 20
-0.040547
  0
VERTEX
  8
EBENE_1
 62
    39
  6
CONTINUOUS
 10
-0.494454
 20
-0.042418
  0
VERTEX
  8
EBENE_1
 62
    39
  6
CONTINUOUS
 10
-0.508818
 20
-0.044176
  0
VERTEX
  8
EBENE_1
 62
    39
  6
CONTINUOUS
 10
-0.523569
 20
-0.045800
  0
VERTEX
  8
EBENE_1
 62
    39
  6
CONTINUOUS
 10
-0.538673
 20
-0.047267
  0
VERTEX
  8
EBENE_1
 62
    39
  6
CONTINUOUS
 10
-0.554095
 20
-0.048554
  0
VERTEX
  8
EBENE_1
 62
    39
  6
CONTINUOUS
 10
-0.569801
 20
-0.049639
  0
VERTEX
  8
EBENE_1
 62
    39
  6
CONTINUOUS
 10
-0.585757
 20
-0.050499
  0
VERTEX
  8
EBENE_1
 62
    39
  6
CONTINUOUS
 10
-0.601927
 20
-0.051112
  0
VERTEX
  8
EBENE_1
 62
    39
  6
CONTINUOUS
 10
-0.618277
 20
-0.051455
  0
VERTEX
  8
EBENE_1
 62
    39
  6
CONTINUOUS
 10
-0.634774
 20
-0.051506
  0
VERTEX
  8
EBENE_1
 62
    39
  6
CONTINUOUS
 10
-0.651382
 20
-0.051243
  0
VERTEX
  8
EBENE_1
 62
    39
  6
CONTINUOUS
 10
-0.668067
 20
-0.050642
  0
VERTEX
  8
EBENE_1
 62
    39
  6
CONTINUOUS
 10
-0.684795
 20
-0.049681
  0
VERTEX
  8
EBENE_1
 62
    39
  6
CONTINUOUS
 10
-0.701531
 20
-0.048338
  0
VERTEX
  8
EBENE_1
 62
    39
  6
CONTINUOUS
 10
-0.718240
 20
-0.046590
  0
VERTEX
  8
EBENE_1
 62
    39
  6
CONTINUOUS
 10
-0.734888
 20
-0.044414
  0
VERTEX
  8
EBENE_1
 62
    39
  6
CONTINUOUS
 10
-0.751441
 20
-0.041789
  0
VERTEX
  8
EBENE_1
 62
    39
  6
CONTINUOUS
 10
-0.767865
 20
-0.038692
  0
VERTEX
  8
EBENE_1
 62
    39
  6
CONTINUOUS
 10
-0.784124
 20
-0.035099
  0
VERTEX
  8
EBENE_1
 62
    39
  6
CONTINUOUS
 10
-0.800184
 20
-0.030989
  0
VERTEX
  8
EBENE_1
 62
    39
  6
CONTINUOUS
 10
-0.816011
 20
-0.026339
  0
VERTEX
  8
EBENE_1
 62
    39
  6
CONTINUOUS
 10
-0.831570
 20
-0.021127
  0
VERTEX
  8
EBENE_1
 62
    39
  6
CONTINUOUS
 10
-0.846827
 20
-0.015330
  0
VERTEX
  8
EBENE_1
 62
    39
  6
CONTINUOUS
 10
-0.861748
 20
-0.008926
  0
VERTEX
  8
EBENE_1
 62
    39
  6
CONTINUOUS
 10
-0.876297
 20
-0.001891
  0
VERTEX
  8
EBENE_1
 62
    39
  6
CONTINUOUS
 10
-0.890441
 20
0.005796
  0
VERTEX
  8
EBENE_1
 62
    39
  6
CONTINUOUS
 10
-0.904145
 20
0.014158
  0
VERTEX
  8
EBENE_1
 62
    39
  6
CONTINUOUS
 10
-0.917375
 20
0.023218
  0
VERTEX
  8
EBENE_1
 62
    39
  6
CONTINUOUS
 10
-0.930095
 20
0.032997
  0
VERTEX
  8
EBENE_1
 62
    39
  6
CONTINUOUS
 10
-0.942272
 20
0.043519
  0
VERTEX
  8
EBENE_1
 62
    39
  6
CONTINUOUS
 10
-0.953871
 20
0.054807
  0
VERTEX
  8
EBENE_1
 62
    39
  6
CONTINUOUS
 10
-0.964858
 20
0.066881
  0
VERTEX
  8
EBENE_1
 62
    39
  6
CONTINUOUS
 10
-0.975198
 20
0.079766
  0
VERTEX
  8
EBENE_1
 62
    39
  6
CONTINUOUS
 10
-0.984856
 20
0.093484
  0
VERTEX
  8
EBENE_1
 62
    39
  6
CONTINUOUS
 10
-0.993799
 20
0.108056
  0
VERTEX
  8
EBENE_1
 62
    39
  6
CONTINUOUS
 10
-1.001992
 20
0.123507
  0
VERTEX
  8
EBENE_1
 62
    39
  6
CONTINUOUS
 10
-1.009400
 20
0.139857
  0
VERTEX
  8
EBENE_1
 62
    39
  6
CONTINUOUS
 10
-1.015988
 20
0.157130
  0
VERTEX
  8
EBENE_1
 62
    39
  6
CONTINUOUS
 10
-1.015988
 20
0.157130
  0
VERTEX
  8
EBENE_1
 62
    39
  6
CONTINUOUS
 10
-1.018689
 20
0.519406
  0
VERTEX
  8
EBENE_1
 62
    39
  6
CONTINUOUS
 10
-0.911224
 20
0.576181
  0
VERTEX
  8
EBENE_1
 62
    39
  6
CONTINUOUS
 10
-0.475953
 20
0.656610
  0
VERTEX
  8
EBENE_1
 62
    39
  6
CONTINUOUS
 10
-0.453715
 20
0.660864
  0
VERTEX
  8
EBENE_1
 62
    39
  6
CONTINUOUS
 10
-0.435939
 20
0.660714
  0
VERTEX
  8
EBENE_1
 62
    39
  6
CONTINUOUS
 10
-0.421813
 20
0.656866
  0
VERTEX
  8
EBENE_1
 62
    39
  6
CONTINUOUS
 10
-0.410526
 20
0.650024
  0
VERTEX
  8
EBENE_1
 62
    39
  6
CONTINUOUS
 10
-0.401266
 20
0.640896
  0
VERTEX
  8
EBENE_1
 62
    39
  6
CONTINUOUS
 10
-0.393223
 20
0.630186
  0
VERTEX
  8
EBENE_1
 62
    39
  6
CONTINUOUS
 10
-0.385586
 20
0.618600
  0
VERTEX
  8
EBENE_1
 62
    39
  6
CONTINUOUS
 10
-0.377543
 20
0.606844
  0
VERTEX
  8
EBENE_1
 62
    39
  6
CONTINUOUS
 10
-0.368283
 20
0.595622
  0
SEQEND
  8
0
  0
POLYLINE
  8
EBENE_1
 62
    39
  6
CONTINUOUS
 66
     1
 40
0.003000
 41
0.003000
 70
     1
  0
VERTEX
  8
EBENE_1
 62
    39
  6
CONTINUOUS
 10
-0.348209
 20
0.588346
  0
VERTEX
  8
EBENE_1
 62
    39
  6
CONTINUOUS
 10
-0.035949
 20
0.071969
  0
VERTEX
  8
EBENE_1
 62
    39
  6
CONTINUOUS
 10
-0.365783
 20
-0.013189
  0
VERTEX
  8
EBENE_1
 62
    39
  6
CONTINUOUS
 10
-0.373406
 20
-0.014951
  0
VERTEX
  8
EBENE_1
 62
    39
  6
CONTINUOUS
 10
-0.381770
 20
-0.016831
  0
VERTEX
  8
EBENE_1
 62
    39
  6
CONTINUOUS
 10
-0.390843
 20
-0.018805
  0
VERTEX
  8
EBENE_1
 62
    39
  6
CONTINUOUS
 10
-0.400591
 20
-0.020854
  0
VERTEX
  8
EBENE_1
 62
    39
  6
CONTINUOUS
 10
-0.410982
 20
-0.022955
  0
VERTEX
  8
EBENE_1
 62
    39
  6
CONTINUOUS
 10
-0.421985
 20
-0.025086
  0
VERTEX
  8
EBENE_1
 62
    39
  6
CONTINUOUS
 10
-0.433565
 20
-0.027227
  0
VERTEX
  8
EBENE_1
 62
    39
  6
CONTINUOUS
 10
-0.445691
 20
-0.029356
  0
VERTEX
  8
EBENE_1
 62
    39
  6
CONTINUOUS
 10
-0.458330
 20
-0.031451
  0
VERTEX
  8
EBENE_1
 62
    39
  6
CONTINUOUS
 10
-0.471449
 20
-0.033490
  0
VERTEX
  8
EBENE_1
 62
    39
  6
CONTINUOUS
 10
-0.485016
 20
-0.035453
  0
VERTEX
  8
EBENE_1
 62
    39
  6
CONTINUOUS
 10
-0.498998
 20
-0.037316
  0
VERTEX
  8
EBENE_1
 62
    39
  6
CONTINUOUS
 10
-0.513363
 20
-0.039060
  0
VERTEX
  8
EBENE_1
 62
    39
  6
CONTINUOUS
 10
-0.528078
 20
-0.040663
  0
VERTEX
  8
EBENE_1
 62
    39
  6
CONTINUOUS
 10
-0.543111
 20
-0.042102
  0
VERTEX
  8
EBENE_1
 62
    39
  6
CONTINUOUS
 10
-0.558429
 20
-0.043357
  0
VERTEX
  8
EBENE_1
 62
    39
  6
CONTINUOUS
 10
-0.573999
 20
-0.044405
  0
VERTEX
  8
EBENE_1
 62
    39
  6
CONTINUOUS
 10
-0.589788
 20
-0.045226
  0
VERTEX
  8
EBENE_1
 62
    39
  6
CONTINUOUS
 10
-0.605765
 20
-0.045797
  0
VERTEX
  8
EBENE_1
 62
    39
  6
CONTINUOUS
 10
-0.621897
 20
-0.046097
  0
VERTEX
  8
EBENE_1
 62
    39
  6
CONTINUOUS
 10
-0.638151
 20
-0.046106
  0
VERTEX
  8
EBENE_1
 62
    39
  6
CONTINUOUS
 10
-0.654494
 20
-0.045800
  0
VERTEX
  8
EBENE_1
 62
    39
  6
CONTINUOUS
 10
-0.670895
 20
-0.045159
  0
VERTEX
  8
EBENE_1
 62
    39
  6
CONTINUOUS
 10
-0.687319
 20
-0.044160
  0
VERTEX
  8
EBENE_1
 62
    39
  6
CONTINUOUS
 10
-0.703736
 20
-0.042784
  0
VERTEX
  8
EBENE_1
 62
    39
  6
CONTINUOUS
 10
-0.720111
 20
-0.041007
  0
VERTEX
  8
EBENE_1
 62
    39
  6
CONTINUOUS
 10
-0.736414
 20
-0.038808
  0
VERTEX
  8
EBENE_1
 62
    39
  6
CONTINUOUS
 10
-0.752610
 20
-0.036167
  0
VERTEX
  8
EBENE_1
 62
    39
  6
CONTINUOUS
 10
-0.768668
 20
-0.033060
  0
VERTEX
  8
EBENE_1
 62
    39
  6
CONTINUOUS
 10
-0.784555
 20
-0.029468
  0
VERTEX
  8
EBENE_1
 62
    39
  6
CONTINUOUS
 10
-0.800238
 20
-0.025367
  0
VERTEX
  8
EBENE_1
 62
    39
  6
CONTINUOUS
 10
-0.815685
 20
-0.020737
  0
VERTEX
  8
EBENE_1
 62
    39
  6
CONTINUOUS
 10
-0.830863
 20
-0.015557
  0
VERTEX
  8
EBENE_1
 62
    39
  6
CONTINUOUS
 10
-0.845740
 20
-0.009804
  0
VERTEX
  8
EBENE_1
 62
    39
  6
CONTINUOUS
 10
-0.860283
 20
-0.003457
  0
VERTEX
  8
EBENE_1
 62
    39
  6
CONTINUOUS
 10
-0.874459
 20
0.003506
  0
VERTEX
  8
EBENE_1
 62
    39
  6
CONTINUOUS
 10
-0.888237
 20
0.011106
  0
VERTEX
  8
EBENE_1
 62
    39
  6
CONTINUOUS
 10
-0.901582
 20
0.019364
  0
VERTEX
  8
EBENE_1
 62
    39
  6
CONTINUOUS
 10
-0.914464
 20
0.028302
  0
VERTEX
  8
EBENE_1
 62
    39
  6
CONTINUOUS
 10
-0.926848
 20
0.037943
  0
VERTEX
  8
EBENE_1
 62
    39
  6
CONTINUOUS
 10
-0.938703
 20
0.048306
  0
VERTEX
  8
EBENE_1
 62
    39
  6
CONTINUOUS
 10
-0.949997
 20
0.059414
  0
VERTEX
  8
EBENE_1
 62
    39
  6
CONTINUOUS
 10
-0.960695
 20
0.071289
  0
VERTEX
  8
EBENE_1
 62
    39
  6
CONTINUOUS
 10
-0.970767
 20
0.083951
  0
VERTEX
  8
EBENE_1
 62
    39
  6
CONTINUOUS
 10
-0.980179
 20
0.097423
  0
VERTEX
  8
EBENE_1
 62
    39
  6
CONTINUOUS
 10
-0.988899
 20
0.111725
  0
VERTEX
  8
EBENE_1
 62
    39
  6
CONTINUOUS
 10
-0.996894
 20
0.126881
  0
VERTEX
  8
EBENE_1
 62
    39
  6
CONTINUOUS
 10
-1.004131
 20
0.142910
  0
VERTEX
  8
EBENE_1
 62
    39
  6
CONTINUOUS
 10
-1.010579
 20
0.159835
  0
VERTEX
  8
EBENE_1
 62
    39
  6
CONTINUOUS
 10
-1.010579
 20
0.159835
  0
VERTEX
  8
EBENE_1
 62
    39
  6
CONTINUOUS
 10
-1.012606
 20
0.522110
  0
VERTEX
  8
EBENE_1
 62
    39
  6
CONTINUOUS
 10
-0.902437
 20
0.578886
  0
VERTEX
  8
EBENE_1
 62
    39
  6
CONTINUOUS
 10
-0.467165
 20
0.659988
  0
VERTEX
  8
EBENE_1
 62
    39
  6
CONTINUOUS
 10
-0.444928
 20
0.664078
  0
VERTEX
  8
EBENE_1
 62
    39
  6
CONTINUOUS
 10
-0.427152
 20
0.663828
  0
VERTEX
  8
EBENE_1
 62
    39
  6
CONTINUOUS
 10
-0.413026
 20
0.659928
  0
VERTEX
  8
EBENE_1
 62
    39
  6
CONTINUOUS
 10
-0.401738
 20
0.653069
  0
VERTEX
  8
EBENE_1
 62
    39
  6
CONTINUOUS
 10
-0.392479
 20
0.643938
  0
VERTEX
  8
EBENE_1
 62
    39
  6
CONTINUOUS
 10
-0.384436
 20
0.633225
  0
VERTEX
  8
EBENE_1
 62
    39
  6
CONTINUOUS
 10
-0.376799
 20
0.621620
  0
VERTEX
  8
EBENE_1
 62
    39
  6
CONTINUOUS
 10
-0.368756
 20
0.609812
  0
VERTEX
  8
EBENE_1
 62
    39
  6
CONTINUOUS
 10
-0.359496
 20
0.598491
  0
SEQEND
  8
0
  0
POLYLINE
  8
EBENE_1
 62
    39
  6
CONTINUOUS
 66
     1
 40
0.003000
 41
0.003000
  0
VERTEX
  8
EBENE_1
 62
    39
  6
CONTINUOUS
 10
-0.803756
 20
0.532921
  0
VERTEX
  8
EBENE_1
 62
    39
  6
CONTINUOUS
 10
-0.798074
 20
0.534549
  0
VERTEX
  8
EBENE_1
 62
    39
  6
CONTINUOUS
 10
-0.793894
 20
0.538731
  0
VERTEX
  8
EBENE_1
 62
    39
  6
CONTINUOUS
 10
-0.792268
 20
0.544413
  0
SEQEND
  8
0
  0
POLYLINE
  8
EBENE_1
 62
    39
  6
CONTINUOUS
 66
     1
 40
0.003000
 41
0.003000
  0
VERTEX
  8
EBENE_1
 62
    39
  6
CONTINUOUS
 10
-0.792268
 20
0.544413
  0
VERTEX
  8
EBENE_1
 62
    39
  6
CONTINUOUS
 10
-0.793894
 20
0.550096
  0
VERTEX
  8
EBENE_1
 62
    39
  6
CONTINUOUS
 10
-0.798074
 20
0.554278
  0
VERTEX
  8
EBENE_1
 62
    39
  6
CONTINUOUS
 10
-0.803756
 20
0.555906
  0
SEQEND
  8
0
  0
POLYLINE
  8
EBENE_1
 62
    39
  6
CONTINUOUS
 66
     1
 40
0.003000
 41
0.003000
  0
VERTEX
  8
EBENE_1
 62
    39
  6
CONTINUOUS
 10
-0.803756
 20
0.555906
  0
VERTEX
  8
EBENE_1
 62
    39
  6
CONTINUOUS
 10
-0.809740
 20
0.554278
  0
VERTEX
  8
EBENE_1
 62
    39
  6
CONTINUOUS
 10
-0.813771
 20
0.550096
  0
VERTEX
  8
EBENE_1
 62
    39
  6
CONTINUOUS
 10
-0.815248
 20
0.544413
  0
SEQEND
  8
0
  0
POLYLINE
  8
EBENE_1
 62
    39
  6
CONTINUOUS
 66
     1
 40
0.003000
 41
0.003000
  0
VERTEX
  8
EBENE_1
 62
    39
  6
CONTINUOUS
 10
-0.815248
 20
0.544413
  0
VERTEX
  8
EBENE_1
 62
    39
  6
CONTINUOUS
 10
-0.813771
 20
0.538731
  0
VERTEX
  8
EBENE_1
 62
    39
  6
CONTINUOUS
 10
-0.809740
 20
0.534549
  0
VERTEX
  8
EBENE_1
 62
    39
  6
CONTINUOUS
 10
-0.803756
 20
0.532921
  0
SEQEND
  8
0
  0
POLYLINE
  8
EBENE_1
 62
    39
  6
CONTINUOUS
 66
     1
 40
0.003000
 41
0.003000
  0
VERTEX
  8
EBENE_1
 62
    39
  6
CONTINUOUS
 10
-0.365106
 20
0.531571
  0
VERTEX
  8
EBENE_1
 62
    39
  6
CONTINUOUS
 10
-0.359423
 20
0.533199
  0
VERTEX
  8
EBENE_1
 62
    39
  6
CONTINUOUS
 10
-0.355242
 20
0.537380
  0
VERTEX
  8
EBENE_1
 62
    39
  6
CONTINUOUS
 10
-0.353614
 20
0.543063
  0
SEQEND
  8
0
  0
POLYLINE
  8
EBENE_1
 62
    39
  6
CONTINUOUS
 66
     1
 40
0.003000
 41
0.003000
  0
VERTEX
  8
EBENE_1
 62
    39
  6
CONTINUOUS
 10
-0.353614
 20
0.543063
  0
VERTEX
  8
EBENE_1
 62
    39
  6
CONTINUOUS
 10
-0.355242
 20
0.548745
  0
VERTEX
  8
EBENE_1
 62
    39
  6
CONTINUOUS
 10
-0.359423
 20
0.552924
  0
VERTEX
  8
EBENE_1
 62
    39
  6
CONTINUOUS
 10
-0.365106
 20
0.554551
  0
SEQEND
  8
0
  0
POLYLINE
  8
EBENE_1
 62
    39
  6
CONTINUOUS
 66
     1
 40
0.003000
 41
0.003000
  0
VERTEX
  8
EBENE_1
 62
    39
  6
CONTINUOUS
 10
-0.365106
 20
0.554551
  0
VERTEX
  8
EBENE_1
 62
    39
  6
CONTINUOUS
 10
-0.370789
 20
0.552924
  0
VERTEX
  8
EBENE_1
 62
    39
  6
CONTINUOUS
 10
-0.374971
 20
0.548745
  0
VERTEX
  8
EBENE_1
 62
    39
  6
CONTINUOUS
 10
-0.376598
 20
0.543063
  0
SEQEND
  8
0
  0
POLYLINE
  8
EBENE_1
 62
    39
  6
CONTINUOUS
 66
     1
 40
0.003000
 41
0.003000
  0
VERTEX
  8
EBENE_1
 62
    39
  6
CONTINUOUS
 10
-0.376598
 20
0.543063
  0
VERTEX
  8
EBENE_1
 62
    39
  6
CONTINUOUS
 10
-0.374971
 20
0.537380
  0
VERTEX
  8
EBENE_1
 62
    39
  6
CONTINUOUS
 10
-0.370789
 20
0.533199
  0
VERTEX
  8
EBENE_1
 62
    39
  6
CONTINUOUS
 10
-0.365106
 20
0.531571
  0
SEQEND
  8
0
  0
POLYLINE
  8
EBENE_1
 62
    39
  6
CONTINUOUS
 66
     1
 40
0.003000
 41
0.003000
  0
VERTEX
  8
EBENE_1
 62
    39
  6
CONTINUOUS
 10
-0.536780
 20
0.578209
  0
VERTEX
  8
EBENE_1
 62
    39
  6
CONTINUOUS
 10
-0.531098
 20
0.579661
  0
VERTEX
  8
EBENE_1
 62
    39
  6
CONTINUOUS
 10
-0.526918
 20
0.583515
  0
VERTEX
  8
EBENE_1
 62
    39
  6
CONTINUOUS
 10
-0.525291
 20
0.589020
  0
SEQEND
  8
0
  0
POLYLINE
  8
EBENE_1
 62
    39
  6
CONTINUOUS
 66
     1
 40
0.003000
 41
0.003000
  0
VERTEX
  8
EBENE_1
 62
    39
  6
CONTINUOUS
 10
-0.525291
 20
0.589020
  0
VERTEX
  8
EBENE_1
 62
    39
  6
CONTINUOUS
 10
-0.526918
 20
0.595003
  0
VERTEX
  8
EBENE_1
 62
    39
  6
CONTINUOUS
 10
-0.531098
 20
0.599035
  0
VERTEX
  8
EBENE_1
 62
    39
  6
CONTINUOUS
 10
-0.536780
 20
0.600512
  0
SEQEND
  8
0
  0
POLYLINE
  8
EBENE_1
 62
    39
  6
CONTINUOUS
 66
     1
 40
0.003000
 41
0.003000
  0
VERTEX
  8
EBENE_1
 62
    39
  6
CONTINUOUS
 10
-0.536780
 20
0.600512
  0
VERTEX
  8
EBENE_1
 62
    39
  6
CONTINUOUS
 10
-0.542464
 20
0.599035
  0
VERTEX
  8
EBENE_1
 62
    39
  6
CONTINUOUS
 10
-0.546645
 20
0.595003
  0
VERTEX
  8
EBENE_1
 62
    39
  6
CONTINUOUS
 10
-0.548272
 20
0.589020
  0
SEQEND
  8
0
  0
POLYLINE
  8
EBENE_1
 62
    39
  6
CONTINUOUS
 66
     1
 40
0.003000
 41
0.003000
  0
VERTEX
  8
EBENE_1
 62
    39
  6
CONTINUOUS
 10
-0.548272
 20
0.589020
  0
VERTEX
  8
EBENE_1
 62
    39
  6
CONTINUOUS
 10
-0.546645
 20
0.583515
  0
VERTEX
  8
EBENE_1
 62
    39
  6
CONTINUOUS
 10
-0.542464
 20
0.579661
  0
VERTEX
  8
EBENE_1
 62
    39
  6
CONTINUOUS
 10
-0.536780
 20
0.578209
  0
SEQEND
  8
0
  0
POLYLINE
  8
EBENE_1
 62
    39
  6
CONTINUOUS
 66
     1
 40
0.003000
 41
0.003000
  0
VERTEX
  8
EBENE_1
 62
    39
  6
CONTINUOUS
 10
-0.021756
 20
0.668776
  0
VERTEX
  8
EBENE_1
 62
    39
  6
CONTINUOUS
 10
0.295232
 20
0.149020
  0
VERTEX
  8
EBENE_1
 62
    39
  6
CONTINUOUS
 10
-0.036626
 20
0.062504
  0
SEQEND
  8
0
  0
POLYLINE
  8
EBENE_1
 62
    39
  6
CONTINUOUS
 66
     1
 40
0.003000
 41
0.003000
  0
VERTEX
  8
EBENE_1
 62
    39
  6
CONTINUOUS
 10
-0.036626
 20
0.062504
  0
VERTEX
  8
EBENE_1
 62
    39
  6
CONTINUOUS
 10
-0.045236
 20
0.060893
  0
VERTEX
  8
EBENE_1
 62
    39
  6
CONTINUOUS
 10
-0.054447
 20
0.059830
  0
VERTEX
  8
EBENE_1
 62
    39
  6
CONTINUOUS
 10
-0.064227
 20
0.059313
  0
VERTEX
  8
EBENE_1
 62
    39
  6
CONTINUOUS
 10
-0.074547
 20
0.059340
  0
VERTEX
  8
EBENE_1
 62
    39
  6
CONTINUOUS
 10
-0.085375
 20
0.059910
  0
VERTEX
  8
EBENE_1
 62
    39
  6
CONTINUOUS
 10
-0.096681
 20
0.061019
  0
VERTEX
  8
EBENE_1
 62
    39
  6
CONTINUOUS
 10
-0.108432
 20
0.062666
  0
VERTEX
  8
EBENE_1
 62
    39
  6
CONTINUOUS
 10
-0.120600
 20
0.064848
  0
VERTEX
  8
EBENE_1
 62
    39
  6
CONTINUOUS
 10
-0.133152
 20
0.067564
  0
VERTEX
  8
EBENE_1
 62
    39
  6
CONTINUOUS
 10
-0.146058
 20
0.070811
  0
VERTEX
  8
EBENE_1
 62
    39
  6
CONTINUOUS
 10
-0.159288
 20
0.074587
  0
VERTEX
  8
EBENE_1
 62
    39
  6
CONTINUOUS
 10
-0.172809
 20
0.078890
  0
VERTEX
  8
EBENE_1
 62
    39
  6
CONTINUOUS
 10
-0.186592
 20
0.083717
  0
VERTEX
  8
EBENE_1
 62
    39
  6
CONTINUOUS
 10
-0.200605
 20
0.089068
  0
VERTEX
  8
EBENE_1
 62
    39
  6
CONTINUOUS
 10
-0.214818
 20
0.094939
  0
VERTEX
  8
EBENE_1
 62
    39
  6
CONTINUOUS
 10
-0.229200
 20
0.101328
  0
VERTEX
  8
EBENE_1
 62
    39
  6
CONTINUOUS
 10
-0.243720
 20
0.108233
  0
VERTEX
  8
EBENE_1
 62
    39
  6
CONTINUOUS
 10
-0.258346
 20
0.115653
  0
VERTEX
  8
EBENE_1
 62
    39
  6
CONTINUOUS
 10
-0.273049
 20
0.123585
  0
VERTEX
  8
EBENE_1
 62
    39
  6
CONTINUOUS
 10
-0.287798
 20
0.132026
  0
VERTEX
  8
EBENE_1
 62
    39
  6
CONTINUOUS
 10
-0.302560
 20
0.140975
  0
VERTEX
  8
EBENE_1
 62
    39
  6
CONTINUOUS
 10
-0.317307
 20
0.150430
  0
VERTEX
  8
EBENE_1
 62
    39
  6
CONTINUOUS
 10
-0.332006
 20
0.160388
  0
VERTEX
  8
EBENE_1
 62
    39
  6
CONTINUOUS
 10
-0.346627
 20
0.170847
  0
VERTEX
  8
EBENE_1
 62
    39
  6
CONTINUOUS
 10
-0.361139
 20
0.181805
  0
VERTEX
  8
EBENE_1
 62
    39
  6
CONTINUOUS
 10
-0.375511
 20
0.193260
  0
VERTEX
  8
EBENE_1
 62
    39
  6
CONTINUOUS
 10
-0.389713
 20
0.205210
  0
VERTEX
  8
EBENE_1
 62
    39
  6
CONTINUOUS
 10
-0.403713
 20
0.217653
  0
VERTEX
  8
EBENE_1
 62
    39
  6
CONTINUOUS
 10
-0.417481
 20
0.230586
  0
VERTEX
  8
EBENE_1
 62
    39
  6
CONTINUOUS
 10
-0.430985
 20
0.244008
  0
VERTEX
  8
EBENE_1
 62
    39
  6
CONTINUOUS
 10
-0.444195
 20
0.257916
  0
VERTEX
  8
EBENE_1
 62
    39
  6
CONTINUOUS
 10
-0.457081
 20
0.272308
  0
VERTEX
  8
EBENE_1
 62
    39
  6
CONTINUOUS
 10
-0.469610
 20
0.287182
  0
VERTEX
  8
EBENE_1
 62
    39
  6
CONTINUOUS
 10
-0.481753
 20
0.302535
  0
VERTEX
  8
EBENE_1
 62
    39
  6
CONTINUOUS
 10
-0.493479
 20
0.318367
  0
VERTEX
  8
EBENE_1
 62
    39
  6
CONTINUOUS
 10
-0.504756
 20
0.334674
  0
VERTEX
  8
EBENE_1
 62
    39
  6
CONTINUOUS
 10
-0.515553
 20
0.351454
  0
VERTEX
  8
EBENE_1
 62
    39
  6
CONTINUOUS
 10
-0.525841
 20
0.368705
  0
VERTEX
  8
EBENE_1
 62
    39
  6
CONTINUOUS
 10
-0.535588
 20
0.386426
  0
VERTEX
  8
EBENE_1
 62
    39
  6
CONTINUOUS
 10
-0.544762
 20
0.404614
  0
VERTEX
  8
EBENE_1
 62
    39
  6
CONTINUOUS
 10
-0.553334
 20
0.423266
  0
VERTEX
  8
EBENE_1
 62
    39
  6
CONTINUOUS
 10
-0.561273
 20
0.442381
  0
VERTEX
  8
EBENE_1
 62
    39
  6
CONTINUOUS
 10
-0.568547
 20
0.461957
  0
SEQEND
  8
0
  0
POLYLINE
  8
EBENE_1
 62
    39
  6
CONTINUOUS
 66
     1
 40
0.003000
 41
0.003000
  0
VERTEX
  8
EBENE_1
 62
    39
  6
CONTINUOUS
 10
-0.568547
 20
0.461957
  0
VERTEX
  8
EBENE_1
 62
    39
  6
CONTINUOUS
 10
-0.572021
 20
0.484081
  0
VERTEX
  8
EBENE_1
 62
    39
  6
CONTINUOUS
 10
-0.573463
 20
0.505171
  0
VERTEX
  8
EBENE_1
 62
    39
  6
CONTINUOUS
 10
-0.572981
 20
0.525154
  0
VERTEX
  8
EBENE_1
 62
    39
  6
CONTINUOUS
 10
-0.570678
 20
0.543955
  0
VERTEX
  8
EBENE_1
 62
    39
  6
CONTINUOUS
 10
-0.566661
 20
0.561502
  0
VERTEX
  8
EBENE_1
 62
    39
  6
CONTINUOUS
 10
-0.561033
 20
0.577719
  0
VERTEX
  8
EBENE_1
 62
    39
  6
CONTINUOUS
 10
-0.553902
 20
0.592533
  0
VERTEX
  8
EBENE_1
 62
    39
  6
CONTINUOUS
 10
-0.545371
 20
0.605871
  0
VERTEX
  8
EBENE_1
 62
    39
  6
CONTINUOUS
 10
-0.535547
 20
0.617658
  0
VERTEX
  8
EBENE_1
 62
    39
  6
CONTINUOUS
 10
-0.524533
 20
0.627820
  0
VERTEX
  8
EBENE_1
 62
    39
  6
CONTINUOUS
 10
-0.512436
 20
0.636285
  0
VERTEX
  8
EBENE_1
 62
    39
  6
CONTINUOUS
 10
-0.499361
 20
0.642977
  0
VERTEX
  8
EBENE_1
 62
    39
  6
CONTINUOUS
 10
-0.485413
 20
0.647823
  0
SEQEND
  8
0
  0
POLYLINE
  8
EBENE_1
 62
    39
  6
CONTINUOUS
 66
     1
 40
0.003000
 41
0.003000
  0
VERTEX
  8
EBENE_1
 62
    39
  6
CONTINUOUS
 10
-0.485413
 20
0.647823
  0
VERTEX
  8
EBENE_1
 62
    39
  6
CONTINUOUS
 10
-0.140709
 20
0.739744
  0
SEQEND
  8
0
  0
POLYLINE
  8
EBENE_1
 62
    39
  6
CONTINUOUS
 66
     1
 40
0.003000
 41
0.003000
  0
VERTEX
  8
EBENE_1
 62
    39
  6
CONTINUOUS
 10
-0.140709
 20
0.739744
  0
VERTEX
  8
EBENE_1
 62
    39
  6
CONTINUOUS
 10
-0.118472
 20
0.744017
  0
VERTEX
  8
EBENE_1
 62
    39
  6
CONTINUOUS
 10
-0.100697
 20
0.743914
  0
VERTEX
  8
EBENE_1
 62
    39
  6
CONTINUOUS
 10
-0.086572
 20
0.740128
  0
VERTEX
  8
EBENE_1
 62
    39
  6
CONTINUOUS
 10
-0.075285
 20
0.733354
  0
VERTEX
  8
EBENE_1
 62
    39
  6
CONTINUOUS
 10
-0.066026
 20
0.724284
  0
VERTEX
  8
EBENE_1
 62
    39
  6
CONTINUOUS
 10
-0.057983
 20
0.713612
  0
VERTEX
  8
EBENE_1
 62
    39
  6
CONTINUOUS
 10
-0.050346
 20
0.702032
  0
VERTEX
  8
EBENE_1
 62
    39
  6
CONTINUOUS
 10
-0.042303
 20
0.690237
  0
VERTEX
  8
EBENE_1
 62
    39
  6
CONTINUOUS
 10
-0.033043
 20
0.678920
  0
VERTEX
  8
EBENE_1
 62
    39
  6
CONTINUOUS
 10
-0.021756
 20
0.668776
  0
SEQEND
  8
0
  0
POLYLINE
  8
EBENE_1
 62
    39
  6
CONTINUOUS
 66
     1
 40
0.003000
 41
0.003000
 70
     1
  0
VERTEX
  8
EBENE_1
 62
    39
  6
CONTINUOUS
 10
-0.021756
 20
0.666748
  0
VERTEX
  8
EBENE_1
 62
    39
  6
CONTINUOUS
 10
0.290500
 20
0.155102
  0
VERTEX
  8
EBENE_1
 62
    39
  6
CONTINUOUS
 10
-0.035949
 20
0.069941
  0
VERTEX
  8
EBENE_1
 62
    39
  6
CONTINUOUS
 10
-0.044413
 20
0.068371
  0
VERTEX
  8
EBENE_1
 62
    39
  6
CONTINUOUS
 10
-0.053470
 20
0.067339
  0
VERTEX
  8
EBENE_1
 62
    39
  6
CONTINUOUS
 10
-0.063088
 20
0.066842
  0
VERTEX
  8
EBENE_1
 62
    39
  6
CONTINUOUS
 10
-0.073238
 20
0.066879
  0
VERTEX
  8
EBENE_1
 62
    39
  6
CONTINUOUS
 10
-0.083890
 20
0.067448
  0
VERTEX
  8
EBENE_1
 62
    39
  6
CONTINUOUS
 10
-0.095011
 20
0.068546
  0
VERTEX
  8
EBENE_1
 62
    39
  6
CONTINUOUS
 10
-0.106573
 20
0.070172
  0
VERTEX
  8
EBENE_1
 62
    39
  6
CONTINUOUS
 10
-0.118545
 20
0.072323
  0
VERTEX
  8
EBENE_1
 62
    39
  6
CONTINUOUS
 10
-0.130896
 20
0.074998
  0
VERTEX
  8
EBENE_1
 62
    39
  6
CONTINUOUS
 10
-0.143596
 20
0.078195
  0
VERTEX
  8
EBENE_1
 62
    39
  6
CONTINUOUS
 10
-0.156614
 20
0.081911
  0
VERTEX
  8
EBENE_1
 62
    39
  6
CONTINUOUS
 10
-0.169920
 20
0.086145
  0
VERTEX
  8
EBENE_1
 62
    39
  6
CONTINUOUS
 10
-0.183484
 20
0.090895
  0
VERTEX
  8
EBENE_1
 62
    39
  6
CONTINUOUS
 10
-0.197275
 20
0.096158
  0
VERTEX
  8
EBENE_1
 62
    39
  6
CONTINUOUS
 10
-0.211262
 20
0.101933
  0
VERTEX
  8
EBENE_1
 62
    39
  6
CONTINUOUS
 10
-0.225415
 20
0.108218
  0
VERTEX
  8
EBENE_1
 62
    39
  6
CONTINUOUS
 10
-0.239704
 20
0.115010
  0
VERTEX
  8
EBENE_1
 62
    39
  6
CONTINUOUS
 10
-0.254098
 20
0.122308
  0
VERTEX
  8
EBENE_1
 62
    39
  6
CONTINUOUS
 10
-0.268567
 20
0.130110
  0
VERTEX
  8
EBENE_1
 62
    39
  6
CONTINUOUS
 10
-0.283081
 20
0.138414
  0
VERTEX
  8
EBENE_1
 62
    39
  6
CONTINUOUS
 10
-0.297608
 20
0.147218
  0
VERTEX
  8
EBENE_1
 62
    39
  6
CONTINUOUS
 10
-0.312118
 20
0.156519
  0
VERTEX
  8
EBENE_1
 62
    39
  6
CONTINUOUS
 10
-0.326582
 20
0.166316
  0
VERTEX
  8
EBENE_1
 62
    39
  6
CONTINUOUS
 10
-0.340968
 20
0.176607
  0
VERTEX
  8
EBENE_1
 62
    39
  6
CONTINUOUS
 10
-0.355246
 20
0.187389
  0
VERTEX
  8
EBENE_1
 62
    39
  6
CONTINUOUS
 10
-0.369386
 20
0.198662
  0
VERTEX
  8
EBENE_1
 62
    39
  6
CONTINUOUS
 10
-0.383357
 20
0.210422
  0
VERTEX
  8
EBENE_1
 62
    39
  6
CONTINUOUS
 10
-0.397129
 20
0.222668
  0
VERTEX
  8
EBENE_1
 62
    39
  6
CONTINUOUS
 10
-0.410671
 20
0.235398
  0
VERTEX
  8
EBENE_1
 62
    39
  6
CONTINUOUS
 10
-0.423953
 20
0.248610
  0
VERTEX
  8
EBENE_1
 62
    39
  6
CONTINUOUS
 10
-0.436944
 20
0.262301
  0
VERTEX
  8
EBENE_1
 62
    39
  6
CONTINUOUS
 10
-0.449614
 20
0.276471
  0
VERTEX
  8
EBENE_1
 62
    39
  6
CONTINUOUS
 10
-0.461933
 20
0.291116
  0
VERTEX
  8
EBENE_1
 62
    39
  6
CONTINUOUS
 10
-0.473870
 20
0.306236
  0
VERTEX
  8
EBENE_1
 62
    39
  6
CONTINUOUS
 10
-0.485394
 20
0.321827
  0
VERTEX
  8
EBENE_1
 62
    39
  6
CONTINUOUS
 10
-0.496475
 20
0.337888
  0
VERTEX
  8
EBENE_1
 62
    39
  6
CONTINUOUS
 10
-0.507083
 20
0.354417
  0
VERTEX
  8
EBENE_1
 62
    39
  6
CONTINUOUS
 10
-0.517188
 20
0.371412
  0
VERTEX
  8
EBENE_1
 62
    39
  6
CONTINUOUS
 10
-0.526758
 20
0.388871
  0
VERTEX
  8
EBENE_1
 62
    39
  6
CONTINUOUS
 10
-0.535763
 20
0.406792
  0
VERTEX
  8
EBENE_1
 62
    39
  6
CONTINUOUS
 10
-0.544173
 20
0.425173
  0
VERTEX
  8
EBENE_1
 62
    39
  6
CONTINUOUS
 10
-0.551958
 20
0.444012
  0
VERTEX
  8
EBENE_1
 62
    39
  6
CONTINUOUS
 10
-0.559087
 20
0.463307
  0
VERTEX
  8
EBENE_1
 62
    39
  6
CONTINUOUS
 10
-0.559087
 20
0.463307
  0
VERTEX
  8
EBENE_1
 62
    39
  6
CONTINUOUS
 10
-0.562571
 20
0.484976
  0
VERTEX
  8
EBENE_1
 62
    39
  6
CONTINUOUS
 10
-0.564049
 20
0.505636
  0
VERTEX
  8
EBENE_1
 62
    39
  6
CONTINUOUS
 10
-0.563627
 20
0.525217
  0
VERTEX
  8
EBENE_1
 62
    39
  6
CONTINUOUS
 10
-0.561408
 20
0.543645
  0
VERTEX
  8
EBENE_1
 62
    39
  6
CONTINUOUS
 10
-0.557498
 20
0.560850
  0
VERTEX
  8
EBENE_1
 62
    39
  6
CONTINUOUS
 10
-0.552004
 20
0.576760
  0
VERTEX
  8
EBENE_1
 62
    39
  6
CONTINUOUS
 10
-0.545028
 20
0.591301
  0
VERTEX
  8
EBENE_1
 62
    39
  6
CONTINUOUS
 10
-0.536678
 20
0.604403
  0
VERTEX
  8
EBENE_1
 62
    39
  6
CONTINUOUS
 10
-0.527058
 20
0.615992
  0
VERTEX
  8
EBENE_1
 62
    39
  6
CONTINUOUS
 10
-0.516272
 20
0.625999
  0
VERTEX
  8
EBENE_1
 62
    39
  6
CONTINUOUS
 10
-0.504428
 20
0.634349
  0
VERTEX
  8
EBENE_1
 62
    39
  6
CONTINUOUS
 10
-0.491629
 20
0.640972
  0
VERTEX
  8
EBENE_1
 62
    39
  6
CONTINUOUS
 10
-0.477980
 20
0.645795
  0
VERTEX
  8
EBENE_1
 62
    39
  6
CONTINUOUS
 10
-0.138685
 20
0.736366
  0
VERTEX
  8
EBENE_1
 62
    39
  6
CONTINUOUS
 10
-0.116815
 20
0.740639
  0
VERTEX
  8
EBENE_1
 62
    39
  6
CONTINUOUS
 10
-0.099338
 20
0.740545
  0
VERTEX
  8
EBENE_1
 62
    39
  6
CONTINUOUS
 10
-0.085453
 20
0.736785
  0
VERTEX
  8
EBENE_1
 62
    39
  6
CONTINUOUS
 10
-0.074362
 20
0.730061
  0
VERTEX
  8
EBENE_1
 62
    39
  6
CONTINUOUS
 10
-0.065266
 20
0.721073
  0
VERTEX
  8
EBENE_1
 62
    39
  6
CONTINUOUS
 10
-0.057367
 20
0.710525
  0
VERTEX
  8
EBENE_1
 62
    39
  6
CONTINUOUS
 10
-0.049865
 20
0.699116
  0
VERTEX
  8
EBENE_1
 62
    39
  6
CONTINUOUS
 10
-0.041962
 20
0.687550
  0
VERTEX
  8
EBENE_1
 62
    39
  6
CONTINUOUS
 10
-0.032859
 20
0.676526
  0
SEQEND
  8
0
  0
POLYLINE
  8
EBENE_1
 62
    39
  6
CONTINUOUS
 66
     1
 40
0.003000
 41
0.003000
  0
VERTEX
  8
EBENE_1
 62
    39
  6
CONTINUOUS
 10
-0.298870
 20
0.643091
  0
VERTEX
  8
EBENE_1
 62
    39
  6
CONTINUOUS
 10
-0.293187
 20
0.644568
  0
VERTEX
  8
EBENE_1
 62
    39
  6
CONTINUOUS
 10
-0.289006
 20
0.648599
  0
VERTEX
  8
EBENE_1
 62
    39
  6
CONTINUOUS
 10
-0.287378
 20
0.654583
  0
SEQEND
  8
0
  0
POLYLINE
  8
EBENE_1
 62
    39
  6
CONTINUOUS
 66
     1
 40
0.003000
 41
0.003000
  0
VERTEX
  8
EBENE_1
 62
    39
  6
CONTINUOUS
 10
-0.287378
 20
0.654583
  0
VERTEX
  8
EBENE_1
 62
    39
  6
CONTINUOUS
 10
-0.289006
 20
0.660090
  0
VERTEX
  8
EBENE_1
 62
    39
  6
CONTINUOUS
 10
-0.293187
 20
0.663945
  0
VERTEX
  8
EBENE_1
 62
    39
  6
CONTINUOUS
 10
-0.298870
 20
0.665398
  0
SEQEND
  8
0
  0
POLYLINE
  8
EBENE_1
 62
    39
  6
CONTINUOUS
 66
     1
 40
0.003000
 41
0.003000
  0
VERTEX
  8
EBENE_1
 62
    39
  6
CONTINUOUS
 10
-0.298870
 20
0.665398
  0
VERTEX
  8
EBENE_1
 62
    39
  6
CONTINUOUS
 10
-0.304376
 20
0.663945
  0
VERTEX
  8
EBENE_1
 62
    39
  6
CONTINUOUS
 10
-0.308230
 20
0.660090
  0
VERTEX
  8
EBENE_1
 62
    39
  6
CONTINUOUS
 10
-0.309681
 20
0.654583
  0
SEQEND
  8
0
  0
POLYLINE
  8
EBENE_1
 62
    39
  6
CONTINUOUS
 66
     1
 40
0.003000
 41
0.003000
  0
VERTEX
  8
EBENE_1
 62
    39
  6
CONTINUOUS
 10
-0.309681
 20
0.654583
  0
VERTEX
  8
EBENE_1
 62
    39
  6
CONTINUOUS
 10
-0.308230
 20
0.648599
  0
VERTEX
  8
EBENE_1
 62
    39
  6
CONTINUOUS
 10
-0.304376
 20
0.644568
  0
VERTEX
  8
EBENE_1
 62
    39
  6
CONTINUOUS
 10
-0.298870
 20
0.643091
  0
SEQEND
  8
0
  0
POLYLINE
  8
EBENE_1
 62
    39
  6
CONTINUOUS
 66
     1
 40
0.003000
 41
0.003000
  0
VERTEX
  8
EBENE_1
 62
    39
  6
CONTINUOUS
 10
-0.177209
 20
0.668776
  0
VERTEX
  8
EBENE_1
 62
    39
  6
CONTINUOUS
 10
-0.171701
 20
0.670403
  0
VERTEX
  8
EBENE_1
 62
    39
  6
CONTINUOUS
 10
-0.167846
 20
0.674585
  0
VERTEX
  8
EBENE_1
 62
    39
  6
CONTINUOUS
 10
-0.166394
 20
0.680268
  0
SEQEND
  8
0
  0
POLYLINE
  8
EBENE_1
 62
    39
  6
CONTINUOUS
 66
     1
 40
0.003000
 41
0.003000
  0
VERTEX
  8
EBENE_1
 62
    39
  6
CONTINUOUS
 10
-0.166394
 20
0.680268
  0
VERTEX
  8
EBENE_1
 62
    39
  6
CONTINUOUS
 10
-0.167846
 20
0.685950
  0
VERTEX
  8
EBENE_1
 62
    39
  6
CONTINUOUS
 10
-0.171701
 20
0.690129
  0
VERTEX
  8
EBENE_1
 62
    39
  6
CONTINUOUS
 10
-0.177209
 20
0.691756
  0
SEQEND
  8
0
  0
POLYLINE
  8
EBENE_1
 62
    39
  6
CONTINUOUS
 66
     1
 40
0.003000
 41
0.003000
  0
VERTEX
  8
EBENE_1
 62
    39
  6
CONTINUOUS
 10
-0.177209
 20
0.691756
  0
VERTEX
  8
EBENE_1
 62
    39
  6
CONTINUOUS
 10
-0.183192
 20
0.690129
  0
VERTEX
  8
EBENE_1
 62
    39
  6
CONTINUOUS
 10
-0.187224
 20
0.685950
  0
VERTEX
  8
EBENE_1
 62
    39
  6
CONTINUOUS
 10
-0.188701
 20
0.680268
  0
SEQEND
  8
0
  0
POLYLINE
  8
EBENE_1
 62
    39
  6
CONTINUOUS
 66
     1
 40
0.003000
 41
0.003000
  0
VERTEX
  8
EBENE_1
 62
    39
  6
CONTINUOUS
 10
-0.188701
 20
0.680268
  0
VERTEX
  8
EBENE_1
 62
    39
  6
CONTINUOUS
 10
-0.187224
 20
0.674585
  0
VERTEX
  8
EBENE_1
 62
    39
  6
CONTINUOUS
 10
-0.183192
 20
0.670403
  0
VERTEX
  8
EBENE_1
 62
    39
  6
CONTINUOUS
 10
-0.177209
 20
0.668776
  0
SEQEND
  8
0
  0
POLYLINE
  8
EBENE_1
 62
    39
  6
CONTINUOUS
 66
     1
 40
0.003000
 41
0.003000
  0
VERTEX
  8
EBENE_1
 62
    39
  6
CONTINUOUS
 10
-0.058929
 20
0.623492
  0
VERTEX
  8
EBENE_1
 62
    39
  6
CONTINUOUS
 10
-0.052945
 20
0.624969
  0
VERTEX
  8
EBENE_1
 62
    39
  6
CONTINUOUS
 10
-0.048914
 20
0.629000
  0
VERTEX
  8
EBENE_1
 62
    39
  6
CONTINUOUS
 10
-0.047437
 20
0.634984
  0
SEQEND
  8
0
  0
POLYLINE
  8
EBENE_1
 62
    39
  6
CONTINUOUS
 66
     1
 40
0.003000
 41
0.003000
  0
VERTEX
  8
EBENE_1
 62
    39
  6
CONTINUOUS
 10
-0.047437
 20
0.634984
  0
VERTEX
  8
EBENE_1
 62
    39
  6
CONTINUOUS
 10
-0.048914
 20
0.640489
  0
VERTEX
  8
EBENE_1
 62
    39
  6
CONTINUOUS
 10
-0.052945
 20
0.644343
  0
VERTEX
  8
EBENE_1
 62
    39
  6
CONTINUOUS
 10
-0.058929
 20
0.645795
  0
SEQEND
  8
0
  0
POLYLINE
  8
EBENE_1
 62
    39
  6
CONTINUOUS
 66
     1
 40
0.003000
 41
0.003000
  0
VERTEX
  8
EBENE_1
 62
    39
  6
CONTINUOUS
 10
-0.058929
 20
0.645795
  0
VERTEX
  8
EBENE_1
 62
    39
  6
CONTINUOUS
 10
-0.064611
 20
0.644343
  0
VERTEX
  8
EBENE_1
 62
    39
  6
CONTINUOUS
 10
-0.068791
 20
0.640489
  0
VERTEX
  8
EBENE_1
 62
    39
  6
CONTINUOUS
 10
-0.070417
 20
0.634984
  0
SEQEND
  8
0
  0
POLYLINE
  8
EBENE_1
 62
    39
  6
CONTINUOUS
 66
     1
 40
0.003000
 41
0.003000
  0
VERTEX
  8
EBENE_1
 62
    39
  6
CONTINUOUS
 10
-0.070417
 20
0.634984
  0
VERTEX
  8
EBENE_1
 62
    39
  6
CONTINUOUS
 10
-0.068791
 20
0.629000
  0
VERTEX
  8
EBENE_1
 62
    39
  6
CONTINUOUS
 10
-0.064611
 20
0.624969
  0
VERTEX
  8
EBENE_1
 62
    39
  6
CONTINUOUS
 10
-0.058929
 20
0.623492
  0
SEQEND
  8
0
  0
POLYLINE
  8
EBENE_1
 62
    39
  6
CONTINUOUS
 66
     1
 40
0.003000
 41
0.003000
 70
     1
  0
VERTEX
  8
EBENE_1
 62
    39
  6
CONTINUOUS
 10
-0.566520
 20
0.456547
  0
VERTEX
  8
EBENE_1
 62
    39
  6
CONTINUOUS
 10
-0.763882
 20
0.402476
  0
VERTEX
  8
EBENE_1
 62
    39
  6
CONTINUOUS
 10
-0.778371
 20
0.399191
  0
VERTEX
  8
EBENE_1
 62
    39
  6
CONTINUOUS
 10
-0.793948
 20
0.396806
  0
VERTEX
  8
EBENE_1
 62
    39
  6
CONTINUOUS
 10
-0.810399
 20
0.395321
  0
VERTEX
  8
EBENE_1
 62
    39
  6
CONTINUOUS
 10
-0.827510
 20
0.394739
  0
VERTEX
  8
EBENE_1
 62
    39
  6
CONTINUOUS
 10
-0.845065
 20
0.395060
  0
VERTEX
  8
EBENE_1
 62
    39
  6
CONTINUOUS
 10
-0.862850
 20
0.396286
  0
VERTEX
  8
EBENE_1
 62
    39
  6
CONTINUOUS
 10
-0.880651
 20
0.398417
  0
VERTEX
  8
EBENE_1
 62
    39
  6
CONTINUOUS
 10
-0.898252
 20
0.401455
  0
VERTEX
  8
EBENE_1
 62
    39
  6
CONTINUOUS
 10
-0.915439
 20
0.405402
  0
VERTEX
  8
EBENE_1
 62
    39
  6
CONTINUOUS
 10
-0.931999
 20
0.410258
  0
VERTEX
  8
EBENE_1
 62
    39
  6
CONTINUOUS
 10
-0.947715
 20
0.416024
  0
VERTEX
  8
EBENE_1
 62
    39
  6
CONTINUOUS
 10
-0.962373
 20
0.422702
  0
VERTEX
  8
EBENE_1
 62
    39
  6
CONTINUOUS
 10
-0.975759
 20
0.430293
  0
VERTEX
  8
EBENE_1
 62
    39
  6
CONTINUOUS
 10
-0.987658
 20
0.438798
  0
VERTEX
  8
EBENE_1
 62
    39
  6
CONTINUOUS
 10
-0.997856
 20
0.448218
  0
VERTEX
  8
EBENE_1
 62
    39
  6
CONTINUOUS
 10
-1.006137
 20
0.458554
  0
VERTEX
  8
EBENE_1
 62
    39
  6
CONTINUOUS
 10
-1.012288
 20
0.469809
  0
VERTEX
  8
EBENE_1
 62
    39
  6
CONTINUOUS
 10
-1.016093
 20
0.481982
  0
VERTEX
  8
EBENE_1
 62
    39
  6
CONTINUOUS
 10
-1.017339
 20
0.495075
  0
VERTEX
  8
EBENE_1
 62
    39
  6
CONTINUOUS
 10
-1.017339
 20
0.668776
  0
VERTEX
  8
EBENE_1
 62
    39
  6
CONTINUOUS
 10
-0.909870
 20
0.716764
  0
VERTEX
  8
EBENE_1
 62
    39
  6
CONTINUOUS
 10
-0.885861
 20
0.712507
  0
VERTEX
  8
EBENE_1
 62
    39
  6
CONTINUOUS
 10
-0.863722
 20
0.708119
  0
VERTEX
  8
EBENE_1
 62
    39
  6
CONTINUOUS
 10
-0.843339
 20
0.703572
  0
VERTEX
  8
EBENE_1
 62
    39
  6
CONTINUOUS
 10
-0.824595
 20
0.698838
  0
VERTEX
  8
EBENE_1
 62
    39
  6
CONTINUOUS
 10
-0.807376
 20
0.693889
  0
VERTEX
  8
EBENE_1
 62
    39
  6
CONTINUOUS
 10
-0.791566
 20
0.688697
  0
VERTEX
  8
EBENE_1
 62
    39
  6
CONTINUOUS
 10
-0.777050
 20
0.683234
  0
VERTEX
  8
EBENE_1
 62
    39
  6
CONTINUOUS
 10
-0.763711
 20
0.677472
  0
VERTEX
  8
EBENE_1
 62
    39
  6
CONTINUOUS
 10
-0.751435
 20
0.671383
  0
VERTEX
  8
EBENE_1
 62
    39
  6
CONTINUOUS
 10
-0.740106
 20
0.664941
  0
VERTEX
  8
EBENE_1
 62
    39
  6
CONTINUOUS
 10
-0.729609
 20
0.658115
  0
VERTEX
  8
EBENE_1
 62
    39
  6
CONTINUOUS
 10
-0.719828
 20
0.650880
  0
VERTEX
  8
EBENE_1
 62
    39
  6
CONTINUOUS
 10
-0.710648
 20
0.643206
  0
VERTEX
  8
EBENE_1
 62
    39
  6
CONTINUOUS
 10
-0.701953
 20
0.635066
  0
VERTEX
  8
EBENE_1
 62
    39
  6
CONTINUOUS
 10
-0.693628
 20
0.626432
  0
VERTEX
  8
EBENE_1
 62
    39
  6
CONTINUOUS
 10
-0.685557
 20
0.617276
  0
VERTEX
  8
EBENE_1
 62
    39
  6
CONTINUOUS
 10
-0.677625
 20
0.607571
  0
VERTEX
  8
EBENE_1
 62
    39
  6
CONTINUOUS
 10
-0.669716
 20
0.597288
  0
VERTEX
  8
EBENE_1
 62
    39
  6
CONTINUOUS
 10
-0.661716
 20
0.586399
  0
VERTEX
  8
EBENE_1
 62
    39
  6
CONTINUOUS
 10
-0.653508
 20
0.574877
  0
VERTEX
  8
EBENE_1
 62
    39
  6
CONTINUOUS
 10
-0.644977
 20
0.562693
  0
VERTEX
  8
EBENE_1
 62
    39
  6
CONTINUOUS
 10
-0.636008
 20
0.549820
  0
VERTEX
  8
EBENE_1
 62
    39
  6
CONTINUOUS
 10
-0.626484
 20
0.536230
  0
VERTEX
  8
EBENE_1
 62
    39
  6
CONTINUOUS
 10
-0.616292
 20
0.521895
  0
VERTEX
  8
EBENE_1
 62
    39
  6
CONTINUOUS
 10
-0.605315
 20
0.506787
  0
VERTEX
  8
EBENE_1
 62
    39
  6
CONTINUOUS
 10
-0.593437
 20
0.490879
  0
VERTEX
  8
EBENE_1
 62
    39
  6
CONTINUOUS
 10
-0.580544
 20
0.474141
  0
VERTEX
  8
EBENE_1
 62
    39
  6
CONTINUOUS
 10
-0.566520
 20
0.456547
  0
SEQEND
  8
0
  0
POLYLINE
  8
EBENE_1
 62
    39
  6
CONTINUOUS
 66
     1
 40
0.003000
 41
0.003000
 70
     1
  0
VERTEX
  8
EBENE_1
 62
    39
  6
CONTINUOUS
 10
-0.571252
 20
0.455197
  0
VERTEX
  8
EBENE_1
 62
    39
  6
CONTINUOUS
 10
-0.757795
 20
0.409913
  0
VERTEX
  8
EBENE_1
 62
    39
  6
CONTINUOUS
 10
-0.772189
 20
0.406590
  0
VERTEX
  8
EBENE_1
 62
    39
  6
CONTINUOUS
 10
-0.787692
 20
0.404095
  0
VERTEX
  8
EBENE_1
 62
    39
  6
CONTINUOUS
 10
-0.804088
 20
0.402440
  0
VERTEX
  8
EBENE_1
 62
    39
  6
CONTINUOUS
 10
-0.821160
 20
0.401633
  0
VERTEX
  8
EBENE_1
 62
    39
  6
CONTINUOUS
 10
-0.838693
 20
0.401685
  0
VERTEX
  8
EBENE_1
 62
    39
  6
CONTINUOUS
 10
-0.856468
 20
0.402603
  0
VERTEX
  8
EBENE_1
 62
    39
  6
CONTINUOUS
 10
-0.874271
 20
0.404398
  0
VERTEX
  8
EBENE_1
 62
    39
  6
CONTINUOUS
 10
-0.891885
 20
0.407080
  0
VERTEX
  8
EBENE_1
 62
    39
  6
CONTINUOUS
 10
-0.909093
 20
0.410657
  0
VERTEX
  8
EBENE_1
 62
    39
  6
CONTINUOUS
 10
-0.925679
 20
0.415140
  0
VERTEX
  8
EBENE_1
 62
    39
  6
CONTINUOUS
 10
-0.941426
 20
0.420537
  0
VERTEX
  8
EBENE_1
 62
    39
  6
CONTINUOUS
 10
-0.956119
 20
0.426858
  0
VERTEX
  8
EBENE_1
 62
    39
  6
CONTINUOUS
 10
-0.969540
 20
0.434113
  0
VERTEX
  8
EBENE_1
 62
    39
  6
CONTINUOUS
 10
-0.981474
 20
0.442311
  0
VERTEX
  8
EBENE_1
 62
    39
  6
CONTINUOUS
 10
-0.991704
 20
0.451461
  0
VERTEX
  8
EBENE_1
 62
    39
  6
CONTINUOUS
 10
-1.000014
 20
0.461573
  0
VERTEX
  8
EBENE_1
 62
    39
  6
CONTINUOUS
 10
-1.006186
 20
0.472657
  0
VERTEX
  8
EBENE_1
 62
    39
  6
CONTINUOUS
 10
-1.010006
 20
0.484721
  0
VERTEX
  8
EBENE_1
 62
    39
  6
CONTINUOUS
 10
-1.011256
 20
0.497776
  0
VERTEX
  8
EBENE_1
 62
    39
  6
CONTINUOUS
 10
-1.011256
 20
0.670130
  0
VERTEX
  8
EBENE_1
 62
    39
  6
CONTINUOUS
 10
-0.915280
 20
0.718791
  0
VERTEX
  8
EBENE_1
 62
    39
  6
CONTINUOUS
 10
-0.891235
 20
0.714480
  0
VERTEX
  8
EBENE_1
 62
    39
  6
CONTINUOUS
 10
-0.868996
 20
0.710069
  0
VERTEX
  8
EBENE_1
 62
    39
  6
CONTINUOUS
 10
-0.848455
 20
0.705526
  0
VERTEX
  8
EBENE_1
 62
    39
  6
CONTINUOUS
 10
-0.829505
 20
0.700820
  0
VERTEX
  8
EBENE_1
 62
    39
  6
CONTINUOUS
 10
-0.812037
 20
0.695918
  0
VERTEX
  8
EBENE_1
 62
    39
  6
CONTINUOUS
 10
-0.795943
 20
0.690788
  0
VERTEX
  8
EBENE_1
 62
    39
  6
CONTINUOUS
 10
-0.781116
 20
0.685398
  0
VERTEX
  8
EBENE_1
 62
    39
  6
CONTINUOUS
 10
-0.767447
 20
0.679716
  0
VERTEX
  8
EBENE_1
 62
    39
  6
CONTINUOUS
 10
-0.754830
 20
0.673709
  0
VERTEX
  8
EBENE_1
 62
    39
  6
CONTINUOUS
 10
-0.743155
 20
0.667346
  0
VERTEX
  8
EBENE_1
 62
    39
  6
CONTINUOUS
 10
-0.732315
 20
0.660595
  0
VERTEX
  8
EBENE_1
 62
    39
  6
CONTINUOUS
 10
-0.722202
 20
0.653422
  0
VERTEX
  8
EBENE_1
 62
    39
  6
CONTINUOUS
 10
-0.712709
 20
0.645796
  0
VERTEX
  8
EBENE_1
 62
    39
  6
CONTINUOUS
 10
-0.703727
 20
0.637686
  0
VERTEX
  8
EBENE_1
 62
    39
  6
CONTINUOUS
 10
-0.695148
 20
0.629058
  0
VERTEX
  8
EBENE_1
 62
    39
  6
CONTINUOUS
 10
-0.686865
 20
0.619880
  0
VERTEX
  8
EBENE_1
 62
    39
  6
CONTINUOUS
 10
-0.678770
 20
0.610121
  0
VERTEX
  8
EBENE_1
 62
    39
  6
CONTINUOUS
 10
-0.670754
 20
0.599749
  0
VERTEX
  8
EBENE_1
 62
    39
  6
CONTINUOUS
 10
-0.662710
 20
0.588730
  0
VERTEX
  8
EBENE_1
 62
    39
  6
CONTINUOUS
 10
-0.654531
 20
0.577034
  0
VERTEX
  8
EBENE_1
 62
    39
  6
CONTINUOUS
 10
-0.646107
 20
0.564627
  0
VERTEX
  8
EBENE_1
 62
    39
  6
CONTINUOUS
 10
-0.637332
 20
0.551478
  0
VERTEX
  8
EBENE_1
 62
    39
  6
CONTINUOUS
 10
-0.628097
 20
0.537555
  0
VERTEX
  8
EBENE_1
 62
    39
  6
CONTINUOUS
 10
-0.618295
 20
0.522825
  0
VERTEX
  8
EBENE_1
 62
    39
  6
CONTINUOUS
 10
-0.607817
 20
0.507256
  0
VERTEX
  8
EBENE_1
 62
    39
  6
CONTINUOUS
 10
-0.596556
 20
0.490817
  0
VERTEX
  8
EBENE_1
 62
    39
  6
CONTINUOUS
 10
-0.584403
 20
0.473474
  0
VERTEX
  8
EBENE_1
 62
    39
  6
CONTINUOUS
 10
-0.571252
 20
0.455197
  0
SEQEND
  8
0
  0
POLYLINE
  8
EBENE_1
 62
    39
  6
CONTINUOUS
 66
     1
 40
0.003000
 41
0.003000
 70
     1
  0
VERTEX
  8
EBENE_1
 62
    39
  6
CONTINUOUS
 10
-0.791591
 20
0.635657
  0
VERTEX
  8
EBENE_1
 62
    39
  6
CONTINUOUS
 10
-0.789164
 20
0.636283
  0
VERTEX
  8
EBENE_1
 62
    39
  6
CONTINUOUS
 10
-0.787488
 20
0.637961
  0
VERTEX
  8
EBENE_1
 62
    39
  6
CONTINUOUS
 10
-0.786862
 20
0.640390
  0
VERTEX
  8
EBENE_1
 62
    39
  6
CONTINUOUS
 10
-0.787488
 20
0.642992
  0
VERTEX
  8
EBENE_1
 62
    39
  6
CONTINUOUS
 10
-0.789164
 20
0.644994
  0
VERTEX
  8
EBENE_1
 62
    39
  6
CONTINUOUS
 10
-0.791591
 20
0.645795
  0
VERTEX
  8
EBENE_1
 62
    39
  6
CONTINUOUS
 10
-0.794020
 20
0.644994
  0
VERTEX
  8
EBENE_1
 62
    39
  6
CONTINUOUS
 10
-0.795697
 20
0.642992
  0
VERTEX
  8
EBENE_1
 62
    39
  6
CONTINUOUS
 10
-0.796323
 20
0.640390
  0
VERTEX
  8
EBENE_1
 62
    39
  6
CONTINUOUS
 10
-0.795697
 20
0.637961
  0
VERTEX
  8
EBENE_1
 62
    39
  6
CONTINUOUS
 10
-0.794020
 20
0.636283
  0
SEQEND
  8
0
  0
POLYLINE
  8
EBENE_1
 62
    39
  6
CONTINUOUS
 66
     1
 40
0.003000
 41
0.003000
  0
VERTEX
  8
EBENE_1
 62
    39
  6
CONTINUOUS
 10
-0.899059
 20
0.672835
  0
VERTEX
  8
EBENE_1
 62
    39
  6
CONTINUOUS
 10
-0.898583
 20
0.673684
  0
VERTEX
  8
EBENE_1
 62
    39
  6
CONTINUOUS
 10
-0.898407
 20
0.674686
  0
VERTEX
  8
EBENE_1
 62
    39
  6
CONTINUOUS
 10
-0.898382
 20
0.675535
  0
SEQEND
  8
0
  0
POLYLINE
  8
EBENE_1
 62
    39
  6
CONTINUOUS
 66
     1
 40
0.003000
 41
0.003000
  0
VERTEX
  8
EBENE_1
 62
    39
  6
CONTINUOUS
 10
-0.898382
 20
0.675535
  0
VERTEX
  8
EBENE_1
 62
    39
  6
CONTINUOUS
 10
-0.899008
 20
0.678139
  0
VERTEX
  8
EBENE_1
 62
    39
  6
CONTINUOUS
 10
-0.900685
 20
0.680141
  0
VERTEX
  8
EBENE_1
 62
    39
  6
CONTINUOUS
 10
-0.903114
 20
0.680941
  0
SEQEND
  8
0
  0
POLYLINE
  8
EBENE_1
 62
    39
  6
CONTINUOUS
 66
     1
 40
0.003000
 41
0.003000
 70
     1
  0
VERTEX
  8
EBENE_1
 62
    39
  6
CONTINUOUS
 10
-0.855126
 20
0.654583
  0
VERTEX
  8
EBENE_1
 62
    39
  6
CONTINUOUS
 10
-0.852697
 20
0.655209
  0
VERTEX
  8
EBENE_1
 62
    39
  6
CONTINUOUS
 10
-0.851020
 20
0.656886
  0
VERTEX
  8
EBENE_1
 62
    39
  6
CONTINUOUS
 10
-0.850394
 20
0.659315
  0
VERTEX
  8
EBENE_1
 62
    39
  6
CONTINUOUS
 10
-0.851020
 20
0.661741
  0
VERTEX
  8
EBENE_1
 62
    39
  6
CONTINUOUS
 10
-0.852697
 20
0.663418
  0
VERTEX
  8
EBENE_1
 62
    39
  6
CONTINUOUS
 10
-0.855126
 20
0.664043
  0
VERTEX
  8
EBENE_1
 62
    39
  6
CONTINUOUS
 10
-0.857553
 20
0.663418
  0
VERTEX
  8
EBENE_1
 62
    39
  6
CONTINUOUS
 10
-0.859232
 20
0.661741
  0
VERTEX
  8
EBENE_1
 62
    39
  6
CONTINUOUS
 10
-0.859858
 20
0.659315
  0
VERTEX
  8
EBENE_1
 62
    39
  6
CONTINUOUS
 10
-0.859232
 20
0.656886
  0
VERTEX
  8
EBENE_1
 62
    39
  6
CONTINUOUS
 10
-0.857553
 20
0.655209
  0
SEQEND
  8
0
  0
POLYLINE
  8
EBENE_1
 62
    39
  6
CONTINUOUS
 66
     1
 40
0.003000
 41
0.003000
  0
VERTEX
  8
EBENE_1
 62
    39
  6
CONTINUOUS
 10
0.310780
 20
0.751236
  0
VERTEX
  8
EBENE_1
 62
    39
  6
CONTINUOUS
 10
0.628445
 20
0.231476
  0
VERTEX
  8
EBENE_1
 62
    39
  6
CONTINUOUS
 10
0.295909
 20
0.144965
  0
SEQEND
  8
0
  0
POLYLINE
  8
EBENE_1
 62
    39
  6
CONTINUOUS
 66
     1
 40
0.003000
 41
0.003000
  0
VERTEX
  8
EBENE_1
 62
    39
  6
CONTINUOUS
 10
0.295909
 20
0.144965
  0
VERTEX
  8
EBENE_1
 62
    39
  6
CONTINUOUS
 10
0.287298
 20
0.143353
  0
VERTEX
  8
EBENE_1
 62
    39
  6
CONTINUOUS
 10
0.278084
 20
0.142290
  0
VERTEX
  8
EBENE_1
 62
    39
  6
CONTINUOUS
 10
0.268299
 20
0.141774
  0
VERTEX
  8
EBENE_1
 62
    39
  6
CONTINUOUS
 10
0.257972
 20
0.141801
  0
VERTEX
  8
EBENE_1
 62
    39
  6
CONTINUOUS
 10
0.247135
 20
0.142370
  0
VERTEX
  8
EBENE_1
 62
    39
  6
CONTINUOUS
 10
0.235819
 20
0.143479
  0
VERTEX
  8
EBENE_1
 62
    39
  6
CONTINUOUS
 10
0.224055
 20
0.145126
  0
VERTEX
  8
EBENE_1
 62
    39
  6
CONTINUOUS
 10
0.211874
 20
0.147308
  0
VERTEX
  8
EBENE_1
 62
    39
  6
CONTINUOUS
 10
0.199307
 20
0.150024
  0
VERTEX
  8
EBENE_1
 62
    39
  6
CONTINUOUS
 10
0.186385
 20
0.153271
  0
VERTEX
  8
EBENE_1
 62
    39
  6
CONTINUOUS
 10
0.173138
 20
0.157047
  0
VERTEX
  8
EBENE_1
 62
    39
  6
CONTINUOUS
 10
0.159598
 20
0.161349
  0
VERTEX
  8
EBENE_1
 62
    39
  6
CONTINUOUS
 10
0.145796
 20
0.166177
  0
VERTEX
  8
EBENE_1
 62
    39
  6
CONTINUOUS
 10
0.131762
 20
0.171527
  0
VERTEX
  8
EBENE_1
 62
    39
  6
CONTINUOUS
 10
0.117528
 20
0.177398
  0
VERTEX
  8
EBENE_1
 62
    39
  6
CONTINUOUS
 10
0.103125
 20
0.183787
  0
VERTEX
  8
EBENE_1
 62
    39
  6
CONTINUOUS
 10
0.088583
 20
0.190693
  0
VERTEX
  8
EBENE_1
 62
    39
  6
CONTINUOUS
 10
0.073934
 20
0.198112
  0
VERTEX
  8
EBENE_1
 62
    39
  6
CONTINUOUS
 10
0.059208
 20
0.206044
  0
VERTEX
  8
EBENE_1
 62
    39
  6
CONTINUOUS
 10
0.044436
 20
0.214485
  0
VERTEX
  8
EBENE_1
 62
    39
  6
CONTINUOUS
 10
0.029650
 20
0.223434
  0
VERTEX
  8
EBENE_1
 62
    39
  6
CONTINUOUS
 10
0.014880
 20
0.232888
  0
VERTEX
  8
EBENE_1
 62
    39
  6
CONTINUOUS
 10
0.000158
 20
0.242846
  0
VERTEX
  8
EBENE_1
 62
    39
  6
CONTINUOUS
 10
-0.014486
 20
0.253305
  0
VERTEX
  8
EBENE_1
 62
    39
  6
CONTINUOUS
 10
-0.029022
 20
0.264263
  0
VERTEX
  8
EBENE_1
 62
    39
  6
CONTINUOUS
 10
-0.043417
 20
0.275718
  0
VERTEX
  8
EBENE_1
 62
    39
  6
CONTINUOUS
 10
-0.057640
 20
0.287668
  0
VERTEX
  8
EBENE_1
 62
    39
  6
CONTINUOUS
 10
-0.071662
 20
0.300111
  0
VERTEX
  8
EBENE_1
 62
    39
  6
CONTINUOUS
 10
-0.085451
 20
0.313044
  0
VERTEX
  8
EBENE_1
 62
    39
  6
CONTINUOUS
 10
-0.098975
 20
0.326465
  0
VERTEX
  8
EBENE_1
 62
    39
  6
CONTINUOUS
 10
-0.112205
 20
0.340373
  0
VERTEX
  8
EBENE_1
 62
    39
  6
CONTINUOUS
 10
-0.125109
 20
0.354765
  0
VERTEX
  8
EBENE_1
 62
    39
  6
CONTINUOUS
 10
-0.137656
 20
0.369639
  0
VERTEX
  8
EBENE_1
 62
    39
  6
CONTINUOUS
 10
-0.149815
 20
0.384992
  0
VERTEX
  8
EBENE_1
 62
    39
  6
CONTINUOUS
 10
-0.161555
 20
0.400824
  0
VERTEX
  8
EBENE_1
 62
    39
  6
CONTINUOUS
 10
-0.172846
 20
0.417130
  0
VERTEX
  8
EBENE_1
 62
    39
  6
CONTINUOUS
 10
-0.183655
 20
0.433911
  0
VERTEX
  8
EBENE_1
 62
    39
  6
CONTINUOUS
 10
-0.193953
 20
0.451162
  0
VERTEX
  8
EBENE_1
 62
    39
  6
CONTINUOUS
 10
-0.203709
 20
0.468883
  0
VERTEX
  8
EBENE_1
 62
    39
  6
CONTINUOUS
 10
-0.212891
 20
0.487070
  0
VERTEX
  8
EBENE_1
 62
    39
  6
CONTINUOUS
 10
-0.221468
 20
0.505723
  0
VERTEX
  8
EBENE_1
 62
    39
  6
CONTINUOUS
 10
-0.229410
 20
0.524838
  0
VERTEX
  8
EBENE_1
 62
    39
  6
CONTINUOUS
 10
-0.236685
 20
0.544413
  0
SEQEND
  8
0
  0
POLYLINE
  8
EBENE_1
 62
    39
  6
CONTINUOUS
 66
     1
 40
0.003000
 41
0.003000
  0
VERTEX
  8
EBENE_1
 62
    39
  6
CONTINUOUS
 10
-0.236685
 20
0.544413
  0
VERTEX
  8
EBENE_1
 62
    39
  6
CONTINUOUS
 10
-0.240158
 20
0.566537
  0
VERTEX
  8
EBENE_1
 62
    39
  6
CONTINUOUS
 10
-0.241601
 20
0.587628
  0
VERTEX
  8
EBENE_1
 62
    39
  6
CONTINUOUS
 10
-0.241119
 20
0.607611
  0
VERTEX
  8
EBENE_1
 62
    39
  6
CONTINUOUS
 10
-0.238817
 20
0.626412
  0
VERTEX
  8
EBENE_1
 62
    39
  6
CONTINUOUS
 10
-0.234800
 20
0.643959
  0
VERTEX
  8
EBENE_1
 62
    39
  6
CONTINUOUS
 10
-0.229173
 20
0.660176
  0
VERTEX
  8
EBENE_1
 62
    39
  6
CONTINUOUS
 10
-0.222042
 20
0.674991
  0
VERTEX
  8
EBENE_1
 62
    39
  6
CONTINUOUS
 10
-0.213512
 20
0.688328
  0
VERTEX
  8
EBENE_1
 62
    39
  6
CONTINUOUS
 10
-0.203687
 20
0.700116
  0
VERTEX
  8
EBENE_1
 62
    39
  6
CONTINUOUS
 10
-0.192674
 20
0.710279
  0
VERTEX
  8
EBENE_1
 62
    39
  6
CONTINUOUS
 10
-0.180578
 20
0.718744
  0
VERTEX
  8
EBENE_1
 62
    39
  6
CONTINUOUS
 10
-0.167503
 20
0.725436
  0
VERTEX
  8
EBENE_1
 62
    39
  6
CONTINUOUS
 10
-0.153555
 20
0.730283
  0
SEQEND
  8
0
  0
POLYLINE
  8
EBENE_1
 62
    39
  6
CONTINUOUS
 66
     1
 40
0.003000
 41
0.003000
  0
VERTEX
  8
EBENE_1
 62
    39
  6
CONTINUOUS
 10
-0.153555
 20
0.730283
  0
VERTEX
  8
EBENE_1
 62
    39
  6
CONTINUOUS
 10
0.191823
 20
0.822882
  0
SEQEND
  8
0
  0
POLYLINE
  8
EBENE_1
 62
    39
  6
CONTINUOUS
 66
     1
 40
0.003000
 41
0.003000
  0
VERTEX
  8
EBENE_1
 62
    39
  6
CONTINUOUS
 10
0.191823
 20
0.822882
  0
VERTEX
  8
EBENE_1
 62
    39
  6
CONTINUOUS
 10
0.214242
 20
0.826970
  0
VERTEX
  8
EBENE_1
 62
    39
  6
CONTINUOUS
 10
0.232160
 20
0.826720
  0
VERTEX
  8
EBENE_1
 62
    39
  6
CONTINUOUS
 10
0.246387
 20
0.822820
  0
VERTEX
  8
EBENE_1
 62
    39
  6
CONTINUOUS
 10
0.257736
 20
0.815959
  0
VERTEX
  8
EBENE_1
 62
    39
  6
CONTINUOUS
 10
0.267016
 20
0.806828
  0
VERTEX
  8
EBENE_1
 62
    39
  6
CONTINUOUS
 10
0.275039
 20
0.796115
  0
VERTEX
  8
EBENE_1
 62
    39
  6
CONTINUOUS
 10
0.282615
 20
0.784510
  0
VERTEX
  8
EBENE_1
 62
    39
  6
CONTINUOUS
 10
0.290557
 20
0.772702
  0
VERTEX
  8
EBENE_1
 62
    39
  6
CONTINUOUS
 10
0.299675
 20
0.761381
  0
VERTEX
  8
EBENE_1
 62
    39
  6
CONTINUOUS
 10
0.310780
 20
0.751236
  0
SEQEND
  8
0
  0
POLYLINE
  8
EBENE_1
 62
    39
  6
CONTINUOUS
 66
     1
 40
0.003000
 41
0.003000
 70
     1
  0
VERTEX
  8
EBENE_1
 62
    39
  6
CONTINUOUS
 10
0.310780
 20
0.749209
  0
VERTEX
  8
EBENE_1
 62
    39
  6
CONTINUOUS
 10
0.623039
 20
0.237559
  0
VERTEX
  8
EBENE_1
 62
    39
  6
CONTINUOUS
 10
0.296583
 20
0.152398
  0
VERTEX
  8
EBENE_1
 62
    39
  6
CONTINUOUS
 10
0.288117
 20
0.150828
  0
VERTEX
  8
EBENE_1
 62
    39
  6
CONTINUOUS
 10
0.279058
 20
0.149796
  0
VERTEX
  8
EBENE_1
 62
    39
  6
CONTINUOUS
 10
0.269434
 20
0.149300
  0
VERTEX
  8
EBENE_1
 62
    39
  6
CONTINUOUS
 10
0.259277
 20
0.149337
  0
VERTEX
  8
EBENE_1
 62
    39
  6
CONTINUOUS
 10
0.248617
 20
0.149906
  0
VERTEX
  8
EBENE_1
 62
    39
  6
CONTINUOUS
 10
0.237484
 20
0.151004
  0
VERTEX
  8
EBENE_1
 62
    39
  6
CONTINUOUS
 10
0.225910
 20
0.152630
  0
VERTEX
  8
EBENE_1
 62
    39
  6
CONTINUOUS
 10
0.213925
 20
0.154782
  0
VERTEX
  8
EBENE_1
 62
    39
  6
CONTINUOUS
 10
0.201559
 20
0.157457
  0
VERTEX
  8
EBENE_1
 62
    39
  6
CONTINUOUS
 10
0.188843
 20
0.160653
  0
VERTEX
  8
EBENE_1
 62
    39
  6
CONTINUOUS
 10
0.175808
 20
0.164370
  0
VERTEX
  8
EBENE_1
 62
    39
  6
CONTINUOUS
 10
0.162483
 20
0.168604
  0
VERTEX
  8
EBENE_1
 62
    39
  6
CONTINUOUS
 10
0.148900
 20
0.173354
  0
VERTEX
  8
EBENE_1
 62
    39
  6
CONTINUOUS
 10
0.135089
 20
0.178617
  0
VERTEX
  8
EBENE_1
 62
    39
  6
CONTINUOUS
 10
0.121081
 20
0.184392
  0
VERTEX
  8
EBENE_1
 62
    39
  6
CONTINUOUS
 10
0.106906
 20
0.190677
  0
VERTEX
  8
EBENE_1
 62
    39
  6
CONTINUOUS
 10
0.092595
 20
0.197470
  0
VERTEX
  8
EBENE_1
 62
    39
  6
CONTINUOUS
 10
0.078178
 20
0.204768
  0
VERTEX
  8
EBENE_1
 62
    39
  6
CONTINUOUS
 10
0.063686
 20
0.212570
  0
VERTEX
  8
EBENE_1
 62
    39
  6
CONTINUOUS
 10
0.049150
 20
0.220874
  0
VERTEX
  8
EBENE_1
 62
    39
  6
CONTINUOUS
 10
0.034599
 20
0.229677
  0
VERTEX
  8
EBENE_1
 62
    39
  6
CONTINUOUS
 10
0.020065
 20
0.238978
  0
VERTEX
  8
EBENE_1
 62
    39
  6
CONTINUOUS
 10
0.005578
 20
0.248775
  0
VERTEX
  8
EBENE_1
 62
    39
  6
CONTINUOUS
 10
-0.008831
 20
0.259066
  0
VERTEX
  8
EBENE_1
 62
    39
  6
CONTINUOUS
 10
-0.023132
 20
0.269849
  0
VERTEX
  8
EBENE_1
 62
    39
  6
CONTINUOUS
 10
-0.037295
 20
0.281121
  0
VERTEX
  8
EBENE_1
 62
    39
  6
CONTINUOUS
 10
-0.051288
 20
0.292881
  0
VERTEX
  8
EBENE_1
 62
    39
  6
CONTINUOUS
 10
-0.065081
 20
0.305127
  0
VERTEX
  8
EBENE_1
 62
    39
  6
CONTINUOUS
 10
-0.078644
 20
0.317857
  0
VERTEX
  8
EBENE_1
 62
    39
  6
CONTINUOUS
 10
-0.091946
 20
0.331069
  0
VERTEX
  8
EBENE_1
 62
    39
  6
CONTINUOUS
 10
-0.104956
 20
0.344761
  0
VERTEX
  8
EBENE_1
 62
    39
  6
CONTINUOUS
 10
-0.117645
 20
0.358930
  0
VERTEX
  8
EBENE_1
 62
    39
  6
CONTINUOUS
 10
-0.129981
 20
0.373575
  0
VERTEX
  8
EBENE_1
 62
    39
  6
CONTINUOUS
 10
-0.141933
 20
0.388694
  0
VERTEX
  8
EBENE_1
 62
    39
  6
CONTINUOUS
 10
-0.153472
 20
0.404286
  0
VERTEX
  8
EBENE_1
 62
    39
  6
CONTINUOUS
 10
-0.164567
 20
0.420347
  0
VERTEX
  8
EBENE_1
 62
    39
  6
CONTINUOUS
 10
-0.175187
 20
0.436875
  0
VERTEX
  8
EBENE_1
 62
    39
  6
CONTINUOUS
 10
-0.185301
 20
0.453870
  0
VERTEX
  8
EBENE_1
 62
    39
  6
CONTINUOUS
 10
-0.194880
 20
0.471329
  0
VERTEX
  8
EBENE_1
 62
    39
  6
CONTINUOUS
 10
-0.203892
 20
0.489250
  0
VERTEX
  8
EBENE_1
 62
    39
  6
CONTINUOUS
 10
-0.212307
 20
0.507630
  0
VERTEX
  8
EBENE_1
 62
    39
  6
CONTINUOUS
 10
-0.220095
 20
0.526469
  0
VERTEX
  8
EBENE_1
 62
    39
  6
CONTINUOUS
 10
-0.227224
 20
0.545764
  0
VERTEX
  8
EBENE_1
 62
    39
  6
CONTINUOUS
 10
-0.227224
 20
0.545764
  0
VERTEX
  8
EBENE_1
 62
    39
  6
CONTINUOUS
 10
-0.230710
 20
0.567432
  0
VERTEX
  8
EBENE_1
 62
    39
  6
CONTINUOUS
 10
-0.232188
 20
0.588093
  0
VERTEX
  8
EBENE_1
 62
    39
  6
CONTINUOUS
 10
-0.231766
 20
0.607674
  0
VERTEX
  8
EBENE_1
 62
    39
  6
CONTINUOUS
 10
-0.229547
 20
0.626103
  0
VERTEX
  8
EBENE_1
 62
    39
  6
CONTINUOUS
 10
-0.225638
 20
0.643308
  0
VERTEX
  8
EBENE_1
 62
    39
  6
CONTINUOUS
 10
-0.220143
 20
0.659218
  0
VERTEX
  8
EBENE_1
 62
    39
  6
CONTINUOUS
 10
-0.213167
 20
0.673760
  0
VERTEX
  8
EBENE_1
 62
    39
  6
CONTINUOUS
 10
-0.204817
 20
0.686862
  0
VERTEX
  8
EBENE_1
 62
    39
  6
CONTINUOUS
 10
-0.195196
 20
0.698452
  0
VERTEX
  8
EBENE_1
 62
    39
  6
CONTINUOUS
 10
-0.184411
 20
0.708459
  0
VERTEX
  8
EBENE_1
 62
    39
  6
CONTINUOUS
 10
-0.172566
 20
0.716810
  0
VERTEX
  8
EBENE_1
 62
    39
  6
CONTINUOUS
 10
-0.159766
 20
0.723433
  0
VERTEX
  8
EBENE_1
 62
    39
  6
CONTINUOUS
 10
-0.146118
 20
0.728256
  0
VERTEX
  8
EBENE_1
 62
    39
  6
CONTINUOUS
 10
0.193850
 20
0.818823
  0
VERTEX
  8
EBENE_1
 62
    39
  6
CONTINUOUS
 10
0.215738
 20
0.823097
  0
VERTEX
  8
EBENE_1
 62
    39
  6
CONTINUOUS
 10
0.233263
 20
0.823004
  0
VERTEX
  8
EBENE_1
 62
    39
  6
CONTINUOUS
 10
0.247210
 20
0.819244
  0
VERTEX
  8
EBENE_1
 62
    39
  6
CONTINUOUS
 10
0.258367
 20
0.812519
  0
VERTEX
  8
EBENE_1
 62
    39
  6
CONTINUOUS
 10
0.267522
 20
0.803532
  0
VERTEX
  8
EBENE_1
 62
    39
  6
CONTINUOUS
 10
0.275459
 20
0.792983
  0
VERTEX
  8
EBENE_1
 62
    39
  6
CONTINUOUS
 10
0.282967
 20
0.781575
  0
VERTEX
  8
EBENE_1
 62
    39
  6
CONTINUOUS
 10
0.290832
 20
0.770009
  0
VERTEX
  8
EBENE_1
 62
    39
  6
CONTINUOUS
 10
0.299840
 20
0.758986
  0
SEQEND
  8
0
  0
POLYLINE
  8
EBENE_1
 62
    39
  6
CONTINUOUS
 66
     1
 40
0.003000
 41
0.003000
  0
VERTEX
  8
EBENE_1
 62
    39
  6
CONTINUOUS
 10
0.033661
 20
0.725551
  0
VERTEX
  8
EBENE_1
 62
    39
  6
CONTINUOUS
 10
0.039346
 20
0.727028
  0
VERTEX
  8
EBENE_1
 62
    39
  6
CONTINUOUS
 10
0.043527
 20
0.731058
  0
VERTEX
  8
EBENE_1
 62
    39
  6
CONTINUOUS
 10
0.045154
 20
0.737039
  0
SEQEND
  8
0
  0
POLYLINE
  8
EBENE_1
 62
    39
  6
CONTINUOUS
 66
     1
 40
0.003000
 41
0.003000
  0
VERTEX
  8
EBENE_1
 62
    39
  6
CONTINUOUS
 10
0.045154
 20
0.737039
  0
VERTEX
  8
EBENE_1
 62
    39
  6
CONTINUOUS
 10
0.043527
 20
0.742549
  0
VERTEX
  8
EBENE_1
 62
    39
  6
CONTINUOUS
 10
0.039346
 20
0.746406
  0
VERTEX
  8
EBENE_1
 62
    39
  6
CONTINUOUS
 10
0.033661
 20
0.747858
  0
SEQEND
  8
0
  0
POLYLINE
  8
EBENE_1
 62
    39
  6
CONTINUOUS
 66
     1
 40
0.003000
 41
0.003000
  0
VERTEX
  8
EBENE_1
 62
    39
  6
CONTINUOUS
 10
0.033661
 20
0.747858
  0
VERTEX
  8
EBENE_1
 62
    39
  6
CONTINUOUS
 10
0.027981
 20
0.746406
  0
VERTEX
  8
EBENE_1
 62
    39
  6
CONTINUOUS
 10
0.023801
 20
0.742549
  0
VERTEX
  8
EBENE_1
 62
    39
  6
CONTINUOUS
 10
0.022173
 20
0.737039
  0
SEQEND
  8
0
  0
POLYLINE
  8
EBENE_1
 62
    39
  6
CONTINUOUS
 66
     1
 40
0.003000
 41
0.003000
  0
VERTEX
  8
EBENE_1
 62
    39
  6
CONTINUOUS
 10
0.022173
 20
0.737039
  0
VERTEX
  8
EBENE_1
 62
    39
  6
CONTINUOUS
 10
0.023801
 20
0.731058
  0
VERTEX
  8
EBENE_1
 62
    39
  6
CONTINUOUS
 10
0.027981
 20
0.727028
  0
VERTEX
  8
EBENE_1
 62
    39
  6
CONTINUOUS
 10
0.033661
 20
0.725551
  0
SEQEND
  8
0
  0
POLYLINE
  8
EBENE_1
 62
    39
  6
CONTINUOUS
 66
     1
 40
0.003000
 41
0.003000
  0
VERTEX
  8
EBENE_1
 62
    39
  6
CONTINUOUS
 10
0.155323
 20
0.751236
  0
VERTEX
  8
EBENE_1
 62
    39
  6
CONTINUOUS
 10
0.161006
 20
0.752863
  0
VERTEX
  8
EBENE_1
 62
    39
  6
CONTINUOUS
 10
0.165187
 20
0.757043
  0
VERTEX
  8
EBENE_1
 62
    39
  6
CONTINUOUS
 10
0.166815
 20
0.762724
  0
SEQEND
  8
0
  0
POLYLINE
  8
EBENE_1
 62
    39
  6
CONTINUOUS
 66
     1
 40
0.003000
 41
0.003000
  0
VERTEX
  8
EBENE_1
 62
    39
  6
CONTINUOUS
 10
0.166815
 20
0.762724
  0
VERTEX
  8
EBENE_1
 62
    39
  6
CONTINUOUS
 10
0.165187
 20
0.768407
  0
VERTEX
  8
EBENE_1
 62
    39
  6
CONTINUOUS
 10
0.161006
 20
0.772589
  0
VERTEX
  8
EBENE_1
 62
    39
  6
CONTINUOUS
 10
0.155323
 20
0.774217
  0
SEQEND
  8
0
  0
POLYLINE
  8
EBENE_1
 62
    39
  6
CONTINUOUS
 66
     1
 40
0.003000
 41
0.003000
  0
VERTEX
  8
EBENE_1
 62
    39
  6
CONTINUOUS
 10
0.155323
 20
0.774217
  0
VERTEX
  8
EBENE_1
 62
    39
  6
CONTINUOUS
 10
0.149340
 20
0.772589
  0
VERTEX
  8
EBENE_1
 62
    39
  6
CONTINUOUS
 10
0.145311
 20
0.768407
  0
VERTEX
  8
EBENE_1
 62
    39
  6
CONTINUOUS
 10
0.143835
 20
0.762724
  0
SEQEND
  8
0
  0
POLYLINE
  8
EBENE_1
 62
    39
  6
CONTINUOUS
 66
     1
 40
0.003000
 41
0.003000
  0
VERTEX
  8
EBENE_1
 62
    39
  6
CONTINUOUS
 10
0.143835
 20
0.762724
  0
VERTEX
  8
EBENE_1
 62
    39
  6
CONTINUOUS
 10
0.145311
 20
0.757043
  0
VERTEX
  8
EBENE_1
 62
    39
  6
CONTINUOUS
 10
0.149340
 20
0.752863
  0
VERTEX
  8
EBENE_1
 62
    39
  6
CONTINUOUS
 10
0.155323
 20
0.751236
  0
SEQEND
  8
0
  0
POLYLINE
  8
EBENE_1
 62
    39
  6
CONTINUOUS
 66
     1
 40
0.003000
 41
0.003000
  0
VERTEX
  8
EBENE_1
 62
    39
  6
CONTINUOUS
 10
0.273602
 20
0.705953
  0
VERTEX
  8
EBENE_1
 62
    39
  6
CONTINUOUS
 10
0.279586
 20
0.707429
  0
VERTEX
  8
EBENE_1
 62
    39
  6
CONTINUOUS
 10
0.283617
 20
0.711458
  0
VERTEX
  8
EBENE_1
 62
    39
  6
CONTINUOUS
 10
0.285094
 20
0.717441
  0
SEQEND
  8
0
  0
POLYLINE
  8
EBENE_1
 62
    39
  6
CONTINUOUS
 66
     1
 40
0.003000
 41
0.003000
  0
VERTEX
  8
EBENE_1
 62
    39
  6
CONTINUOUS
 10
0.285094
 20
0.717441
  0
VERTEX
  8
EBENE_1
 62
    39
  6
CONTINUOUS
 10
0.283617
 20
0.723124
  0
VERTEX
  8
EBENE_1
 62
    39
  6
CONTINUOUS
 10
0.279586
 20
0.727305
  0
VERTEX
  8
EBENE_1
 62
    39
  6
CONTINUOUS
 10
0.273602
 20
0.728933
  0
SEQEND
  8
0
  0
POLYLINE
  8
EBENE_1
 62
    39
  6
CONTINUOUS
 66
     1
 40
0.003000
 41
0.003000
  0
VERTEX
  8
EBENE_1
 62
    39
  6
CONTINUOUS
 10
0.273602
 20
0.728933
  0
VERTEX
  8
EBENE_1
 62
    39
  6
CONTINUOUS
 10
0.267921
 20
0.727305
  0
VERTEX
  8
EBENE_1
 62
    39
  6
CONTINUOUS
 10
0.263741
 20
0.723124
  0
VERTEX
  8
EBENE_1
 62
    39
  6
CONTINUOUS
 10
0.262114
 20
0.717441
  0
SEQEND
  8
0
  0
POLYLINE
  8
EBENE_1
 62
    39
  6
CONTINUOUS
 66
     1
 40
0.003000
 41
0.003000
  0
VERTEX
  8
EBENE_1
 62
    39
  6
CONTINUOUS
 10
0.262114
 20
0.717441
  0
VERTEX
  8
EBENE_1
 62
    39
  6
CONTINUOUS
 10
0.263741
 20
0.711458
  0
VERTEX
  8
EBENE_1
 62
    39
  6
CONTINUOUS
 10
0.267921
 20
0.707429
  0
VERTEX
  8
EBENE_1
 62
    39
  6
CONTINUOUS
 10
0.273602
 20
0.705953
  0
SEQEND
  8
0
  0
POLYLINE
  8
EBENE_1
 62
    39
  6
CONTINUOUS
 66
     1
 40
0.003000
 41
0.003000
  0
VERTEX
  8
EBENE_1
 62
    39
  6
CONTINUOUS
 10
0.643992
 20
0.833693
  0
VERTEX
  8
EBENE_1
 62
    39
  6
CONTINUOUS
 10
0.960984
 20
0.313937
  0
VERTEX
  8
EBENE_1
 62
    39
  6
CONTINUOUS
 10
0.628445
 20
0.227421
  0
SEQEND
  8
0
  0
POLYLINE
  8
EBENE_1
 62
    39
  6
CONTINUOUS
 66
     1
 40
0.003000
 41
0.003000
  0
VERTEX
  8
EBENE_1
 62
    39
  6
CONTINUOUS
 10
0.628445
 20
0.227421
  0
VERTEX
  8
EBENE_1
 62
    39
  6
CONTINUOUS
 10
0.619879
 20
0.225810
  0
VERTEX
  8
EBENE_1
 62
    39
  6
CONTINUOUS
 10
0.610706
 20
0.224747
  0
VERTEX
  8
EBENE_1
 62
    39
  6
CONTINUOUS
 10
0.600957
 20
0.224230
  0
VERTEX
  8
EBENE_1
 62
    39
  6
CONTINUOUS
 10
0.590663
 20
0.224258
  0
VERTEX
  8
EBENE_1
 62
    39
  6
CONTINUOUS
 10
0.579855
 20
0.224827
  0
VERTEX
  8
EBENE_1
 62
    39
  6
CONTINUOUS
 10
0.568564
 20
0.225936
  0
VERTEX
  8
EBENE_1
 62
    39
  6
CONTINUOUS
 10
0.556822
 20
0.227583
  0
VERTEX
  8
EBENE_1
 62
    39
  6
CONTINUOUS
 10
0.544660
 20
0.229765
  0
VERTEX
  8
EBENE_1
 62
    39
  6
CONTINUOUS
 10
0.532108
 20
0.232481
  0
VERTEX
  8
EBENE_1
 62
    39
  6
CONTINUOUS
 10
0.519198
 20
0.235728
  0
VERTEX
  8
EBENE_1
 62
    39
  6
CONTINUOUS
 10
0.505961
 20
0.239504
  0
VERTEX
  8
EBENE_1
 62
    39
  6
CONTINUOUS
 10
0.492428
 20
0.243807
  0
VERTEX
  8
EBENE_1
 62
    39
  6
CONTINUOUS
 10
0.478629
 20
0.248634
  0
VERTEX
  8
EBENE_1
 62
    39
  6
CONTINUOUS
 10
0.464598
 20
0.253985
  0
VERTEX
  8
EBENE_1
 62
    39
  6
CONTINUOUS
 10
0.450363
 20
0.259856
  0
VERTEX
  8
EBENE_1
 62
    39
  6
CONTINUOUS
 10
0.435957
 20
0.266245
  0
VERTEX
  8
EBENE_1
 62
    39
  6
CONTINUOUS
 10
0.421411
 20
0.273150
  0
VERTEX
  8
EBENE_1
 62
    39
  6
CONTINUOUS
 10
0.406755
 20
0.280570
  0
VERTEX
  8
EBENE_1
 62
    39
  6
CONTINUOUS
 10
0.392021
 20
0.288502
  0
VERTEX
  8
EBENE_1
 62
    39
  6
CONTINUOUS
 10
0.377240
 20
0.296943
  0
VERTEX
  8
EBENE_1
 62
    39
  6
CONTINUOUS
 10
0.362443
 20
0.305892
  0
VERTEX
  8
EBENE_1
 62
    39
  6
CONTINUOUS
 10
0.347662
 20
0.315346
  0
VERTEX
  8
EBENE_1
 62
    39
  6
CONTINUOUS
 10
0.332926
 20
0.325304
  0
VERTEX
  8
EBENE_1
 62
    39
  6
CONTINUOUS
 10
0.318268
 20
0.335763
  0
VERTEX
  8
EBENE_1
 62
    39
  6
CONTINUOUS
 10
0.303718
 20
0.346722
  0
VERTEX
  8
EBENE_1
 62
    39
  6
CONTINUOUS
 10
0.289308
 20
0.358177
  0
VERTEX
  8
EBENE_1
 62
    39
  6
CONTINUOUS
 10
0.275069
 20
0.370127
  0
VERTEX
  8
EBENE_1
 62
    39
  6
CONTINUOUS
 10
0.261032
 20
0.382569
  0
VERTEX
  8
EBENE_1
 62
    39
  6
CONTINUOUS
 10
0.247227
 20
0.395502
  0
VERTEX
  8
EBENE_1
 62
    39
  6
CONTINUOUS
 10
0.233686
 20
0.408924
  0
VERTEX
  8
EBENE_1
 62
    39
  6
CONTINUOUS
 10
0.220441
 20
0.422832
  0
VERTEX
  8
EBENE_1
 62
    39
  6
CONTINUOUS
 10
0.207522
 20
0.437223
  0
VERTEX
  8
EBENE_1
 62
    39
  6
CONTINUOUS
 10
0.194961
 20
0.452097
  0
VERTEX
  8
EBENE_1
 62
    39
  6
CONTINUOUS
 10
0.182787
 20
0.467451
  0
VERTEX
  8
EBENE_1
 62
    39
  6
CONTINUOUS
 10
0.171034
 20
0.483282
  0
VERTEX
  8
EBENE_1
 62
    39
  6
CONTINUOUS
 10
0.159731
 20
0.499589
  0
VERTEX
  8
EBENE_1
 62
    39
  6
CONTINUOUS
 10
0.148910
 20
0.516369
  0
VERTEX
  8
EBENE_1
 62
    39
  6
CONTINUOUS
 10
0.138602
 20
0.533620
  0
VERTEX
  8
EBENE_1
 62
    39
  6
CONTINUOUS
 10
0.128839
 20
0.551340
  0
VERTEX
  8
EBENE_1
 62
    39
  6
CONTINUOUS
 10
0.119650
 20
0.569528
  0
VERTEX
  8
EBENE_1
 62
    39
  6
CONTINUOUS
 10
0.111068
 20
0.588180
  0
VERTEX
  8
EBENE_1
 62
    39
  6
CONTINUOUS
 10
0.103123
 20
0.607295
  0
VERTEX
  8
EBENE_1
 62
    39
  6
CONTINUOUS
 10
0.095846
 20
0.626870
  0
SEQEND
  8
0
  0
POLYLINE
  8
EBENE_1
 62
    39
  6
CONTINUOUS
 66
     1
 40
0.003000
 41
0.003000
  0
VERTEX
  8
EBENE_1
 62
    39
  6
CONTINUOUS
 10
0.095846
 20
0.626870
  0
VERTEX
  8
EBENE_1
 62
    39
  6
CONTINUOUS
 10
0.092373
 20
0.648994
  0
VERTEX
  8
EBENE_1
 62
    39
  6
CONTINUOUS
 10
0.090930
 20
0.670085
  0
VERTEX
  8
EBENE_1
 62
    39
  6
CONTINUOUS
 10
0.091413
 20
0.690067
  0
VERTEX
  8
EBENE_1
 62
    39
  6
CONTINUOUS
 10
0.093716
 20
0.708869
  0
VERTEX
  8
EBENE_1
 62
    39
  6
CONTINUOUS
 10
0.097733
 20
0.726415
  0
VERTEX
  8
EBENE_1
 62
    39
  6
CONTINUOUS
 10
0.103360
 20
0.742633
  0
VERTEX
  8
EBENE_1
 62
    39
  6
CONTINUOUS
 10
0.110492
 20
0.757447
  0
VERTEX
  8
EBENE_1
 62
    39
  6
CONTINUOUS
 10
0.119022
 20
0.770785
  0
VERTEX
  8
EBENE_1
 62
    39
  6
CONTINUOUS
 10
0.128847
 20
0.782572
  0
VERTEX
  8
EBENE_1
 62
    39
  6
CONTINUOUS
 10
0.139860
 20
0.792736
  0
VERTEX
  8
EBENE_1
 62
    39
  6
CONTINUOUS
 10
0.151957
 20
0.801200
  0
VERTEX
  8
EBENE_1
 62
    39
  6
CONTINUOUS
 10
0.165032
 20
0.807893
  0
VERTEX
  8
EBENE_1
 62
    39
  6
CONTINUOUS
 10
0.178980
 20
0.812740
  0
SEQEND
  8
0
  0
POLYLINE
  8
EBENE_1
 62
    39
  6
CONTINUOUS
 66
     1
 40
0.003000
 41
0.003000
  0
VERTEX
  8
EBENE_1
 62
    39
  6
CONTINUOUS
 10
0.178980
 20
0.812740
  0
VERTEX
  8
EBENE_1
 62
    39
  6
CONTINUOUS
 10
0.524358
 20
0.905339
  0
SEQEND
  8
0
  0
POLYLINE
  8
EBENE_1
 62
    39
  6
CONTINUOUS
 66
     1
 40
0.003000
 41
0.003000
  0
VERTEX
  8
EBENE_1
 62
    39
  6
CONTINUOUS
 10
0.524358
 20
0.905339
  0
VERTEX
  8
EBENE_1
 62
    39
  6
CONTINUOUS
 10
0.546778
 20
0.909427
  0
VERTEX
  8
EBENE_1
 62
    39
  6
CONTINUOUS
 10
0.564701
 20
0.909177
  0
VERTEX
  8
EBENE_1
 62
    39
  6
CONTINUOUS
 10
0.578941
 20
0.905276
  0
VERTEX
  8
EBENE_1
 62
    39
  6
CONTINUOUS
 10
0.590314
 20
0.898416
  0
VERTEX
  8
EBENE_1
 62
    39
  6
CONTINUOUS
 10
0.599636
 20
0.889284
  0
VERTEX
  8
EBENE_1
 62
    39
  6
CONTINUOUS
 10
0.607720
 20
0.878572
  0
VERTEX
  8
EBENE_1
 62
    39
  6
CONTINUOUS
 10
0.615383
 20
0.866967
  0
VERTEX
  8
EBENE_1
 62
    39
  6
CONTINUOUS
 10
0.623439
 20
0.855159
  0
VERTEX
  8
EBENE_1
 62
    39
  6
CONTINUOUS
 10
0.632704
 20
0.843838
  0
VERTEX
  8
EBENE_1
 62
    39
  6
CONTINUOUS
 10
0.643992
 20
0.833693
  0
SEQEND
  8
0
  0
POLYLINE
  8
EBENE_1
 62
    39
  6
CONTINUOUS
 66
     1
 40
0.003000
 41
0.003000
 70
     1
  0
VERTEX
  8
EBENE_1
 62
    39
  6
CONTINUOUS
 10
0.643992
 20
0.831665
  0
VERTEX
  8
EBENE_1
 62
    39
  6
CONTINUOUS
 10
0.955575
 20
0.320020
  0
VERTEX
  8
EBENE_1
 62
    39
  6
CONTINUOUS
 10
0.629122
 20
0.234858
  0
VERTEX
  8
EBENE_1
 62
    39
  6
CONTINUOUS
 10
0.620657
 20
0.233288
  0
VERTEX
  8
EBENE_1
 62
    39
  6
CONTINUOUS
 10
0.611597
 20
0.232256
  0
VERTEX
  8
EBENE_1
 62
    39
  6
CONTINUOUS
 10
0.601973
 20
0.231760
  0
VERTEX
  8
EBENE_1
 62
    39
  6
CONTINUOUS
 10
0.591816
 20
0.231797
  0
VERTEX
  8
EBENE_1
 62
    39
  6
CONTINUOUS
 10
0.581156
 20
0.232365
  0
VERTEX
  8
EBENE_1
 62
    39
  6
CONTINUOUS
 10
0.570023
 20
0.233463
  0
VERTEX
  8
EBENE_1
 62
    39
  6
CONTINUOUS
 10
0.558449
 20
0.235089
  0
VERTEX
  8
EBENE_1
 62
    39
  6
CONTINUOUS
 10
0.546464
 20
0.237240
  0
VERTEX
  8
EBENE_1
 62
    39
  6
CONTINUOUS
 10
0.534098
 20
0.239915
  0
VERTEX
  8
EBENE_1
 62
    39
  6
CONTINUOUS
 10
0.521382
 20
0.243112
  0
VERTEX
  8
EBENE_1
 62
    39
  6
CONTINUOUS
 10
0.508346
 20
0.246828
  0
VERTEX
  8
EBENE_1
 62
    39
  6
CONTINUOUS
 10
0.495021
 20
0.251062
  0
VERTEX
  8
EBENE_1
 62
    39
  6
CONTINUOUS
 10
0.481438
 20
0.255812
  0
VERTEX
  8
EBENE_1
 62
    39
  6
CONTINUOUS
 10
0.467627
 20
0.261075
  0
VERTEX
  8
EBENE_1
 62
    39
  6
CONTINUOUS
 10
0.453618
 20
0.266850
  0
VERTEX
  8
EBENE_1
 62
    39
  6
CONTINUOUS
 10
0.439443
 20
0.273135
  0
VERTEX
  8
EBENE_1
 62
    39
  6
CONTINUOUS
 10
0.425132
 20
0.279928
  0
VERTEX
  8
EBENE_1
 62
    39
  6
CONTINUOUS
 10
0.410715
 20
0.287226
  0
VERTEX
  8
EBENE_1
 62
    39
  6
CONTINUOUS
 10
0.396222
 20
0.295028
  0
VERTEX
  8
EBENE_1
 62
    39
  6
CONTINUOUS
 10
0.381686
 20
0.303331
  0
VERTEX
  8
EBENE_1
 62
    39
  6
CONTINUOUS
 10
0.367135
 20
0.312135
  0
VERTEX
  8
EBENE_1
 62
    39
  6
CONTINUOUS
 10
0.352600
 20
0.321436
  0
VERTEX
  8
EBENE_1
 62
    39
  6
CONTINUOUS
 10
0.338113
 20
0.331233
  0
VERTEX
  8
EBENE_1
 62
    39
  6
CONTINUOUS
 10
0.323704
 20
0.341524
  0
VERTEX
  8
EBENE_1
 62
    39
  6
CONTINUOUS
 10
0.309402
 20
0.352307
  0
VERTEX
  8
EBENE_1
 62
    39
  6
CONTINUOUS
 10
0.295240
 20
0.363579
  0
VERTEX
  8
EBENE_1
 62
    39
  6
CONTINUOUS
 10
0.281246
 20
0.375339
  0
VERTEX
  8
EBENE_1
 62
    39
  6
CONTINUOUS
 10
0.267453
 20
0.387585
  0
VERTEX
  8
EBENE_1
 62
    39
  6
CONTINUOUS
 10
0.253889
 20
0.400315
  0
VERTEX
  8
EBENE_1
 62
    39
  6
CONTINUOUS
 10
0.240587
 20
0.413527
  0
VERTEX
  8
EBENE_1
 62
    39
  6
CONTINUOUS
 10
0.227577
 20
0.427219
  0
VERTEX
  8
EBENE_1
 62
    39
  6
CONTINUOUS
 10
0.214888
 20
0.441388
  0
VERTEX
  8
EBENE_1
 62
    39
  6
CONTINUOUS
 10
0.202552
 20
0.456034
  0
VERTEX
  8
EBENE_1
 62
    39
  6
CONTINUOUS
 10
0.190599
 20
0.471153
  0
VERTEX
  8
EBENE_1
 62
    39
  6
CONTINUOUS
 10
0.179060
 20
0.486744
  0
VERTEX
  8
EBENE_1
 62
    39
  6
CONTINUOUS
 10
0.167965
 20
0.502806
  0
VERTEX
  8
EBENE_1
 62
    39
  6
CONTINUOUS
 10
0.157345
 20
0.519335
  0
VERTEX
  8
EBENE_1
 62
    39
  6
CONTINUOUS
 10
0.147230
 20
0.536330
  0
VERTEX
  8
EBENE_1
 62
    39
  6
CONTINUOUS
 10
0.137652
 20
0.553789
  0
VERTEX
  8
EBENE_1
 62
    39
  6
CONTINUOUS
 10
0.128639
 20
0.571710
  0
VERTEX
  8
EBENE_1
 62
    39
  6
CONTINUOUS
 10
0.120224
 20
0.590091
  0
VERTEX
  8
EBENE_1
 62
    39
  6
CONTINUOUS
 10
0.112437
 20
0.608929
  0
VERTEX
  8
EBENE_1
 62
    39
  6
CONTINUOUS
 10
0.105307
 20
0.628224
  0
VERTEX
  8
EBENE_1
 62
    39
  6
CONTINUOUS
 10
0.105307
 20
0.628224
  0
VERTEX
  8
EBENE_1
 62
    39
  6
CONTINUOUS
 10
0.101823
 20
0.649893
  0
VERTEX
  8
EBENE_1
 62
    39
  6
CONTINUOUS
 10
0.100347
 20
0.670553
  0
VERTEX
  8
EBENE_1
 62
    39
  6
CONTINUOUS
 10
0.100775
 20
0.690134
  0
VERTEX
  8
EBENE_1
 62
    39
  6
CONTINUOUS
 10
0.103006
 20
0.708563
  0
VERTEX
  8
EBENE_1
 62
    39
  6
CONTINUOUS
 10
0.106934
 20
0.725768
  0
VERTEX
  8
EBENE_1
 62
    39
  6
CONTINUOUS
 10
0.112457
 20
0.741677
  0
VERTEX
  8
EBENE_1
 62
    39
  6
CONTINUOUS
 10
0.119471
 20
0.756218
  0
VERTEX
  8
EBENE_1
 62
    39
  6
CONTINUOUS
 10
0.127874
 20
0.769320
  0
VERTEX
  8
EBENE_1
 62
    39
  6
CONTINUOUS
 10
0.137561
 20
0.780910
  0
VERTEX
  8
EBENE_1
 62
    39
  6
CONTINUOUS
 10
0.148429
 20
0.790916
  0
VERTEX
  8
EBENE_1
 62
    39
  6
CONTINUOUS
 10
0.160376
 20
0.799266
  0
VERTEX
  8
EBENE_1
 62
    39
  6
CONTINUOUS
 10
0.173298
 20
0.805889
  0
VERTEX
  8
EBENE_1
 62
    39
  6
CONTINUOUS
 10
0.187091
 20
0.810713
  0
VERTEX
  8
EBENE_1
 62
    39
  6
CONTINUOUS
 10
0.526386
 20
0.901283
  0
VERTEX
  8
EBENE_1
 62
    39
  6
CONTINUOUS
 10
0.548439
 20
0.905575
  0
VERTEX
  8
EBENE_1
 62
    39
  6
CONTINUOUS
 10
0.566064
 20
0.905528
  0
VERTEX
  8
EBENE_1
 62
    39
  6
CONTINUOUS
 10
0.580063
 20
0.901831
  0
VERTEX
  8
EBENE_1
 62
    39
  6
CONTINUOUS
 10
0.591240
 20
0.895173
  0
VERTEX
  8
EBENE_1
 62
    39
  6
CONTINUOUS
 10
0.600397
 20
0.886245
  0
VERTEX
  8
EBENE_1
 62
    39
  6
CONTINUOUS
 10
0.608338
 20
0.875735
  0
VERTEX
  8
EBENE_1
 62
    39
  6
CONTINUOUS
 10
0.615865
 20
0.864332
  0
VERTEX
  8
EBENE_1
 62
    39
  6
CONTINUOUS
 10
0.623781
 20
0.852727
  0
VERTEX
  8
EBENE_1
 62
    39
  6
CONTINUOUS
 10
0.632889
 20
0.841608
  0
SEQEND
  8
0
  0
POLYLINE
  8
EBENE_1
 62
    39
  6
CONTINUOUS
 66
     1
 40
0.003000
 41
0.003000
  0
VERTEX
  8
EBENE_1
 62
    39
  6
CONTINUOUS
 10
0.366201
 20
0.808008
  0
VERTEX
  8
EBENE_1
 62
    39
  6
CONTINUOUS
 10
0.371884
 20
0.809485
  0
VERTEX
  8
EBENE_1
 62
    39
  6
CONTINUOUS
 10
0.376065
 20
0.813516
  0
VERTEX
  8
EBENE_1
 62
    39
  6
CONTINUOUS
 10
0.377693
 20
0.819500
  0
SEQEND
  8
0
  0
POLYLINE
  8
EBENE_1
 62
    39
  6
CONTINUOUS
 66
     1
 40
0.003000
 41
0.003000
  0
VERTEX
  8
EBENE_1
 62
    39
  6
CONTINUOUS
 10
0.377693
 20
0.819500
  0
VERTEX
  8
EBENE_1
 62
    39
  6
CONTINUOUS
 10
0.376065
 20
0.825182
  0
VERTEX
  8
EBENE_1
 62
    39
  6
CONTINUOUS
 10
0.371884
 20
0.829361
  0
VERTEX
  8
EBENE_1
 62
    39
  6
CONTINUOUS
 10
0.366201
 20
0.830988
  0
SEQEND
  8
0
  0
POLYLINE
  8
EBENE_1
 62
    39
  6
CONTINUOUS
 66
     1
 40
0.003000
 41
0.003000
  0
VERTEX
  8
EBENE_1
 62
    39
  6
CONTINUOUS
 10
0.366201
 20
0.830988
  0
VERTEX
  8
EBENE_1
 62
    39
  6
CONTINUOUS
 10
0.360518
 20
0.829361
  0
VERTEX
  8
EBENE_1
 62
    39
  6
CONTINUOUS
 10
0.356336
 20
0.825182
  0
VERTEX
  8
EBENE_1
 62
    39
  6
CONTINUOUS
 10
0.354709
 20
0.819500
  0
SEQEND
  8
0
  0
POLYLINE
  8
EBENE_1
 62
    39
  6
CONTINUOUS
 66
     1
 40
0.003000
 41
0.003000
  0
VERTEX
  8
EBENE_1
 62
    39
  6
CONTINUOUS
 10
0.354709
 20
0.819500
  0
VERTEX
  8
EBENE_1
 62
    39
  6
CONTINUOUS
 10
0.356336
 20
0.813516
  0
VERTEX
  8
EBENE_1
 62
    39
  6
CONTINUOUS
 10
0.360518
 20
0.809485
  0
VERTEX
  8
EBENE_1
 62
    39
  6
CONTINUOUS
 10
0.366201
 20
0.808008
  0
SEQEND
  8
0
  0
POLYLINE
  8
EBENE_1
 62
    39
  6
CONTINUOUS
 66
     1
 40
0.003000
 41
0.003000
  0
VERTEX
  8
EBENE_1
 62
    39
  6
CONTINUOUS
 10
0.487862
 20
0.833693
  0
VERTEX
  8
EBENE_1
 62
    39
  6
CONTINUOUS
 10
0.493544
 20
0.835321
  0
VERTEX
  8
EBENE_1
 62
    39
  6
CONTINUOUS
 10
0.497724
 20
0.839502
  0
VERTEX
  8
EBENE_1
 62
    39
  6
CONTINUOUS
 10
0.499350
 20
0.845185
  0
SEQEND
  8
0
  0
POLYLINE
  8
EBENE_1
 62
    39
  6
CONTINUOUS
 66
     1
 40
0.003000
 41
0.003000
  0
VERTEX
  8
EBENE_1
 62
    39
  6
CONTINUOUS
 10
0.499350
 20
0.845185
  0
VERTEX
  8
EBENE_1
 62
    39
  6
CONTINUOUS
 10
0.497724
 20
0.851166
  0
VERTEX
  8
EBENE_1
 62
    39
  6
CONTINUOUS
 10
0.493544
 20
0.855196
  0
VERTEX
  8
EBENE_1
 62
    39
  6
CONTINUOUS
 10
0.487862
 20
0.856673
  0
SEQEND
  8
0
  0
POLYLINE
  8
EBENE_1
 62
    39
  6
CONTINUOUS
 66
     1
 40
0.003000
 41
0.003000
  0
VERTEX
  8
EBENE_1
 62
    39
  6
CONTINUOUS
 10
0.487862
 20
0.856673
  0
VERTEX
  8
EBENE_1
 62
    39
  6
CONTINUOUS
 10
0.482178
 20
0.855196
  0
VERTEX
  8
EBENE_1
 62
    39
  6
CONTINUOUS
 10
0.477997
 20
0.851166
  0
VERTEX
  8
EBENE_1
 62
    39
  6
CONTINUOUS
 10
0.476370
 20
0.845185
  0
SEQEND
  8
0
  0
POLYLINE
  8
EBENE_1
 62
    39
  6
CONTINUOUS
 66
     1
 40
0.003000
 41
0.003000
  0
VERTEX
  8
EBENE_1
 62
    39
  6
CONTINUOUS
 10
0.476370
 20
0.845185
  0
VERTEX
  8
EBENE_1
 62
    39
  6
CONTINUOUS
 10
0.477997
 20
0.839502
  0
VERTEX
  8
EBENE_1
 62
    39
  6
CONTINUOUS
 10
0.482178
 20
0.835321
  0
VERTEX
  8
EBENE_1
 62
    39
  6
CONTINUOUS
 10
0.487862
 20
0.833693
  0
SEQEND
  8
0
  0
POLYLINE
  8
EBENE_1
 62
    39
  6
CONTINUOUS
 66
     1
 40
0.003000
 41
0.003000
  0
VERTEX
  8
EBENE_1
 62
    39
  6
CONTINUOUS
 10
0.606815
 20
0.788409
  0
VERTEX
  8
EBENE_1
 62
    39
  6
CONTINUOUS
 10
0.612322
 20
0.789886
  0
VERTEX
  8
EBENE_1
 62
    39
  6
CONTINUOUS
 10
0.616178
 20
0.793915
  0
VERTEX
  8
EBENE_1
 62
    39
  6
CONTINUOUS
 10
0.617630
 20
0.799898
  0
SEQEND
  8
0
  0
POLYLINE
  8
EBENE_1
 62
    39
  6
CONTINUOUS
 66
     1
 40
0.003000
 41
0.003000
  0
VERTEX
  8
EBENE_1
 62
    39
  6
CONTINUOUS
 10
0.617630
 20
0.799898
  0
VERTEX
  8
EBENE_1
 62
    39
  6
CONTINUOUS
 10
0.616178
 20
0.805582
  0
VERTEX
  8
EBENE_1
 62
    39
  6
CONTINUOUS
 10
0.612322
 20
0.809763
  0
VERTEX
  8
EBENE_1
 62
    39
  6
CONTINUOUS
 10
0.606815
 20
0.811390
  0
SEQEND
  8
0
  0
POLYLINE
  8
EBENE_1
 62
    39
  6
CONTINUOUS
 66
     1
 40
0.003000
 41
0.003000
  0
VERTEX
  8
EBENE_1
 62
    39
  6
CONTINUOUS
 10
0.606815
 20
0.811390
  0
VERTEX
  8
EBENE_1
 62
    39
  6
CONTINUOUS
 10
0.600834
 20
0.809763
  0
VERTEX
  8
EBENE_1
 62
    39
  6
CONTINUOUS
 10
0.596804
 20
0.805582
  0
VERTEX
  8
EBENE_1
 62
    39
  6
CONTINUOUS
 10
0.595327
 20
0.799898
  0
SEQEND
  8
0
  0
POLYLINE
  8
EBENE_1
 62
    39
  6
CONTINUOUS
 66
     1
 40
0.003000
 41
0.003000
  0
VERTEX
  8
EBENE_1
 62
    39
  6
CONTINUOUS
 10
0.595327
 20
0.799898
  0
VERTEX
  8
EBENE_1
 62
    39
  6
CONTINUOUS
 10
0.596804
 20
0.793915
  0
VERTEX
  8
EBENE_1
 62
    39
  6
CONTINUOUS
 10
0.600834
 20
0.789886
  0
VERTEX
  8
EBENE_1
 62
    39
  6
CONTINUOUS
 10
0.606815
 20
0.788409
  0
SEQEND
  8
0
  0
POLYLINE
  8
EBENE_1
 62
    39
  6
CONTINUOUS
 66
     1
 40
0.003000
 41
0.003000
  0
VERTEX
  8
EBENE_1
 62
    39
  6
CONTINUOUS
 10
0.976528
 20
0.916154
  0
VERTEX
  8
EBENE_1
 62
    39
  6
CONTINUOUS
 10
1.293520
 20
0.396394
  0
VERTEX
  8
EBENE_1
 62
    39
  6
CONTINUOUS
 10
0.961657
 20
0.309882
  0
SEQEND
  8
0
  0
POLYLINE
  8
EBENE_1
 62
    39
  6
CONTINUOUS
 66
     1
 40
0.003000
 41
0.003000
  0
VERTEX
  8
EBENE_1
 62
    39
  6
CONTINUOUS
 10
0.961657
 20
0.309882
  0
VERTEX
  8
EBENE_1
 62
    39
  6
CONTINUOUS
 10
0.953045
 20
0.308271
  0
VERTEX
  8
EBENE_1
 62
    39
  6
CONTINUOUS
 10
0.943828
 20
0.307208
  0
VERTEX
  8
EBENE_1
 62
    39
  6
CONTINUOUS
 10
0.934037
 20
0.306691
  0
VERTEX
  8
EBENE_1
 62
    39
  6
CONTINUOUS
 10
0.923704
 20
0.306718
  0
VERTEX
  8
EBENE_1
 62
    39
  6
CONTINUOUS
 10
0.912859
 20
0.307288
  0
VERTEX
  8
EBENE_1
 62
    39
  6
CONTINUOUS
 10
0.901533
 20
0.308397
  0
VERTEX
  8
EBENE_1
 62
    39
  6
CONTINUOUS
 10
0.889758
 20
0.310043
  0
VERTEX
  8
EBENE_1
 62
    39
  6
CONTINUOUS
 10
0.877565
 20
0.312226
  0
VERTEX
  8
EBENE_1
 62
    39
  6
CONTINUOUS
 10
0.864985
 20
0.314941
  0
VERTEX
  8
EBENE_1
 62
    39
  6
CONTINUOUS
 10
0.852048
 20
0.318188
  0
VERTEX
  8
EBENE_1
 62
    39
  6
CONTINUOUS
 10
0.838787
 20
0.321964
  0
VERTEX
  8
EBENE_1
 62
    39
  6
CONTINUOUS
 10
0.825232
 20
0.326267
  0
VERTEX
  8
EBENE_1
 62
    39
  6
CONTINUOUS
 10
0.811414
 20
0.331094
  0
VERTEX
  8
EBENE_1
 62
    39
  6
CONTINUOUS
 10
0.797365
 20
0.336445
  0
VERTEX
  8
EBENE_1
 62
    39
  6
CONTINUOUS
 10
0.783115
 20
0.342315
  0
VERTEX
  8
EBENE_1
 62
    39
  6
CONTINUOUS
 10
0.768696
 20
0.348705
  0
VERTEX
  8
EBENE_1
 62
    39
  6
CONTINUOUS
 10
0.754139
 20
0.355610
  0
VERTEX
  8
EBENE_1
 62
    39
  6
CONTINUOUS
 10
0.739475
 20
0.363030
  0
VERTEX
  8
EBENE_1
 62
    39
  6
CONTINUOUS
 10
0.724734
 20
0.370961
  0
VERTEX
  8
EBENE_1
 62
    39
  6
CONTINUOUS
 10
0.709949
 20
0.379402
  0
VERTEX
  8
EBENE_1
 62
    39
  6
CONTINUOUS
 10
0.695150
 20
0.388351
  0
VERTEX
  8
EBENE_1
 62
    39
  6
CONTINUOUS
 10
0.680368
 20
0.397806
  0
VERTEX
  8
EBENE_1
 62
    39
  6
CONTINUOUS
 10
0.665635
 20
0.407763
  0
VERTEX
  8
EBENE_1
 62
    39
  6
CONTINUOUS
 10
0.650981
 20
0.418222
  0
VERTEX
  8
EBENE_1
 62
    39
  6
CONTINUOUS
 10
0.636438
 20
0.429181
  0
VERTEX
  8
EBENE_1
 62
    39
  6
CONTINUOUS
 10
0.622037
 20
0.440636
  0
VERTEX
  8
EBENE_1
 62
    39
  6
CONTINUOUS
 10
0.607809
 20
0.452586
  0
VERTEX
  8
EBENE_1
 62
    39
  6
CONTINUOUS
 10
0.593784
 20
0.465028
  0
VERTEX
  8
EBENE_1
 62
    39
  6
CONTINUOUS
 10
0.579995
 20
0.477961
  0
VERTEX
  8
EBENE_1
 62
    39
  6
CONTINUOUS
 10
0.566472
 20
0.491383
  0
VERTEX
  8
EBENE_1
 62
    39
  6
CONTINUOUS
 10
0.553247
 20
0.505290
  0
VERTEX
  8
EBENE_1
 62
    39
  6
CONTINUOUS
 10
0.540350
 20
0.519682
  0
VERTEX
  8
EBENE_1
 62
    39
  6
CONTINUOUS
 10
0.527812
 20
0.534556
  0
VERTEX
  8
EBENE_1
 62
    39
  6
CONTINUOUS
 10
0.515665
 20
0.549910
  0
VERTEX
  8
EBENE_1
 62
    39
  6
CONTINUOUS
 10
0.503940
 20
0.565741
  0
VERTEX
  8
EBENE_1
 62
    39
  6
CONTINUOUS
 10
0.492668
 20
0.582048
  0
VERTEX
  8
EBENE_1
 62
    39
  6
CONTINUOUS
 10
0.481880
 20
0.598828
  0
VERTEX
  8
EBENE_1
 62
    39
  6
CONTINUOUS
 10
0.471607
 20
0.616080
  0
VERTEX
  8
EBENE_1
 62
    39
  6
CONTINUOUS
 10
0.461881
 20
0.633800
  0
VERTEX
  8
EBENE_1
 62
    39
  6
CONTINUOUS
 10
0.452731
 20
0.651988
  0
VERTEX
  8
EBENE_1
 62
    39
  6
CONTINUOUS
 10
0.444191
 20
0.670640
  0
VERTEX
  8
EBENE_1
 62
    39
  6
CONTINUOUS
 10
0.436290
 20
0.689755
  0
VERTEX
  8
EBENE_1
 62
    39
  6
CONTINUOUS
 10
0.429059
 20
0.709331
  0
SEQEND
  8
0
  0
POLYLINE
  8
EBENE_1
 62
    39
  6
CONTINUOUS
 66
     1
 40
0.003000
 41
0.003000
  0
VERTEX
  8
EBENE_1
 62
    39
  6
CONTINUOUS
 10
0.429059
 20
0.709331
  0
VERTEX
  8
EBENE_1
 62
    39
  6
CONTINUOUS
 10
0.425574
 20
0.731455
  0
VERTEX
  8
EBENE_1
 62
    39
  6
CONTINUOUS
 10
0.424100
 20
0.752545
  0
VERTEX
  8
EBENE_1
 62
    39
  6
CONTINUOUS
 10
0.424534
 20
0.772528
  0
VERTEX
  8
EBENE_1
 62
    39
  6
CONTINUOUS
 10
0.426775
 20
0.791330
  0
VERTEX
  8
EBENE_1
 62
    39
  6
CONTINUOUS
 10
0.430722
 20
0.808876
  0
VERTEX
  8
EBENE_1
 62
    39
  6
CONTINUOUS
 10
0.436273
 20
0.825093
  0
VERTEX
  8
EBENE_1
 62
    39
  6
CONTINUOUS
 10
0.443327
 20
0.839908
  0
VERTEX
  8
EBENE_1
 62
    39
  6
CONTINUOUS
 10
0.451781
 20
0.853246
  0
VERTEX
  8
EBENE_1
 62
    39
  6
CONTINUOUS
 10
0.461535
 20
0.865033
  0
VERTEX
  8
EBENE_1
 62
    39
  6
CONTINUOUS
 10
0.472487
 20
0.875196
  0
VERTEX
  8
EBENE_1
 62
    39
  6
CONTINUOUS
 10
0.484536
 20
0.883661
  0
VERTEX
  8
EBENE_1
 62
    39
  6
CONTINUOUS
 10
0.497579
 20
0.890354
  0
VERTEX
  8
EBENE_1
 62
    39
  6
CONTINUOUS
 10
0.511516
 20
0.895201
  0
SEQEND
  8
0
  0
POLYLINE
  8
EBENE_1
 62
    39
  6
CONTINUOUS
 66
     1
 40
0.003000
 41
0.003000
  0
VERTEX
  8
EBENE_1
 62
    39
  6
CONTINUOUS
 10
0.511516
 20
0.895201
  0
VERTEX
  8
EBENE_1
 62
    39
  6
CONTINUOUS
 10
0.857571
 20
0.987795
  0
SEQEND
  8
0
  0
POLYLINE
  8
EBENE_1
 62
    39
  6
CONTINUOUS
 66
     1
 40
0.003000
 41
0.003000
  0
VERTEX
  8
EBENE_1
 62
    39
  6
CONTINUOUS
 10
0.857571
 20
0.987795
  0
VERTEX
  8
EBENE_1
 62
    39
  6
CONTINUOUS
 10
0.879808
 20
0.991885
  0
VERTEX
  8
EBENE_1
 62
    39
  6
CONTINUOUS
 10
0.897584
 20
0.991635
  0
VERTEX
  8
EBENE_1
 62
    39
  6
CONTINUOUS
 10
0.911711
 20
0.987736
  0
VERTEX
  8
EBENE_1
 62
    39
  6
CONTINUOUS
 10
0.922998
 20
0.980876
  0
VERTEX
  8
EBENE_1
 62
    39
  6
CONTINUOUS
 10
0.932257
 20
0.971745
  0
VERTEX
  8
EBENE_1
 62
    39
  6
CONTINUOUS
 10
0.940300
 20
0.961032
  0
VERTEX
  8
EBENE_1
 62
    39
  6
CONTINUOUS
 10
0.947938
 20
0.949427
  0
VERTEX
  8
EBENE_1
 62
    39
  6
CONTINUOUS
 10
0.955981
 20
0.937620
  0
VERTEX
  8
EBENE_1
 62
    39
  6
CONTINUOUS
 10
0.965240
 20
0.926299
  0
VERTEX
  8
EBENE_1
 62
    39
  6
CONTINUOUS
 10
0.976528
 20
0.916154
  0
SEQEND
  8
0
  0
POLYLINE
  8
EBENE_1
 62
    39
  6
CONTINUOUS
 66
     1
 40
0.003000
 41
0.003000
 70
     1
  0
VERTEX
  8
EBENE_1
 62
    39
  6
CONTINUOUS
 10
0.976528
 20
0.914126
  0
VERTEX
  8
EBENE_1
 62
    39
  6
CONTINUOUS
 10
1.288110
 20
0.402476
  0
VERTEX
  8
EBENE_1
 62
    39
  6
CONTINUOUS
 10
0.961657
 20
0.317315
  0
VERTEX
  8
EBENE_1
 62
    39
  6
CONTINUOUS
 10
0.953192
 20
0.315745
  0
VERTEX
  8
EBENE_1
 62
    39
  6
CONTINUOUS
 10
0.944132
 20
0.314713
  0
VERTEX
  8
EBENE_1
 62
    39
  6
CONTINUOUS
 10
0.934509
 20
0.314217
  0
VERTEX
  8
EBENE_1
 62
    39
  6
CONTINUOUS
 10
0.924351
 20
0.314254
  0
VERTEX
  8
EBENE_1
 62
    39
  6
CONTINUOUS
 10
0.913691
 20
0.314823
  0
VERTEX
  8
EBENE_1
 62
    39
  6
CONTINUOUS
 10
0.902559
 20
0.315921
  0
VERTEX
  8
EBENE_1
 62
    39
  6
CONTINUOUS
 10
0.890985
 20
0.317547
  0
VERTEX
  8
EBENE_1
 62
    39
  6
CONTINUOUS
 10
0.879000
 20
0.319699
  0
VERTEX
  8
EBENE_1
 62
    39
  6
CONTINUOUS
 10
0.866634
 20
0.322374
  0
VERTEX
  8
EBENE_1
 62
    39
  6
CONTINUOUS
 10
0.853918
 20
0.325571
  0
VERTEX
  8
EBENE_1
 62
    39
  6
CONTINUOUS
 10
0.840882
 20
0.329287
  0
VERTEX
  8
EBENE_1
 62
    39
  6
CONTINUOUS
 10
0.827557
 20
0.333521
  0
VERTEX
  8
EBENE_1
 62
    39
  6
CONTINUOUS
 10
0.813974
 20
0.338271
  0
VERTEX
  8
EBENE_1
 62
    39
  6
CONTINUOUS
 10
0.800163
 20
0.343535
  0
VERTEX
  8
EBENE_1
 62
    39
  6
CONTINUOUS
 10
0.786155
 20
0.349310
  0
VERTEX
  8
EBENE_1
 62
    39
  6
CONTINUOUS
 10
0.771980
 20
0.355595
  0
VERTEX
  8
EBENE_1
 62
    39
  6
CONTINUOUS
 10
0.757669
 20
0.362387
  0
VERTEX
  8
EBENE_1
 62
    39
  6
CONTINUOUS
 10
0.743252
 20
0.369685
  0
VERTEX
  8
EBENE_1
 62
    39
  6
CONTINUOUS
 10
0.728760
 20
0.377487
  0
VERTEX
  8
EBENE_1
 62
    39
  6
CONTINUOUS
 10
0.714223
 20
0.385791
  0
VERTEX
  8
EBENE_1
 62
    39
  6
CONTINUOUS
 10
0.699672
 20
0.394595
  0
VERTEX
  8
EBENE_1
 62
    39
  6
CONTINUOUS
 10
0.685138
 20
0.403896
  0
VERTEX
  8
EBENE_1
 62
    39
  6
CONTINUOUS
 10
0.670651
 20
0.413693
  0
VERTEX
  8
EBENE_1
 62
    39
  6
CONTINUOUS
 10
0.656241
 20
0.423984
  0
VERTEX
  8
EBENE_1
 62
    39
  6
CONTINUOUS
 10
0.641940
 20
0.434766
  0
VERTEX
  8
EBENE_1
 62
    39
  6
CONTINUOUS
 10
0.627778
 20
0.446039
  0
VERTEX
  8
EBENE_1
 62
    39
  6
CONTINUOUS
 10
0.613784
 20
0.457799
  0
VERTEX
  8
EBENE_1
 62
    39
  6
CONTINUOUS
 10
0.599991
 20
0.470045
  0
VERTEX
  8
EBENE_1
 62
    39
  6
CONTINUOUS
 10
0.586428
 20
0.482775
  0
VERTEX
  8
EBENE_1
 62
    39
  6
CONTINUOUS
 10
0.573126
 20
0.495986
  0
VERTEX
  8
EBENE_1
 62
    39
  6
CONTINUOUS
 10
0.560115
 20
0.509678
  0
VERTEX
  8
EBENE_1
 62
    39
  6
CONTINUOUS
 10
0.547427
 20
0.523847
  0
VERTEX
  8
EBENE_1
 62
    39
  6
CONTINUOUS
 10
0.535091
 20
0.538493
  0
VERTEX
  8
EBENE_1
 62
    39
  6
CONTINUOUS
 10
0.523138
 20
0.553612
  0
VERTEX
  8
EBENE_1
 62
    39
  6
CONTINUOUS
 10
0.511599
 20
0.569203
  0
VERTEX
  8
EBENE_1
 62
    39
  6
CONTINUOUS
 10
0.500504
 20
0.585264
  0
VERTEX
  8
EBENE_1
 62
    39
  6
CONTINUOUS
 10
0.489884
 20
0.601793
  0
VERTEX
  8
EBENE_1
 62
    39
  6
CONTINUOUS
 10
0.479770
 20
0.618788
  0
VERTEX
  8
EBENE_1
 62
    39
  6
CONTINUOUS
 10
0.470191
 20
0.636246
  0
VERTEX
  8
EBENE_1
 62
    39
  6
CONTINUOUS
 10
0.461179
 20
0.654167
  0
VERTEX
  8
EBENE_1
 62
    39
  6
CONTINUOUS
 10
0.452764
 20
0.672548
  0
VERTEX
  8
EBENE_1
 62
    39
  6
CONTINUOUS
 10
0.444976
 20
0.691386
  0
VERTEX
  8
EBENE_1
 62
    39
  6
CONTINUOUS
 10
0.437846
 20
0.710681
  0
VERTEX
  8
EBENE_1
 62
    39
  6
CONTINUOUS
 10
0.437846
 20
0.710681
  0
VERTEX
  8
EBENE_1
 62
    39
  6
CONTINUOUS
 10
0.434361
 20
0.732361
  0
VERTEX
  8
EBENE_1
 62
    39
  6
CONTINUOUS
 10
0.432885
 20
0.753051
  0
VERTEX
  8
EBENE_1
 62
    39
  6
CONTINUOUS
 10
0.433313
 20
0.772674
  0
VERTEX
  8
EBENE_1
 62
    39
  6
CONTINUOUS
 10
0.435543
 20
0.791154
  0
VERTEX
  8
EBENE_1
 62
    39
  6
CONTINUOUS
 10
0.439471
 20
0.808411
  0
VERTEX
  8
EBENE_1
 62
    39
  6
CONTINUOUS
 10
0.444994
 20
0.824368
  0
VERTEX
  8
EBENE_1
 62
    39
  6
CONTINUOUS
 10
0.452009
 20
0.838949
  0
VERTEX
  8
EBENE_1
 62
    39
  6
CONTINUOUS
 10
0.460411
 20
0.852075
  0
VERTEX
  8
EBENE_1
 62
    39
  6
CONTINUOUS
 10
0.470098
 20
0.863669
  0
VERTEX
  8
EBENE_1
 62
    39
  6
CONTINUOUS
 10
0.480967
 20
0.873653
  0
VERTEX
  8
EBENE_1
 62
    39
  6
CONTINUOUS
 10
0.492913
 20
0.881951
  0
VERTEX
  8
EBENE_1
 62
    39
  6
CONTINUOUS
 10
0.505834
 20
0.888483
  0
VERTEX
  8
EBENE_1
 62
    39
  6
CONTINUOUS
 10
0.519626
 20
0.893173
  0
VERTEX
  8
EBENE_1
 62
    39
  6
CONTINUOUS
 10
0.858921
 20
0.984417
  0
VERTEX
  8
EBENE_1
 62
    39
  6
CONTINUOUS
 10
0.880974
 20
0.988525
  0
VERTEX
  8
EBENE_1
 62
    39
  6
CONTINUOUS
 10
0.898599
 20
0.988331
  0
VERTEX
  8
EBENE_1
 62
    39
  6
CONTINUOUS
 10
0.912599
 20
0.984520
  0
VERTEX
  8
EBENE_1
 62
    39
  6
CONTINUOUS
 10
0.923775
 20
0.977776
  0
VERTEX
  8
EBENE_1
 62
    39
  6
CONTINUOUS
 10
0.932933
 20
0.968786
  0
VERTEX
  8
EBENE_1
 62
    39
  6
CONTINUOUS
 10
0.940873
 20
0.958235
  0
VERTEX
  8
EBENE_1
 62
    39
  6
CONTINUOUS
 10
0.948400
 20
0.946809
  0
VERTEX
  8
EBENE_1
 62
    39
  6
CONTINUOUS
 10
0.956316
 20
0.935191
  0
VERTEX
  8
EBENE_1
 62
    39
  6
CONTINUOUS
 10
0.965424
 20
0.924068
  0
SEQEND
  8
0
  0
POLYLINE
  8
EBENE_1
 62
    39
  6
CONTINUOUS
 66
     1
 40
0.003000
 41
0.003000
  0
VERTEX
  8
EBENE_1
 62
    39
  6
CONTINUOUS
 10
0.698736
 20
0.890469
  0
VERTEX
  8
EBENE_1
 62
    39
  6
CONTINUOUS
 10
0.704720
 20
0.891946
  0
VERTEX
  8
EBENE_1
 62
    39
  6
CONTINUOUS
 10
0.708751
 20
0.895976
  0
VERTEX
  8
EBENE_1
 62
    39
  6
CONTINUOUS
 10
0.710228
 20
0.901957
  0
SEQEND
  8
0
  0
POLYLINE
  8
EBENE_1
 62
    39
  6
CONTINUOUS
 66
     1
 40
0.003000
 41
0.003000
  0
VERTEX
  8
EBENE_1
 62
    39
  6
CONTINUOUS
 10
0.710228
 20
0.901957
  0
VERTEX
  8
EBENE_1
 62
    39
  6
CONTINUOUS
 10
0.708751
 20
0.907640
  0
VERTEX
  8
EBENE_1
 62
    39
  6
CONTINUOUS
 10
0.704720
 20
0.911821
  0
VERTEX
  8
EBENE_1
 62
    39
  6
CONTINUOUS
 10
0.698736
 20
0.913449
  0
SEQEND
  8
0
  0
POLYLINE
  8
EBENE_1
 62
    39
  6
CONTINUOUS
 66
     1
 40
0.003000
 41
0.003000
  0
VERTEX
  8
EBENE_1
 62
    39
  6
CONTINUOUS
 10
0.698736
 20
0.913449
  0
VERTEX
  8
EBENE_1
 62
    39
  6
CONTINUOUS
 10
0.693054
 20
0.911821
  0
VERTEX
  8
EBENE_1
 62
    39
  6
CONTINUOUS
 10
0.688875
 20
0.907640
  0
VERTEX
  8
EBENE_1
 62
    39
  6
CONTINUOUS
 10
0.687248
 20
0.901957
  0
SEQEND
  8
0
  0
POLYLINE
  8
EBENE_1
 62
    39
  6
CONTINUOUS
 66
     1
 40
0.003000
 41
0.003000
  0
VERTEX
  8
EBENE_1
 62
    39
  6
CONTINUOUS
 10
0.687248
 20
0.901957
  0
VERTEX
  8
EBENE_1
 62
    39
  6
CONTINUOUS
 10
0.688875
 20
0.895976
  0
VERTEX
  8
EBENE_1
 62
    39
  6
CONTINUOUS
 10
0.693054
 20
0.891946
  0
VERTEX
  8
EBENE_1
 62
    39
  6
CONTINUOUS
 10
0.698736
 20
0.890469
  0
SEQEND
  8
0
  0
POLYLINE
  8
EBENE_1
 62
    39
  6
CONTINUOUS
 66
     1
 40
0.003000
 41
0.003000
  0
VERTEX
  8
EBENE_1
 62
    39
  6
CONTINUOUS
 10
0.820398
 20
0.916154
  0
VERTEX
  8
EBENE_1
 62
    39
  6
CONTINUOUS
 10
0.826079
 20
0.917780
  0
VERTEX
  8
EBENE_1
 62
    39
  6
CONTINUOUS
 10
0.830259
 20
0.921960
  0
VERTEX
  8
EBENE_1
 62
    39
  6
CONTINUOUS
 10
0.831886
 20
0.927642
  0
SEQEND
  8
0
  0
POLYLINE
  8
EBENE_1
 62
    39
  6
CONTINUOUS
 66
     1
 40
0.003000
 41
0.003000
  0
VERTEX
  8
EBENE_1
 62
    39
  6
CONTINUOUS
 10
0.831886
 20
0.927642
  0
VERTEX
  8
EBENE_1
 62
    39
  6
CONTINUOUS
 10
0.830259
 20
0.933625
  0
VERTEX
  8
EBENE_1
 62
    39
  6
CONTINUOUS
 10
0.826079
 20
0.937654
  0
VERTEX
  8
EBENE_1
 62
    39
  6
CONTINUOUS
 10
0.820398
 20
0.939130
  0
SEQEND
  8
0
  0
POLYLINE
  8
EBENE_1
 62
    39
  6
CONTINUOUS
 66
     1
 40
0.003000
 41
0.003000
  0
VERTEX
  8
EBENE_1
 62
    39
  6
CONTINUOUS
 10
0.820398
 20
0.939130
  0
VERTEX
  8
EBENE_1
 62
    39
  6
CONTINUOUS
 10
0.814716
 20
0.937654
  0
VERTEX
  8
EBENE_1
 62
    39
  6
CONTINUOUS
 10
0.810536
 20
0.933625
  0
VERTEX
  8
EBENE_1
 62
    39
  6
CONTINUOUS
 10
0.808909
 20
0.927642
  0
SEQEND
  8
0
  0
POLYLINE
  8
EBENE_1
 62
    39
  6
CONTINUOUS
 66
     1
 40
0.003000
 41
0.003000
  0
VERTEX
  8
EBENE_1
 62
    39
  6
CONTINUOUS
 10
0.808909
 20
0.927642
  0
VERTEX
  8
EBENE_1
 62
    39
  6
CONTINUOUS
 10
0.810536
 20
0.921960
  0
VERTEX
  8
EBENE_1
 62
    39
  6
CONTINUOUS
 10
0.814716
 20
0.917780
  0
VERTEX
  8
EBENE_1
 62
    39
  6
CONTINUOUS
 10
0.820398
 20
0.916154
  0
SEQEND
  8
0
  0
POLYLINE
  8
EBENE_1
 62
    39
  6
CONTINUOUS
 66
     1
 40
0.003000
 41
0.003000
  0
VERTEX
  8
EBENE_1
 62
    39
  6
CONTINUOUS
 10
0.939354
 20
0.870866
  0
VERTEX
  8
EBENE_1
 62
    39
  6
CONTINUOUS
 10
0.945036
 20
0.872343
  0
VERTEX
  8
EBENE_1
 62
    39
  6
CONTINUOUS
 10
0.949216
 20
0.876374
  0
VERTEX
  8
EBENE_1
 62
    39
  6
CONTINUOUS
 10
0.950843
 20
0.882358
  0
SEQEND
  8
0
  0
POLYLINE
  8
EBENE_1
 62
    39
  6
CONTINUOUS
 66
     1
 40
0.003000
 41
0.003000
  0
VERTEX
  8
EBENE_1
 62
    39
  6
CONTINUOUS
 10
0.950843
 20
0.882358
  0
VERTEX
  8
EBENE_1
 62
    39
  6
CONTINUOUS
 10
0.949216
 20
0.888040
  0
VERTEX
  8
EBENE_1
 62
    39
  6
CONTINUOUS
 10
0.945036
 20
0.892220
  0
VERTEX
  8
EBENE_1
 62
    39
  6
CONTINUOUS
 10
0.939354
 20
0.893846
  0
SEQEND
  8
0
  0
POLYLINE
  8
EBENE_1
 62
    39
  6
CONTINUOUS
 66
     1
 40
0.003000
 41
0.003000
  0
VERTEX
  8
EBENE_1
 62
    39
  6
CONTINUOUS
 10
0.939354
 20
0.893846
  0
VERTEX
  8
EBENE_1
 62
    39
  6
CONTINUOUS
 10
0.933371
 20
0.892220
  0
VERTEX
  8
EBENE_1
 62
    39
  6
CONTINUOUS
 10
0.929339
 20
0.888040
  0
VERTEX
  8
EBENE_1
 62
    39
  6
CONTINUOUS
 10
0.927862
 20
0.882358
  0
SEQEND
  8
0
  0
POLYLINE
  8
EBENE_1
 62
    39
  6
CONTINUOUS
 66
     1
 40
0.003000
 41
0.003000
  0
VERTEX
  8
EBENE_1
 62
    39
  6
CONTINUOUS
 10
0.927862
 20
0.882358
  0
VERTEX
  8
EBENE_1
 62
    39
  6
CONTINUOUS
 10
0.929339
 20
0.876374
  0
VERTEX
  8
EBENE_1
 62
    39
  6
CONTINUOUS
 10
0.933371
 20
0.872343
  0
VERTEX
  8
EBENE_1
 62
    39
  6
CONTINUOUS
 10
0.939354
 20
0.870866
  0
SEQEND
  8
0
  0
POLYLINE
  8
EBENE_1
 62
    39
  6
CONTINUOUS
 66
     1
 40
0.003000
 41
0.003000
 70
     1
  0
VERTEX
  8
EBENE_1
 62
    39
  6
CONTINUOUS
 10
-0.241417
 20
0.531571
  0
VERTEX
  8
EBENE_1
 62
    39
  6
CONTINUOUS
 10
-0.597610
 20
0.444382
  0
VERTEX
  8
EBENE_1
 62
    39
  6
CONTINUOUS
 10
-0.612051
 20
0.441177
  0
VERTEX
  8
EBENE_1
 62
    39
  6
CONTINUOUS
 10
-0.627474
 20
0.438679
  0
VERTEX
  8
EBENE_1
 62
    39
  6
CONTINUOUS
 10
-0.643769
 20
0.436869
  0
VERTEX
  8
EBENE_1
 62
    39
  6
CONTINUOUS
 10
-0.660829
 20
0.435726
  0
VERTEX
  8
EBENE_1
 62
    39
  6
CONTINUOUS
 10
-0.678545
 20
0.435229
  0
VERTEX
  8
EBENE_1
 62
    39
  6
CONTINUOUS
 10
-0.696808
 20
0.435357
  0
VERTEX
  8
EBENE_1
 62
    39
  6
CONTINUOUS
 10
-0.715511
 20
0.436091
  0
VERTEX
  8
EBENE_1
 62
    39
  6
CONTINUOUS
 10
-0.734545
 20
0.437410
  0
VERTEX
  8
EBENE_1
 62
    39
  6
CONTINUOUS
 10
-0.753801
 20
0.439294
  0
VERTEX
  8
EBENE_1
 62
    39
  6
CONTINUOUS
 10
-0.773172
 20
0.441721
  0
VERTEX
  8
EBENE_1
 62
    39
  6
CONTINUOUS
 10
-0.792548
 20
0.444673
  0
VERTEX
  8
EBENE_1
 62
    39
  6
CONTINUOUS
 10
-0.811821
 20
0.448127
  0
VERTEX
  8
EBENE_1
 62
    39
  6
CONTINUOUS
 10
-0.830883
 20
0.452064
  0
VERTEX
  8
EBENE_1
 62
    39
  6
CONTINUOUS
 10
-0.849625
 20
0.456463
  0
VERTEX
  8
EBENE_1
 62
    39
  6
CONTINUOUS
 10
-0.867939
 20
0.461304
  0
VERTEX
  8
EBENE_1
 62
    39
  6
CONTINUOUS
 10
-0.885717
 20
0.466567
  0
VERTEX
  8
EBENE_1
 62
    39
  6
CONTINUOUS
 10
-0.902851
 20
0.472230
  0
VERTEX
  8
EBENE_1
 62
    39
  6
CONTINUOUS
 10
-0.919230
 20
0.478274
  0
VERTEX
  8
EBENE_1
 62
    39
  6
CONTINUOUS
 10
-0.934749
 20
0.484677
  0
VERTEX
  8
EBENE_1
 62
    39
  6
CONTINUOUS
 10
-0.949297
 20
0.491421
  0
VERTEX
  8
EBENE_1
 62
    39
  6
CONTINUOUS
 10
-0.962766
 20
0.498483
  0
VERTEX
  8
EBENE_1
 62
    39
  6
CONTINUOUS
 10
-0.975049
 20
0.505844
  0
VERTEX
  8
EBENE_1
 62
    39
  6
CONTINUOUS
 10
-0.986037
 20
0.513483
  0
VERTEX
  8
EBENE_1
 62
    39
  6
CONTINUOUS
 10
-0.995620
 20
0.521380
  0
VERTEX
  8
EBENE_1
 62
    39
  6
CONTINUOUS
 10
-1.003692
 20
0.529515
  0
VERTEX
  8
EBENE_1
 62
    39
  6
CONTINUOUS
 10
-1.010143
 20
0.537866
  0
VERTEX
  8
EBENE_1
 62
    39
  6
CONTINUOUS
 10
-1.014865
 20
0.546413
  0
VERTEX
  8
EBENE_1
 62
    39
  6
CONTINUOUS
 10
-1.017750
 20
0.555137
  0
VERTEX
  8
EBENE_1
 62
    39
  6
CONTINUOUS
 10
-1.018689
 20
0.564016
  0
VERTEX
  8
EBENE_1
 62
    39
  6
CONTINUOUS
 10
-1.018689
 20
0.826933
  0
VERTEX
  8
EBENE_1
 62
    39
  6
CONTINUOUS
 10
-0.908520
 20
0.876276
  0
VERTEX
  8
EBENE_1
 62
    39
  6
CONTINUOUS
 10
-0.891933
 20
0.875585
  0
VERTEX
  8
EBENE_1
 62
    39
  6
CONTINUOUS
 10
-0.875254
 20
0.874423
  0
VERTEX
  8
EBENE_1
 62
    39
  6
CONTINUOUS
 10
-0.858495
 20
0.872800
  0
VERTEX
  8
EBENE_1
 62
    39
  6
CONTINUOUS
 10
-0.841668
 20
0.870727
  0
VERTEX
  8
EBENE_1
 62
    39
  6
CONTINUOUS
 10
-0.824785
 20
0.868215
  0
VERTEX
  8
EBENE_1
 62
    39
  6
CONTINUOUS
 10
-0.807857
 20
0.865274
  0
VERTEX
  8
EBENE_1
 62
    39
  6
CONTINUOUS
 10
-0.790898
 20
0.861915
  0
VERTEX
  8
EBENE_1
 62
    39
  6
CONTINUOUS
 10
-0.773919
 20
0.858149
  0
VERTEX
  8
EBENE_1
 62
    39
  6
CONTINUOUS
 10
-0.756931
 20
0.853987
  0
VERTEX
  8
EBENE_1
 62
    39
  6
CONTINUOUS
 10
-0.739948
 20
0.849440
  0
VERTEX
  8
EBENE_1
 62
    39
  6
CONTINUOUS
 10
-0.722981
 20
0.844518
  0
VERTEX
  8
EBENE_1
 62
    39
  6
CONTINUOUS
 10
-0.706042
 20
0.839232
  0
VERTEX
  8
EBENE_1
 62
    39
  6
CONTINUOUS
 10
-0.689142
 20
0.833594
  0
VERTEX
  8
EBENE_1
 62
    39
  6
CONTINUOUS
 10
-0.672295
 20
0.827614
  0
VERTEX
  8
EBENE_1
 62
    39
  6
CONTINUOUS
 10
-0.655512
 20
0.821302
  0
VERTEX
  8
EBENE_1
 62
    39
  6
CONTINUOUS
 10
-0.638805
 20
0.814670
  0
VERTEX
  8
EBENE_1
 62
    39
  6
CONTINUOUS
 10
-0.622186
 20
0.807729
  0
VERTEX
  8
EBENE_1
 62
    39
  6
CONTINUOUS
 10
-0.605668
 20
0.800488
  0
VERTEX
  8
EBENE_1
 62
    39
  6
CONTINUOUS
 10
-0.589261
 20
0.792960
  0
VERTEX
  8
EBENE_1
 62
    39
  6
CONTINUOUS
 10
-0.572979
 20
0.785154
  0
VERTEX
  8
EBENE_1
 62
    39
  6
CONTINUOUS
 10
-0.556832
 20
0.777083
  0
VERTEX
  8
EBENE_1
 62
    39
  6
CONTINUOUS
 10
-0.540834
 20
0.768755
  0
VERTEX
  8
EBENE_1
 62
    39
  6
CONTINUOUS
 10
-0.524997
 20
0.760183
  0
VERTEX
  8
EBENE_1
 62
    39
  6
CONTINUOUS
 10
-0.509331
 20
0.751377
  0
VERTEX
  8
EBENE_1
 62
    39
  6
CONTINUOUS
 10
-0.493850
 20
0.742348
  0
VERTEX
  8
EBENE_1
 62
    39
  6
CONTINUOUS
 10
-0.478565
 20
0.733107
  0
VERTEX
  8
EBENE_1
 62
    39
  6
CONTINUOUS
 10
-0.463488
 20
0.723664
  0
VERTEX
  8
EBENE_1
 62
    39
  6
CONTINUOUS
 10
-0.448631
 20
0.714030
  0
VERTEX
  8
EBENE_1
 62
    39
  6
CONTINUOUS
 10
-0.434007
 20
0.704217
  0
VERTEX
  8
EBENE_1
 62
    39
  6
CONTINUOUS
 10
-0.419627
 20
0.694234
  0
VERTEX
  8
EBENE_1
 62
    39
  6
CONTINUOUS
 10
-0.405503
 20
0.684094
  0
VERTEX
  8
EBENE_1
 62
    39
  6
CONTINUOUS
 10
-0.391648
 20
0.673806
  0
VERTEX
  8
EBENE_1
 62
    39
  6
CONTINUOUS
 10
-0.378073
 20
0.663381
  0
VERTEX
  8
EBENE_1
 62
    39
  6
CONTINUOUS
 10
-0.364791
 20
0.652831
  0
VERTEX
  8
EBENE_1
 62
    39
  6
CONTINUOUS
 10
-0.351813
 20
0.642166
  0
VERTEX
  8
EBENE_1
 62
    39
  6
CONTINUOUS
 10
-0.339151
 20
0.631397
  0
VERTEX
  8
EBENE_1
 62
    39
  6
CONTINUOUS
 10
-0.326818
 20
0.620534
  0
VERTEX
  8
EBENE_1
 62
    39
  6
CONTINUOUS
 10
-0.314825
 20
0.609589
  0
VERTEX
  8
EBENE_1
 62
    39
  6
CONTINUOUS
 10
-0.303185
 20
0.598572
  0
VERTEX
  8
EBENE_1
 62
    39
  6
CONTINUOUS
 10
-0.291909
 20
0.587494
  0
VERTEX
  8
EBENE_1
 62
    39
  6
CONTINUOUS
 10
-0.281010
 20
0.576366
  0
VERTEX
  8
EBENE_1
 62
    39
  6
CONTINUOUS
 10
-0.270499
 20
0.565199
  0
VERTEX
  8
EBENE_1
 62
    39
  6
CONTINUOUS
 10
-0.260388
 20
0.554004
  0
VERTEX
  8
EBENE_1
 62
    39
  6
CONTINUOUS
 10
-0.250691
 20
0.542791
  0
VERTEX
  8
EBENE_1
 62
    39
  6
CONTINUOUS
 10
-0.241417
 20
0.531571
  0
SEQEND
  8
0
  0
POLYLINE
  8
EBENE_1
 62
    39
  6
CONTINUOUS
 66
     1
 40
0.003000
 41
0.003000
 70
     1
  0
VERTEX
  8
EBENE_1
 62
    39
  6
CONTINUOUS
 10
-0.243445
 20
0.534276
  0
VERTEX
  8
EBENE_1
 62
    39
  6
CONTINUOUS
 10
-0.597610
 20
0.450465
  0
VERTEX
  8
EBENE_1
 62
    39
  6
CONTINUOUS
 10
-0.613592
 20
0.447371
  0
VERTEX
  8
EBENE_1
 62
    39
  6
CONTINUOUS
 10
-0.630291
 20
0.444935
  0
VERTEX
  8
EBENE_1
 62
    39
  6
CONTINUOUS
 10
-0.647615
 20
0.443141
  0
VERTEX
  8
EBENE_1
 62
    39
  6
CONTINUOUS
 10
-0.665472
 20
0.441977
  0
VERTEX
  8
EBENE_1
 62
    39
  6
CONTINUOUS
 10
-0.683768
 20
0.441429
  0
VERTEX
  8
EBENE_1
 62
    39
  6
CONTINUOUS
 10
-0.702411
 20
0.441482
  0
VERTEX
  8
EBENE_1
 62
    39
  6
CONTINUOUS
 10
-0.721308
 20
0.442124
  0
VERTEX
  8
EBENE_1
 62
    39
  6
CONTINUOUS
 10
-0.740367
 20
0.443341
  0
VERTEX
  8
EBENE_1
 62
    39
  6
CONTINUOUS
 10
-0.759496
 20
0.445120
  0
VERTEX
  8
EBENE_1
 62
    39
  6
CONTINUOUS
 10
-0.778601
 20
0.447445
  0
VERTEX
  8
EBENE_1
 62
    39
  6
CONTINUOUS
 10
-0.797589
 20
0.450305
  0
VERTEX
  8
EBENE_1
 62
    39
  6
CONTINUOUS
 10
-0.816370
 20
0.453685
  0
VERTEX
  8
EBENE_1
 62
    39
  6
CONTINUOUS
 10
-0.834848
 20
0.457571
  0
VERTEX
  8
EBENE_1
 62
    39
  6
CONTINUOUS
 10
-0.852933
 20
0.461951
  0
VERTEX
  8
EBENE_1
 62
    39
  6
CONTINUOUS
 10
-0.870532
 20
0.466809
  0
VERTEX
  8
EBENE_1
 62
    39
  6
CONTINUOUS
 10
-0.887551
 20
0.472134
  0
VERTEX
  8
EBENE_1
 62
    39
  6
CONTINUOUS
 10
-0.903899
 20
0.477911
  0
VERTEX
  8
EBENE_1
 62
    39
  6
CONTINUOUS
 10
-0.919482
 20
0.484126
  0
VERTEX
  8
EBENE_1
 62
    39
  6
CONTINUOUS
 10
-0.934208
 20
0.490766
  0
VERTEX
  8
EBENE_1
 62
    39
  6
CONTINUOUS
 10
-0.947985
 20
0.497817
  0
VERTEX
  8
EBENE_1
 62
    39
  6
CONTINUOUS
 10
-0.960719
 20
0.505266
  0
VERTEX
  8
EBENE_1
 62
    39
  6
CONTINUOUS
 10
-0.972319
 20
0.513098
  0
VERTEX
  8
EBENE_1
 62
    39
  6
CONTINUOUS
 10
-0.982691
 20
0.521301
  0
VERTEX
  8
EBENE_1
 62
    39
  6
CONTINUOUS
 10
-0.991743
 20
0.529861
  0
VERTEX
  8
EBENE_1
 62
    39
  6
CONTINUOUS
 10
-0.999382
 20
0.538764
  0
VERTEX
  8
EBENE_1
 62
    39
  6
CONTINUOUS
 10
-1.005516
 20
0.547996
  0
VERTEX
  8
EBENE_1
 62
    39
  6
CONTINUOUS
 10
-1.010052
 20
0.557543
  0
VERTEX
  8
EBENE_1
 62
    39
  6
CONTINUOUS
 10
-1.012898
 20
0.567393
  0
VERTEX
  8
EBENE_1
 62
    39
  6
CONTINUOUS
 10
-1.013961
 20
0.577531
  0
VERTEX
  8
EBENE_1
 62
    39
  6
CONTINUOUS
 10
-1.013283
 20
0.832343
  0
VERTEX
  8
EBENE_1
 62
    39
  6
CONTINUOUS
 10
-0.911224
 20
0.875598
  0
VERTEX
  8
EBENE_1
 62
    39
  6
CONTINUOUS
 10
-0.895024
 20
0.875043
  0
VERTEX
  8
EBENE_1
 62
    39
  6
CONTINUOUS
 10
-0.878695
 20
0.874016
  0
VERTEX
  8
EBENE_1
 62
    39
  6
CONTINUOUS
 10
-0.862251
 20
0.872528
  0
VERTEX
  8
EBENE_1
 62
    39
  6
CONTINUOUS
 10
-0.845704
 20
0.870589
  0
VERTEX
  8
EBENE_1
 62
    39
  6
CONTINUOUS
 10
-0.829068
 20
0.868210
  0
VERTEX
  8
EBENE_1
 62
    39
  6
CONTINUOUS
 10
-0.812357
 20
0.865401
  0
VERTEX
  8
EBENE_1
 62
    39
  6
CONTINUOUS
 10
-0.795583
 20
0.862174
  0
VERTEX
  8
EBENE_1
 62
    39
  6
CONTINUOUS
 10
-0.778760
 20
0.858538
  0
VERTEX
  8
EBENE_1
 62
    39
  6
CONTINUOUS
 10
-0.761901
 20
0.854505
  0
VERTEX
  8
EBENE_1
 62
    39
  6
CONTINUOUS
 10
-0.745020
 20
0.850085
  0
VERTEX
  8
EBENE_1
 62
    39
  6
CONTINUOUS
 10
-0.728130
 20
0.845289
  0
VERTEX
  8
EBENE_1
 62
    39
  6
CONTINUOUS
 10
-0.711244
 20
0.840127
  0
VERTEX
  8
EBENE_1
 62
    39
  6
CONTINUOUS
 10
-0.694376
 20
0.834610
  0
VERTEX
  8
EBENE_1
 62
    39
  6
CONTINUOUS
 10
-0.677538
 20
0.828749
  0
VERTEX
  8
EBENE_1
 62
    39
  6
CONTINUOUS
 10
-0.660745
 20
0.822554
  0
VERTEX
  8
EBENE_1
 62
    39
  6
CONTINUOUS
 10
-0.644009
 20
0.816035
  0
VERTEX
  8
EBENE_1
 62
    39
  6
CONTINUOUS
 10
-0.627343
 20
0.809205
  0
VERTEX
  8
EBENE_1
 62
    39
  6
CONTINUOUS
 10
-0.610762
 20
0.802073
  0
VERTEX
  8
EBENE_1
 62
    39
  6
CONTINUOUS
 10
-0.594278
 20
0.794649
  0
VERTEX
  8
EBENE_1
 62
    39
  6
CONTINUOUS
 10
-0.577904
 20
0.786945
  0
VERTEX
  8
EBENE_1
 62
    39
  6
CONTINUOUS
 10
-0.561655
 20
0.778971
  0
VERTEX
  8
EBENE_1
 62
    39
  6
CONTINUOUS
 10
-0.545542
 20
0.770738
  0
VERTEX
  8
EBENE_1
 62
    39
  6
CONTINUOUS
 10
-0.529581
 20
0.762256
  0
VERTEX
  8
EBENE_1
 62
    39
  6
CONTINUOUS
 10
-0.513783
 20
0.753536
  0
VERTEX
  8
EBENE_1
 62
    39
  6
CONTINUOUS
 10
-0.498162
 20
0.744589
  0
VERTEX
  8
EBENE_1
 62
    39
  6
CONTINUOUS
 10
-0.482732
 20
0.735425
  0
VERTEX
  8
EBENE_1
 62
    39
  6
CONTINUOUS
 10
-0.467505
 20
0.726054
  0
VERTEX
  8
EBENE_1
 62
    39
  6
CONTINUOUS
 10
-0.452496
 20
0.716489
  0
VERTEX
  8
EBENE_1
 62
    39
  6
CONTINUOUS
 10
-0.437717
 20
0.706738
  0
VERTEX
  8
EBENE_1
 62
    39
  6
CONTINUOUS
 10
-0.423182
 20
0.696814
  0
VERTEX
  8
EBENE_1
 62
    39
  6
CONTINUOUS
 10
-0.408904
 20
0.686726
  0
VERTEX
  8
EBENE_1
 62
    39
  6
CONTINUOUS
 10
-0.394896
 20
0.676485
  0
VERTEX
  8
EBENE_1
 62
    39
  6
CONTINUOUS
 10
-0.381171
 20
0.666102
  0
VERTEX
  8
EBENE_1
 62
    39
  6
CONTINUOUS
 10
-0.367744
 20
0.655587
  0
VERTEX
  8
EBENE_1
 62
    39
  6
CONTINUOUS
 10
-0.354627
 20
0.644951
  0
VERTEX
  8
EBENE_1
 62
    39
  6
CONTINUOUS
 10
-0.341833
 20
0.634204
  0
VERTEX
  8
EBENE_1
 62
    39
  6
CONTINUOUS
 10
-0.329376
 20
0.623358
  0
VERTEX
  8
EBENE_1
 62
    39
  6
CONTINUOUS
 10
-0.317270
 20
0.612423
  0
VERTEX
  8
EBENE_1
 62
    39
  6
CONTINUOUS
 10
-0.305526
 20
0.601409
  0
VERTEX
  8
EBENE_1
 62
    39
  6
CONTINUOUS
 10
-0.294160
 20
0.590328
  0
VERTEX
  8
EBENE_1
 62
    39
  6
CONTINUOUS
 10
-0.283184
 20
0.579189
  0
VERTEX
  8
EBENE_1
 62
    39
  6
CONTINUOUS
 10
-0.272611
 20
0.568004
  0
VERTEX
  8
EBENE_1
 62
    39
  6
CONTINUOUS
 10
-0.262454
 20
0.556783
  0
VERTEX
  8
EBENE_1
 62
    39
  6
CONTINUOUS
 10
-0.252728
 20
0.545537
  0
VERTEX
  8
EBENE_1
 62
    39
  6
CONTINUOUS
 10
-0.243445
 20
0.534276
  0
SEQEND
  8
0
  0
POLYLINE
  8
EBENE_1
 62
    39
  6
CONTINUOUS
 66
     1
 40
0.003000
 41
0.003000
 70
     1
  0
VERTEX
  8
EBENE_1
 62
    39
  6
CONTINUOUS
 10
-0.714539
 20
0.812063
  0
VERTEX
  8
EBENE_1
 62
    39
  6
CONTINUOUS
 10
-0.711938
 20
0.812689
  0
VERTEX
  8
EBENE_1
 62
    39
  6
CONTINUOUS
 10
-0.709935
 20
0.814366
  0
VERTEX
  8
EBENE_1
 62
    39
  6
CONTINUOUS
 10
-0.709134
 20
0.816795
  0
VERTEX
  8
EBENE_1
 62
    39
  6
CONTINUOUS
 10
-0.709935
 20
0.819224
  0
VERTEX
  8
EBENE_1
 62
    39
  6
CONTINUOUS
 10
-0.711938
 20
0.820902
  0
VERTEX
  8
EBENE_1
 62
    39
  6
CONTINUOUS
 10
-0.714539
 20
0.821528
  0
VERTEX
  8
EBENE_1
 62
    39
  6
CONTINUOUS
 10
-0.716667
 20
0.820902
  0
VERTEX
  8
EBENE_1
 62
    39
  6
CONTINUOUS
 10
-0.718495
 20
0.819224
  0
VERTEX
  8
EBENE_1
 62
    39
  6
CONTINUOUS
 10
-0.719272
 20
0.816795
  0
VERTEX
  8
EBENE_1
 62
    39
  6
CONTINUOUS
 10
-0.718495
 20
0.814366
  0
VERTEX
  8
EBENE_1
 62
    39
  6
CONTINUOUS
 10
-0.716667
 20
0.812689
  0
SEQEND
  8
0
  0
POLYLINE
  8
EBENE_1
 62
    39
  6
CONTINUOUS
 66
     1
 40
0.003000
 41
0.003000
 70
     1
  0
VERTEX
  8
EBENE_1
 62
    39
  6
CONTINUOUS
 10
-0.585445
 20
0.750559
  0
VERTEX
  8
EBENE_1
 62
    39
  6
CONTINUOUS
 10
-0.583019
 20
0.751185
  0
VERTEX
  8
EBENE_1
 62
    39
  6
CONTINUOUS
 10
-0.581342
 20
0.752862
  0
VERTEX
  8
EBENE_1
 62
    39
  6
CONTINUOUS
 10
-0.580717
 20
0.755291
  0
VERTEX
  8
EBENE_1
 62
    39
  6
CONTINUOUS
 10
-0.581342
 20
0.757718
  0
VERTEX
  8
EBENE_1
 62
    39
  6
CONTINUOUS
 10
-0.583019
 20
0.759394
  0
VERTEX
  8
EBENE_1
 62
    39
  6
CONTINUOUS
 10
-0.585445
 20
0.760020
  0
VERTEX
  8
EBENE_1
 62
    39
  6
CONTINUOUS
 10
-0.587874
 20
0.759394
  0
VERTEX
  8
EBENE_1
 62
    39
  6
CONTINUOUS
 10
-0.589551
 20
0.757718
  0
VERTEX
  8
EBENE_1
 62
    39
  6
CONTINUOUS
 10
-0.590177
 20
0.755291
  0
VERTEX
  8
EBENE_1
 62
    39
  6
CONTINUOUS
 10
-0.589551
 20
0.752862
  0
VERTEX
  8
EBENE_1
 62
    39
  6
CONTINUOUS
 10
-0.587874
 20
0.751185
  0
SEQEND
  8
0
  0
POLYLINE
  8
EBENE_1
 62
    39
  6
CONTINUOUS
 66
     1
 40
0.003000
 41
0.003000
 70
     1
  0
VERTEX
  8
EBENE_1
 62
    39
  6
CONTINUOUS
 10
-0.425937
 20
0.654583
  0
VERTEX
  8
EBENE_1
 62
    39
  6
CONTINUOUS
 10
-0.423332
 20
0.655209
  0
VERTEX
  8
EBENE_1
 62
    39
  6
CONTINUOUS
 10
-0.421329
 20
0.656886
  0
VERTEX
  8
EBENE_1
 62
    39
  6
CONTINUOUS
 10
-0.420528
 20
0.659315
  0
VERTEX
  8
EBENE_1
 62
    39
  6
CONTINUOUS
 10
-0.421329
 20
0.661741
  0
VERTEX
  8
EBENE_1
 62
    39
  6
CONTINUOUS
 10
-0.423332
 20
0.663418
  0
VERTEX
  8
EBENE_1
 62
    39
  6
CONTINUOUS
 10
-0.425937
 20
0.664043
  0
VERTEX
  8
EBENE_1
 62
    39
  6
CONTINUOUS
 10
-0.428364
 20
0.663418
  0
VERTEX
  8
EBENE_1
 62
    39
  6
CONTINUOUS
 10
-0.430043
 20
0.661741
  0
VERTEX
  8
EBENE_1
 62
    39
  6
CONTINUOUS
 10
-0.430669
 20
0.659315
  0
VERTEX
  8
EBENE_1
 62
    39
  6
CONTINUOUS
 10
-0.430043
 20
0.656886
  0
VERTEX
  8
EBENE_1
 62
    39
  6
CONTINUOUS
 10
-0.428364
 20
0.655209
  0
SEQEND
  8
0
  0
POLYLINE
  8
EBENE_1
 62
    39
  6
CONTINUOUS
 66
     1
 40
0.003000
 41
0.003000
 70
     1
  0
VERTEX
  8
EBENE_1
 62
    39
  6
CONTINUOUS
 10
-0.217764
 20
1.139870
  0
VERTEX
  8
EBENE_1
 62
    39
  6
CONTINUOUS
 10
0.099224
 20
0.620114
  0
VERTEX
  8
EBENE_1
 62
    39
  6
CONTINUOUS
 10
-0.232630
 20
0.533598
  0
VERTEX
  8
EBENE_1
 62
    39
  6
CONTINUOUS
 10
-0.239264
 20
0.532124
  0
VERTEX
  8
EBENE_1
 62
    39
  6
CONTINUOUS
 10
-0.246694
 20
0.530554
  0
VERTEX
  8
EBENE_1
 62
    39
  6
CONTINUOUS
 10
-0.254891
 20
0.528904
  0
VERTEX
  8
EBENE_1
 62
    39
  6
CONTINUOUS
 10
-0.263826
 20
0.527186
  0
VERTEX
  8
EBENE_1
 62
    39
  6
CONTINUOUS
 10
-0.273469
 20
0.525416
  0
VERTEX
  8
EBENE_1
 62
    39
  6
CONTINUOUS
 10
-0.283790
 20
0.523607
  0
VERTEX
  8
EBENE_1
 62
    39
  6
CONTINUOUS
 10
-0.294760
 20
0.521772
  0
VERTEX
  8
EBENE_1
 62
    39
  6
CONTINUOUS
 10
-0.306348
 20
0.519927
  0
VERTEX
  8
EBENE_1
 62
    39
  6
CONTINUOUS
 10
-0.318526
 20
0.518084
  0
VERTEX
  8
EBENE_1
 62
    39
  6
CONTINUOUS
 10
-0.331264
 20
0.516257
  0
VERTEX
  8
EBENE_1
 62
    39
  6
CONTINUOUS
 10
-0.344533
 20
0.514461
  0
VERTEX
  8
EBENE_1
 62
    39
  6
CONTINUOUS
 10
-0.358301
 20
0.512709
  0
VERTEX
  8
EBENE_1
 62
    39
  6
CONTINUOUS
 10
-0.372541
 20
0.511016
  0
VERTEX
  8
EBENE_1
 62
    39
  6
CONTINUOUS
 10
-0.387222
 20
0.509395
  0
VERTEX
  8
EBENE_1
 62
    39
  6
CONTINUOUS
 10
-0.402315
 20
0.507860
  0
VERTEX
  8
EBENE_1
 62
    39
  6
CONTINUOUS
 10
-0.417791
 20
0.506424
  0
VERTEX
  8
EBENE_1
 62
    39
  6
CONTINUOUS
 10
-0.433619
 20
0.505103
  0
VERTEX
  8
EBENE_1
 62
    39
  6
CONTINUOUS
 10
-0.449769
 20
0.503910
  0
VERTEX
  8
EBENE_1
 62
    39
  6
CONTINUOUS
 10
-0.466214
 20
0.502858
  0
VERTEX
  8
EBENE_1
 62
    39
  6
CONTINUOUS
 10
-0.482922
 20
0.501962
  0
VERTEX
  8
EBENE_1
 62
    39
  6
CONTINUOUS
 10
-0.499864
 20
0.501235
  0
VERTEX
  8
EBENE_1
 62
    39
  6
CONTINUOUS
 10
-0.517011
 20
0.500692
  0
VERTEX
  8
EBENE_1
 62
    39
  6
CONTINUOUS
 10
-0.534332
 20
0.500346
  0
VERTEX
  8
EBENE_1
 62
    39
  6
CONTINUOUS
 10
-0.551799
 20
0.500211
  0
VERTEX
  8
EBENE_1
 62
    39
  6
CONTINUOUS
 10
-0.569382
 20
0.500302
  0
VERTEX
  8
EBENE_1
 62
    39
  6
CONTINUOUS
 10
-0.587051
 20
0.500631
  0
VERTEX
  8
EBENE_1
 62
    39
  6
CONTINUOUS
 10
-0.604777
 20
0.501214
  0
VERTEX
  8
EBENE_1
 62
    39
  6
CONTINUOUS
 10
-0.622529
 20
0.502063
  0
VERTEX
  8
EBENE_1
 62
    39
  6
CONTINUOUS
 10
-0.640279
 20
0.503193
  0
VERTEX
  8
EBENE_1
 62
    39
  6
CONTINUOUS
 10
-0.657996
 20
0.504618
  0
VERTEX
  8
EBENE_1
 62
    39
  6
CONTINUOUS
 10
-0.675652
 20
0.506351
  0
VERTEX
  8
EBENE_1
 62
    39
  6
CONTINUOUS
 10
-0.693216
 20
0.508407
  0
VERTEX
  8
EBENE_1
 62
    39
  6
CONTINUOUS
 10
-0.710659
 20
0.510799
  0
VERTEX
  8
EBENE_1
 62
    39
  6
CONTINUOUS
 10
-0.727951
 20
0.513541
  0
VERTEX
  8
EBENE_1
 62
    39
  6
CONTINUOUS
 10
-0.745063
 20
0.516648
  0
VERTEX
  8
EBENE_1
 62
    39
  6
CONTINUOUS
 10
-0.761965
 20
0.520132
  0
VERTEX
  8
EBENE_1
 62
    39
  6
CONTINUOUS
 10
-0.778628
 20
0.524009
  0
VERTEX
  8
EBENE_1
 62
    39
  6
CONTINUOUS
 10
-0.795021
 20
0.528292
  0
VERTEX
  8
EBENE_1
 62
    39
  6
CONTINUOUS
 10
-0.811116
 20
0.532994
  0
VERTEX
  8
EBENE_1
 62
    39
  6
CONTINUOUS
 10
-0.826882
 20
0.538130
  0
VERTEX
  8
EBENE_1
 62
    39
  6
CONTINUOUS
 10
-0.842291
 20
0.543714
  0
VERTEX
  8
EBENE_1
 62
    39
  6
CONTINUOUS
 10
-0.857312
 20
0.549759
  0
VERTEX
  8
EBENE_1
 62
    39
  6
CONTINUOUS
 10
-0.871916
 20
0.556280
  0
VERTEX
  8
EBENE_1
 62
    39
  6
CONTINUOUS
 10
-0.886073
 20
0.563290
  0
VERTEX
  8
EBENE_1
 62
    39
  6
CONTINUOUS
 10
-0.899753
 20
0.570803
  0
VERTEX
  8
EBENE_1
 62
    39
  6
CONTINUOUS
 10
-0.912928
 20
0.578833
  0
VERTEX
  8
EBENE_1
 62
    39
  6
CONTINUOUS
 10
-0.925567
 20
0.587395
  0
VERTEX
  8
EBENE_1
 62
    39
  6
CONTINUOUS
 10
-0.937641
 20
0.596501
  0
VERTEX
  8
EBENE_1
 62
    39
  6
CONTINUOUS
 10
-0.949120
 20
0.606166
  0
VERTEX
  8
EBENE_1
 62
    39
  6
CONTINUOUS
 10
-0.959975
 20
0.616404
  0
VERTEX
  8
EBENE_1
 62
    39
  6
CONTINUOUS
 10
-0.970175
 20
0.627229
  0
VERTEX
  8
EBENE_1
 62
    39
  6
CONTINUOUS
 10
-0.979693
 20
0.638654
  0
VERTEX
  8
EBENE_1
 62
    39
  6
CONTINUOUS
 10
-0.988497
 20
0.650694
  0
VERTEX
  8
EBENE_1
 62
    39
  6
CONTINUOUS
 10
-0.996558
 20
0.663362
  0
VERTEX
  8
EBENE_1
 62
    39
  6
CONTINUOUS
 10
-1.003846
 20
0.676672
  0
VERTEX
  8
EBENE_1
 62
    39
  6
CONTINUOUS
 10
-1.010333
 20
0.690639
  0
VERTEX
  8
EBENE_1
 62
    39
  6
CONTINUOUS
 10
-1.015988
 20
0.705276
  0
VERTEX
  8
EBENE_1
 62
    39
  6
CONTINUOUS
 10
-1.015988
 20
0.705276
  0
VERTEX
  8
EBENE_1
 62
    39
  6
CONTINUOUS
 10
-1.016661
 20
0.974280
  0
VERTEX
  8
EBENE_1
 62
    39
  6
CONTINUOUS
 10
-0.906492
 20
1.054709
  0
VERTEX
  8
EBENE_1
 62
    39
  6
CONTINUOUS
 10
-0.336043
 20
1.211516
  0
VERTEX
  8
EBENE_1
 62
    39
  6
CONTINUOUS
 10
-0.313990
 20
1.215605
  0
VERTEX
  8
EBENE_1
 62
    39
  6
CONTINUOUS
 10
-0.296360
 20
1.215355
  0
VERTEX
  8
EBENE_1
 62
    39
  6
CONTINUOUS
 10
-0.282349
 20
1.211455
  0
VERTEX
  8
EBENE_1
 62
    39
  6
CONTINUOUS
 10
-0.271147
 20
1.204595
  0
VERTEX
  8
EBENE_1
 62
    39
  6
CONTINUOUS
 10
-0.261949
 20
1.195463
  0
VERTEX
  8
EBENE_1
 62
    39
  6
CONTINUOUS
 10
-0.253948
 20
1.184750
  0
VERTEX
  8
EBENE_1
 62
    39
  6
CONTINUOUS
 10
-0.246335
 20
1.173145
  0
VERTEX
  8
EBENE_1
 62
    39
  6
CONTINUOUS
 10
-0.238305
 20
1.161336
  0
VERTEX
  8
EBENE_1
 62
    39
  6
CONTINUOUS
 10
-0.229050
 20
1.150015
  0
SEQEND
  8
0
  0
POLYLINE
  8
EBENE_1
 62
    39
  6
CONTINUOUS
 66
     1
 40
0.003000
 41
0.003000
 70
     1
  0
VERTEX
  8
EBENE_1
 62
    39
  6
CONTINUOUS
 10
-0.217764
 20
1.137843
  0
VERTEX
  8
EBENE_1
 62
    39
  6
CONTINUOUS
 10
0.093819
 20
0.626197
  0
VERTEX
  8
EBENE_1
 62
    39
  6
CONTINUOUS
 10
-0.232630
 20
0.541035
  0
VERTEX
  8
EBENE_1
 62
    39
  6
CONTINUOUS
 10
-0.239276
 20
0.539571
  0
VERTEX
  8
EBENE_1
 62
    39
  6
CONTINUOUS
 10
-0.246736
 20
0.538010
  0
VERTEX
  8
EBENE_1
 62
    39
  6
CONTINUOUS
 10
-0.254981
 20
0.536369
  0
VERTEX
  8
EBENE_1
 62
    39
  6
CONTINUOUS
 10
-0.263979
 20
0.534661
  0
VERTEX
  8
EBENE_1
 62
    39
  6
CONTINUOUS
 10
-0.273699
 20
0.532900
  0
VERTEX
  8
EBENE_1
 62
    39
  6
CONTINUOUS
 10
-0.284111
 20
0.531101
  0
VERTEX
  8
EBENE_1
 62
    39
  6
CONTINUOUS
 10
-0.295184
 20
0.529279
  0
VERTEX
  8
EBENE_1
 62
    39
  6
CONTINUOUS
 10
-0.306886
 20
0.527448
  0
VERTEX
  8
EBENE_1
 62
    39
  6
CONTINUOUS
 10
-0.319188
 20
0.525622
  0
VERTEX
  8
EBENE_1
 62
    39
  6
CONTINUOUS
 10
-0.332058
 20
0.523815
  0
VERTEX
  8
EBENE_1
 62
    39
  6
CONTINUOUS
 10
-0.345465
 20
0.522042
  0
VERTEX
  8
EBENE_1
 62
    39
  6
CONTINUOUS
 10
-0.359379
 20
0.520318
  0
VERTEX
  8
EBENE_1
 62
    39
  6
CONTINUOUS
 10
-0.373769
 20
0.518657
  0
VERTEX
  8
EBENE_1
 62
    39
  6
CONTINUOUS
 10
-0.388603
 20
0.517072
  0
VERTEX
  8
EBENE_1
 62
    39
  6
CONTINUOUS
 10
-0.403852
 20
0.515579
  0
VERTEX
  8
EBENE_1
 62
    39
  6
CONTINUOUS
 10
-0.419484
 20
0.514192
  0
VERTEX
  8
EBENE_1
 62
    39
  6
CONTINUOUS
 10
-0.435469
 20
0.512925
  0
VERTEX
  8
EBENE_1
 62
    39
  6
CONTINUOUS
 10
-0.451775
 20
0.511793
  0
VERTEX
  8
EBENE_1
 62
    39
  6
CONTINUOUS
 10
-0.468372
 20
0.510810
  0
VERTEX
  8
EBENE_1
 62
    39
  6
CONTINUOUS
 10
-0.485229
 20
0.509990
  0
VERTEX
  8
EBENE_1
 62
    39
  6
CONTINUOUS
 10
-0.502316
 20
0.509348
  0
VERTEX
  8
EBENE_1
 62
    39
  6
CONTINUOUS
 10
-0.519600
 20
0.508898
  0
VERTEX
  8
EBENE_1
 62
    39
  6
CONTINUOUS
 10
-0.537052
 20
0.508655
  0
VERTEX
  8
EBENE_1
 62
    39
  6
CONTINUOUS
 10
-0.554641
 20
0.508633
  0
VERTEX
  8
EBENE_1
 62
    39
  6
CONTINUOUS
 10
-0.572335
 20
0.508846
  0
VERTEX
  8
EBENE_1
 62
    39
  6
CONTINUOUS
 10
-0.590105
 20
0.509309
  0
VERTEX
  8
EBENE_1
 62
    39
  6
CONTINUOUS
 10
-0.607919
 20
0.510036
  0
VERTEX
  8
EBENE_1
 62
    39
  6
CONTINUOUS
 10
-0.625746
 20
0.511042
  0
VERTEX
  8
EBENE_1
 62
    39
  6
CONTINUOUS
 10
-0.643556
 20
0.512340
  0
VERTEX
  8
EBENE_1
 62
    39
  6
CONTINUOUS
 10
-0.661317
 20
0.513946
  0
VERTEX
  8
EBENE_1
 62
    39
  6
CONTINUOUS
 10
-0.678999
 20
0.515873
  0
VERTEX
  8
EBENE_1
 62
    39
  6
CONTINUOUS
 10
-0.696572
 20
0.518137
  0
VERTEX
  8
EBENE_1
 62
    39
  6
CONTINUOUS
 10
-0.714003
 20
0.520751
  0
VERTEX
  8
EBENE_1
 62
    39
  6
CONTINUOUS
 10
-0.731263
 20
0.523730
  0
VERTEX
  8
EBENE_1
 62
    39
  6
CONTINUOUS
 10
-0.748321
 20
0.527088
  0
VERTEX
  8
EBENE_1
 62
    39
  6
CONTINUOUS
 10
-0.765145
 20
0.530839
  0
VERTEX
  8
EBENE_1
 62
    39
  6
CONTINUOUS
 10
-0.781706
 20
0.534999
  0
VERTEX
  8
EBENE_1
 62
    39
  6
CONTINUOUS
 10
-0.797971
 20
0.539581
  0
VERTEX
  8
EBENE_1
 62
    39
  6
CONTINUOUS
 10
-0.813910
 20
0.544599
  0
VERTEX
  8
EBENE_1
 62
    39
  6
CONTINUOUS
 10
-0.829493
 20
0.550069
  0
VERTEX
  8
EBENE_1
 62
    39
  6
CONTINUOUS
 10
-0.844689
 20
0.556005
  0
VERTEX
  8
EBENE_1
 62
    39
  6
CONTINUOUS
 10
-0.859466
 20
0.562420
  0
VERTEX
  8
EBENE_1
 62
    39
  6
CONTINUOUS
 10
-0.873795
 20
0.569329
  0
VERTEX
  8
EBENE_1
 62
    39
  6
CONTINUOUS
 10
-0.887643
 20
0.576748
  0
VERTEX
  8
EBENE_1
 62
    39
  6
CONTINUOUS
 10
-0.900981
 20
0.584689
  0
VERTEX
  8
EBENE_1
 62
    39
  6
CONTINUOUS
 10
-0.913777
 20
0.593168
  0
VERTEX
  8
EBENE_1
 62
    39
  6
CONTINUOUS
 10
-0.926001
 20
0.602198
  0
VERTEX
  8
EBENE_1
 62
    39
  6
CONTINUOUS
 10
-0.937622
 20
0.611795
  0
VERTEX
  8
EBENE_1
 62
    39
  6
CONTINUOUS
 10
-0.948608
 20
0.621973
  0
VERTEX
  8
EBENE_1
 62
    39
  6
CONTINUOUS
 10
-0.958930
 20
0.632745
  0
VERTEX
  8
EBENE_1
 62
    39
  6
CONTINUOUS
 10
-0.968556
 20
0.644127
  0
VERTEX
  8
EBENE_1
 62
    39
  6
CONTINUOUS
 10
-0.977456
 20
0.656133
  0
VERTEX
  8
EBENE_1
 62
    39
  6
CONTINUOUS
 10
-0.985598
 20
0.668777
  0
VERTEX
  8
EBENE_1
 62
    39
  6
CONTINUOUS
 10
-0.992953
 20
0.682073
  0
VERTEX
  8
EBENE_1
 62
    39
  6
CONTINUOUS
 10
-0.999488
 20
0.696036
  0
VERTEX
  8
EBENE_1
 62
    39
  6
CONTINUOUS
 10
-1.005173
 20
0.710681
  0
VERTEX
  8
EBENE_1
 62
    39
  6
CONTINUOUS
 10
-1.005173
 20
0.710681
  0
VERTEX
  8
EBENE_1
 62
    39
  6
CONTINUOUS
 10
-1.007201
 20
0.976980
  0
VERTEX
  8
EBENE_1
 62
    39
  6
CONTINUOUS
 10
-0.909870
 20
1.054031
  0
VERTEX
  8
EBENE_1
 62
    39
  6
CONTINUOUS
 10
-0.334693
 20
1.208134
  0
VERTEX
  8
EBENE_1
 62
    39
  6
CONTINUOUS
 10
-0.312822
 20
1.212243
  0
VERTEX
  8
EBENE_1
 62
    39
  6
CONTINUOUS
 10
-0.295344
 20
1.212049
  0
VERTEX
  8
EBENE_1
 62
    39
  6
CONTINUOUS
 10
-0.281459
 20
1.208238
  0
VERTEX
  8
EBENE_1
 62
    39
  6
CONTINUOUS
 10
-0.270368
 20
1.201494
  0
VERTEX
  8
EBENE_1
 62
    39
  6
CONTINUOUS
 10
-0.261273
 20
1.192504
  0
VERTEX
  8
EBENE_1
 62
    39
  6
CONTINUOUS
 10
-0.253374
 20
1.181953
  0
VERTEX
  8
EBENE_1
 62
    39
  6
CONTINUOUS
 10
-0.245872
 20
1.170526
  0
VERTEX
  8
EBENE_1
 62
    39
  6
CONTINUOUS
 10
-0.237970
 20
1.158908
  0
VERTEX
  8
EBENE_1
 62
    39
  6
CONTINUOUS
 10
-0.228866
 20
1.147785
  0
SEQEND
  8
0
  0
POLYLINE
  8
EBENE_1
 62
    39
  6
CONTINUOUS
 66
     1
 40
0.003000
 41
0.003000
 70
     1
  0
VERTEX
  8
EBENE_1
 62
    39
  6
CONTINUOUS
 10
-0.797000
 20
1.025646
  0
VERTEX
  8
EBENE_1
 62
    39
  6
CONTINUOUS
 10
-0.791493
 20
1.027272
  0
VERTEX
  8
EBENE_1
 62
    39
  6
CONTINUOUS
 10
-0.787637
 20
1.031452
  0
VERTEX
  8
EBENE_1
 62
    39
  6
CONTINUOUS
 10
-0.786185
 20
1.037134
  0
VERTEX
  8
EBENE_1
 62
    39
  6
CONTINUOUS
 10
-0.787637
 20
1.043118
  0
VERTEX
  8
EBENE_1
 62
    39
  6
CONTINUOUS
 10
-0.791493
 20
1.047149
  0
VERTEX
  8
EBENE_1
 62
    39
  6
CONTINUOUS
 10
-0.797000
 20
1.048626
  0
VERTEX
  8
EBENE_1
 62
    39
  6
CONTINUOUS
 10
-0.802981
 20
1.047149
  0
VERTEX
  8
EBENE_1
 62
    39
  6
CONTINUOUS
 10
-0.807011
 20
1.043118
  0
VERTEX
  8
EBENE_1
 62
    39
  6
CONTINUOUS
 10
-0.808488
 20
1.037134
  0
VERTEX
  8
EBENE_1
 62
    39
  6
CONTINUOUS
 10
-0.807011
 20
1.031452
  0
VERTEX
  8
EBENE_1
 62
    39
  6
CONTINUOUS
 10
-0.802981
 20
1.027272
  0
SEQEND
  8
0
  0
POLYLINE
  8
EBENE_1
 62
    39
  6
CONTINUOUS
 66
     1
 40
0.003000
 41
0.003000
 70
     1
  0
VERTEX
  8
EBENE_1
 62
    39
  6
CONTINUOUS
 10
-0.502988
 20
1.104051
  0
VERTEX
  8
EBENE_1
 62
    39
  6
CONTINUOUS
 10
-0.497481
 20
1.105678
  0
VERTEX
  8
EBENE_1
 62
    39
  6
CONTINUOUS
 10
-0.493625
 20
1.109858
  0
VERTEX
  8
EBENE_1
 62
    39
  6
CONTINUOUS
 10
-0.492173
 20
1.115539
  0
VERTEX
  8
EBENE_1
 62
    39
  6
CONTINUOUS
 10
-0.493625
 20
1.121221
  0
VERTEX
  8
EBENE_1
 62
    39
  6
CONTINUOUS
 10
-0.497481
 20
1.125401
  0
VERTEX
  8
EBENE_1
 62
    39
  6
CONTINUOUS
 10
-0.502988
 20
1.127028
  0
VERTEX
  8
EBENE_1
 62
    39
  6
CONTINUOUS
 10
-0.508971
 20
1.125401
  0
VERTEX
  8
EBENE_1
 62
    39
  6
CONTINUOUS
 10
-0.513000
 20
1.121221
  0
VERTEX
  8
EBENE_1
 62
    39
  6
CONTINUOUS
 10
-0.514476
 20
1.115539
  0
VERTEX
  8
EBENE_1
 62
    39
  6
CONTINUOUS
 10
-0.513000
 20
1.109858
  0
VERTEX
  8
EBENE_1
 62
    39
  6
CONTINUOUS
 10
-0.508971
 20
1.105678
  0
SEQEND
  8
0
  0
POLYLINE
  8
EBENE_1
 62
    39
  6
CONTINUOUS
 66
     1
 40
0.003000
 41
0.003000
 70
     1
  0
VERTEX
  8
EBENE_1
 62
    39
  6
CONTINUOUS
 10
-0.373217
 20
1.139870
  0
VERTEX
  8
EBENE_1
 62
    39
  6
CONTINUOUS
 10
-0.367535
 20
1.141498
  0
VERTEX
  8
EBENE_1
 62
    39
  6
CONTINUOUS
 10
-0.363355
 20
1.145679
  0
VERTEX
  8
EBENE_1
 62
    39
  6
CONTINUOUS
 10
-0.361728
 20
1.151362
  0
VERTEX
  8
EBENE_1
 62
    39
  6
CONTINUOUS
 10
-0.363355
 20
1.157345
  0
VERTEX
  8
EBENE_1
 62
    39
  6
CONTINUOUS
 10
-0.367535
 20
1.161374
  0
VERTEX
  8
EBENE_1
 62
    39
  6
CONTINUOUS
 10
-0.373217
 20
1.162850
  0
VERTEX
  8
EBENE_1
 62
    39
  6
CONTINUOUS
 10
-0.378898
 20
1.161374
  0
VERTEX
  8
EBENE_1
 62
    39
  6
CONTINUOUS
 10
-0.383078
 20
1.157345
  0
VERTEX
  8
EBENE_1
 62
    39
  6
CONTINUOUS
 10
-0.384705
 20
1.151362
  0
VERTEX
  8
EBENE_1
 62
    39
  6
CONTINUOUS
 10
-0.383078
 20
1.145679
  0
VERTEX
  8
EBENE_1
 62
    39
  6
CONTINUOUS
 10
-0.378898
 20
1.141498
  0
SEQEND
  8
0
  0
POLYLINE
  8
EBENE_1
 62
    39
  6
CONTINUOUS
 66
     1
 40
0.003000
 41
0.003000
 70
     1
  0
VERTEX
  8
EBENE_1
 62
    39
  6
CONTINUOUS
 10
-0.254937
 20
1.094587
  0
VERTEX
  8
EBENE_1
 62
    39
  6
CONTINUOUS
 10
-0.249254
 20
1.096064
  0
VERTEX
  8
EBENE_1
 62
    39
  6
CONTINUOUS
 10
-0.245073
 20
1.100094
  0
VERTEX
  8
EBENE_1
 62
    39
  6
CONTINUOUS
 10
-0.243445
 20
1.106075
  0
VERTEX
  8
EBENE_1
 62
    39
  6
CONTINUOUS
 10
-0.245073
 20
1.111758
  0
VERTEX
  8
EBENE_1
 62
    39
  6
CONTINUOUS
 10
-0.249254
 20
1.115939
  0
VERTEX
  8
EBENE_1
 62
    39
  6
CONTINUOUS
 10
-0.254937
 20
1.117567
  0
VERTEX
  8
EBENE_1
 62
    39
  6
CONTINUOUS
 10
-0.260921
 20
1.115939
  0
VERTEX
  8
EBENE_1
 62
    39
  6
CONTINUOUS
 10
-0.264952
 20
1.111758
  0
VERTEX
  8
EBENE_1
 62
    39
  6
CONTINUOUS
 10
-0.266429
 20
1.106075
  0
VERTEX
  8
EBENE_1
 62
    39
  6
CONTINUOUS
 10
-0.264952
 20
1.100094
  0
VERTEX
  8
EBENE_1
 62
    39
  6
CONTINUOUS
 10
-0.260921
 20
1.096064
  0
SEQEND
  8
0
  0
POLYLINE
  8
EBENE_1
 62
    39
  6
CONTINUOUS
 66
     1
 40
0.003000
 41
0.003000
  0
VERTEX
  8
EBENE_1
 62
    39
  6
CONTINUOUS
 10
0.114772
 20
1.222327
  0
VERTEX
  8
EBENE_1
 62
    39
  6
CONTINUOUS
 10
0.431764
 20
0.702571
  0
VERTEX
  8
EBENE_1
 62
    39
  6
CONTINUOUS
 10
0.099902
 20
0.616059
  0
SEQEND
  8
0
  0
POLYLINE
  8
EBENE_1
 62
    39
  6
CONTINUOUS
 66
     1
 40
0.003000
 41
0.003000
  0
VERTEX
  8
EBENE_1
 62
    39
  6
CONTINUOUS
 10
0.099902
 20
0.616059
  0
VERTEX
  8
EBENE_1
 62
    39
  6
CONTINUOUS
 10
0.091291
 20
0.614447
  0
VERTEX
  8
EBENE_1
 62
    39
  6
CONTINUOUS
 10
0.082077
 20
0.613384
  0
VERTEX
  8
EBENE_1
 62
    39
  6
CONTINUOUS
 10
0.072292
 20
0.612867
  0
VERTEX
  8
EBENE_1
 62
    39
  6
CONTINUOUS
 10
0.061965
 20
0.612895
  0
VERTEX
  8
EBENE_1
 62
    39
  6
CONTINUOUS
 10
0.051129
 20
0.613464
  0
VERTEX
  8
EBENE_1
 62
    39
  6
CONTINUOUS
 10
0.039814
 20
0.614573
  0
VERTEX
  8
EBENE_1
 62
    39
  6
CONTINUOUS
 10
0.028052
 20
0.616219
  0
VERTEX
  8
EBENE_1
 62
    39
  6
CONTINUOUS
 10
0.015872
 20
0.618401
  0
VERTEX
  8
EBENE_1
 62
    39
  6
CONTINUOUS
 10
0.003307
 20
0.621117
  0
VERTEX
  8
EBENE_1
 62
    39
  6
CONTINUOUS
 10
-0.009613
 20
0.624364
  0
VERTEX
  8
EBENE_1
 62
    39
  6
CONTINUOUS
 10
-0.022857
 20
0.628139
  0
VERTEX
  8
EBENE_1
 62
    39
  6
CONTINUOUS
 10
-0.036393
 20
0.632442
  0
VERTEX
  8
EBENE_1
 62
    39
  6
CONTINUOUS
 10
-0.050192
 20
0.637270
  0
VERTEX
  8
EBENE_1
 62
    39
  6
CONTINUOUS
 10
-0.064220
 20
0.642620
  0
VERTEX
  8
EBENE_1
 62
    39
  6
CONTINUOUS
 10
-0.078449
 20
0.648491
  0
VERTEX
  8
EBENE_1
 62
    39
  6
CONTINUOUS
 10
-0.092846
 20
0.654880
  0
VERTEX
  8
EBENE_1
 62
    39
  6
CONTINUOUS
 10
-0.107381
 20
0.661785
  0
VERTEX
  8
EBENE_1
 62
    39
  6
CONTINUOUS
 10
-0.122023
 20
0.669205
  0
VERTEX
  8
EBENE_1
 62
    39
  6
CONTINUOUS
 10
-0.136740
 20
0.677136
  0
VERTEX
  8
EBENE_1
 62
    39
  6
CONTINUOUS
 10
-0.151502
 20
0.685578
  0
VERTEX
  8
EBENE_1
 62
    39
  6
CONTINUOUS
 10
-0.166278
 20
0.694527
  0
VERTEX
  8
EBENE_1
 62
    39
  6
CONTINUOUS
 10
-0.181036
 20
0.703981
  0
VERTEX
  8
EBENE_1
 62
    39
  6
CONTINUOUS
 10
-0.195746
 20
0.713939
  0
VERTEX
  8
EBENE_1
 62
    39
  6
CONTINUOUS
 10
-0.210376
 20
0.724398
  0
VERTEX
  8
EBENE_1
 62
    39
  6
CONTINUOUS
 10
-0.224896
 20
0.735356
  0
VERTEX
  8
EBENE_1
 62
    39
  6
CONTINUOUS
 10
-0.239274
 20
0.746812
  0
VERTEX
  8
EBENE_1
 62
    39
  6
CONTINUOUS
 10
-0.253481
 20
0.758762
  0
VERTEX
  8
EBENE_1
 62
    39
  6
CONTINUOUS
 10
-0.267483
 20
0.771204
  0
VERTEX
  8
EBENE_1
 62
    39
  6
CONTINUOUS
 10
-0.281251
 20
0.784138
  0
VERTEX
  8
EBENE_1
 62
    39
  6
CONTINUOUS
 10
-0.294754
 20
0.797559
  0
VERTEX
  8
EBENE_1
 62
    39
  6
CONTINUOUS
 10
-0.307960
 20
0.811467
  0
VERTEX
  8
EBENE_1
 62
    39
  6
CONTINUOUS
 10
-0.320839
 20
0.825859
  0
VERTEX
  8
EBENE_1
 62
    39
  6
CONTINUOUS
 10
-0.333359
 20
0.840733
  0
VERTEX
  8
EBENE_1
 62
    39
  6
CONTINUOUS
 10
-0.345490
 20
0.856086
  0
VERTEX
  8
EBENE_1
 62
    39
  6
CONTINUOUS
 10
-0.357200
 20
0.871918
  0
VERTEX
  8
EBENE_1
 62
    39
  6
CONTINUOUS
 10
-0.368458
 20
0.888225
  0
VERTEX
  8
EBENE_1
 62
    39
  6
CONTINUOUS
 10
-0.379234
 20
0.905005
  0
VERTEX
  8
EBENE_1
 62
    39
  6
CONTINUOUS
 10
-0.389497
 20
0.922257
  0
VERTEX
  8
EBENE_1
 62
    39
  6
CONTINUOUS
 10
-0.399214
 20
0.939977
  0
VERTEX
  8
EBENE_1
 62
    39
  6
CONTINUOUS
 10
-0.408357
 20
0.958165
  0
VERTEX
  8
EBENE_1
 62
    39
  6
CONTINUOUS
 10
-0.416892
 20
0.976817
  0
VERTEX
  8
EBENE_1
 62
    39
  6
CONTINUOUS
 10
-0.424790
 20
0.995932
  0
VERTEX
  8
EBENE_1
 62
    39
  6
CONTINUOUS
 10
-0.432020
 20
1.015508
  0
SEQEND
  8
0
  0
POLYLINE
  8
EBENE_1
 62
    39
  6
CONTINUOUS
 66
     1
 40
0.003000
 41
0.003000
  0
VERTEX
  8
EBENE_1
 62
    39
  6
CONTINUOUS
 10
-0.432020
 20
1.015508
  0
VERTEX
  8
EBENE_1
 62
    39
  6
CONTINUOUS
 10
-0.435504
 20
1.037632
  0
VERTEX
  8
EBENE_1
 62
    39
  6
CONTINUOUS
 10
-0.436976
 20
1.058722
  0
VERTEX
  8
EBENE_1
 62
    39
  6
CONTINUOUS
 10
-0.436536
 20
1.078705
  0
VERTEX
  8
EBENE_1
 62
    39
  6
CONTINUOUS
 10
-0.434284
 20
1.097507
  0
VERTEX
  8
EBENE_1
 62
    39
  6
CONTINUOUS
 10
-0.430318
 20
1.115053
  0
VERTEX
  8
EBENE_1
 62
    39
  6
CONTINUOUS
 10
-0.424739
 20
1.131271
  0
VERTEX
  8
EBENE_1
 62
    39
  6
CONTINUOUS
 10
-0.417646
 20
1.146085
  0
VERTEX
  8
EBENE_1
 62
    39
  6
CONTINUOUS
 10
-0.409140
 20
1.159423
  0
VERTEX
  8
EBENE_1
 62
    39
  6
CONTINUOUS
 10
-0.399319
 20
1.171210
  0
VERTEX
  8
EBENE_1
 62
    39
  6
CONTINUOUS
 10
-0.388283
 20
1.181373
  0
VERTEX
  8
EBENE_1
 62
    39
  6
CONTINUOUS
 10
-0.376133
 20
1.189838
  0
VERTEX
  8
EBENE_1
 62
    39
  6
CONTINUOUS
 10
-0.362967
 20
1.196531
  0
VERTEX
  8
EBENE_1
 62
    39
  6
CONTINUOUS
 10
-0.348886
 20
1.201378
  0
SEQEND
  8
0
  0
POLYLINE
  8
EBENE_1
 62
    39
  6
CONTINUOUS
 66
     1
 40
0.003000
 41
0.003000
  0
VERTEX
  8
EBENE_1
 62
    39
  6
CONTINUOUS
 10
-0.348886
 20
1.201378
  0
VERTEX
  8
EBENE_1
 62
    39
  6
CONTINUOUS
 10
-0.004181
 20
1.293972
  0
SEQEND
  8
0
  0
POLYLINE
  8
EBENE_1
 62
    39
  6
CONTINUOUS
 66
     1
 40
0.003000
 41
0.003000
  0
VERTEX
  8
EBENE_1
 62
    39
  6
CONTINUOUS
 10
-0.004181
 20
1.293972
  0
VERTEX
  8
EBENE_1
 62
    39
  6
CONTINUOUS
 10
0.018054
 20
1.297897
  0
VERTEX
  8
EBENE_1
 62
    39
  6
CONTINUOUS
 10
0.035829
 20
1.297552
  0
VERTEX
  8
EBENE_1
 62
    39
  6
CONTINUOUS
 10
0.049954
 20
1.293614
  0
VERTEX
  8
EBENE_1
 62
    39
  6
CONTINUOUS
 10
0.061241
 20
1.286760
  0
VERTEX
  8
EBENE_1
 62
    39
  6
CONTINUOUS
 10
0.070500
 20
1.277667
  0
VERTEX
  8
EBENE_1
 62
    39
  6
CONTINUOUS
 10
0.078543
 20
1.267013
  0
VERTEX
  8
EBENE_1
 62
    39
  6
CONTINUOUS
 10
0.086181
 20
1.255475
  0
VERTEX
  8
EBENE_1
 62
    39
  6
CONTINUOUS
 10
0.094224
 20
1.243730
  0
VERTEX
  8
EBENE_1
 62
    39
  6
CONTINUOUS
 10
0.103484
 20
1.232455
  0
VERTEX
  8
EBENE_1
 62
    39
  6
CONTINUOUS
 10
0.114772
 20
1.222327
  0
SEQEND
  8
0
  0
POLYLINE
  8
EBENE_1
 62
    39
  6
CONTINUOUS
 66
     1
 40
0.003000
 41
0.003000
 70
     1
  0
VERTEX
  8
EBENE_1
 62
    39
  6
CONTINUOUS
 10
0.114772
 20
1.220303
  0
VERTEX
  8
EBENE_1
 62
    39
  6
CONTINUOUS
 10
0.426354
 20
0.708654
  0
VERTEX
  8
EBENE_1
 62
    39
  6
CONTINUOUS
 10
0.099902
 20
0.623492
  0
VERTEX
  8
EBENE_1
 62
    39
  6
CONTINUOUS
 10
0.091438
 20
0.621923
  0
VERTEX
  8
EBENE_1
 62
    39
  6
CONTINUOUS
 10
0.082381
 20
0.620891
  0
VERTEX
  8
EBENE_1
 62
    39
  6
CONTINUOUS
 10
0.072763
 20
0.620394
  0
VERTEX
  8
EBENE_1
 62
    39
  6
CONTINUOUS
 10
0.062613
 20
0.620431
  0
VERTEX
  8
EBENE_1
 62
    39
  6
CONTINUOUS
 10
0.051962
 20
0.621000
  0
VERTEX
  8
EBENE_1
 62
    39
  6
CONTINUOUS
 10
0.040840
 20
0.622098
  0
VERTEX
  8
EBENE_1
 62
    39
  6
CONTINUOUS
 10
0.029278
 20
0.623724
  0
VERTEX
  8
EBENE_1
 62
    39
  6
CONTINUOUS
 10
0.017307
 20
0.625876
  0
VERTEX
  8
EBENE_1
 62
    39
  6
CONTINUOUS
 10
0.004956
 20
0.628551
  0
VERTEX
  8
EBENE_1
 62
    39
  6
CONTINUOUS
 10
-0.007744
 20
0.631747
  0
VERTEX
  8
EBENE_1
 62
    39
  6
CONTINUOUS
 10
-0.020762
 20
0.635464
  0
VERTEX
  8
EBENE_1
 62
    39
  6
CONTINUOUS
 10
-0.034068
 20
0.639698
  0
VERTEX
  8
EBENE_1
 62
    39
  6
CONTINUOUS
 10
-0.047632
 20
0.644448
  0
VERTEX
  8
EBENE_1
 62
    39
  6
CONTINUOUS
 10
-0.061422
 20
0.649711
  0
VERTEX
  8
EBENE_1
 62
    39
  6
CONTINUOUS
 10
-0.075409
 20
0.655486
  0
VERTEX
  8
EBENE_1
 62
    39
  6
CONTINUOUS
 10
-0.089563
 20
0.661771
  0
VERTEX
  8
EBENE_1
 62
    39
  6
CONTINUOUS
 10
-0.103852
 20
0.668563
  0
VERTEX
  8
EBENE_1
 62
    39
  6
CONTINUOUS
 10
-0.118246
 20
0.675861
  0
VERTEX
  8
EBENE_1
 62
    39
  6
CONTINUOUS
 10
-0.132715
 20
0.683663
  0
VERTEX
  8
EBENE_1
 62
    39
  6
CONTINUOUS
 10
-0.147228
 20
0.691967
  0
VERTEX
  8
EBENE_1
 62
    39
  6
CONTINUOUS
 10
-0.161755
 20
0.700770
  0
VERTEX
  8
EBENE_1
 62
    39
  6
CONTINUOUS
 10
-0.176266
 20
0.710071
  0
VERTEX
  8
EBENE_1
 62
    39
  6
CONTINUOUS
 10
-0.190730
 20
0.719868
  0
VERTEX
  8
EBENE_1
 62
    39
  6
CONTINUOUS
 10
-0.205116
 20
0.730159
  0
VERTEX
  8
EBENE_1
 62
    39
  6
CONTINUOUS
 10
-0.219394
 20
0.740942
  0
VERTEX
  8
EBENE_1
 62
    39
  6
CONTINUOUS
 10
-0.233534
 20
0.752214
  0
VERTEX
  8
EBENE_1
 62
    39
  6
CONTINUOUS
 10
-0.247505
 20
0.763974
  0
VERTEX
  8
EBENE_1
 62
    39
  6
CONTINUOUS
 10
-0.261277
 20
0.776220
  0
VERTEX
  8
EBENE_1
 62
    39
  6
CONTINUOUS
 10
-0.274819
 20
0.788950
  0
VERTEX
  8
EBENE_1
 62
    39
  6
CONTINUOUS
 10
-0.288100
 20
0.802162
  0
VERTEX
  8
EBENE_1
 62
    39
  6
CONTINUOUS
 10
-0.301092
 20
0.815853
  0
VERTEX
  8
EBENE_1
 62
    39
  6
CONTINUOUS
 10
-0.313762
 20
0.830023
  0
VERTEX
  8
EBENE_1
 62
    39
  6
CONTINUOUS
 10
-0.326080
 20
0.844668
  0
VERTEX
  8
EBENE_1
 62
    39
  6
CONTINUOUS
 10
-0.338017
 20
0.859787
  0
VERTEX
  8
EBENE_1
 62
    39
  6
CONTINUOUS
 10
-0.349541
 20
0.875379
  0
VERTEX
  8
EBENE_1
 62
    39
  6
CONTINUOUS
 10
-0.360622
 20
0.891440
  0
VERTEX
  8
EBENE_1
 62
    39
  6
CONTINUOUS
 10
-0.371230
 20
0.907969
  0
VERTEX
  8
EBENE_1
 62
    39
  6
CONTINUOUS
 10
-0.381334
 20
0.924964
  0
VERTEX
  8
EBENE_1
 62
    39
  6
CONTINUOUS
 10
-0.390904
 20
0.942423
  0
VERTEX
  8
EBENE_1
 62
    39
  6
CONTINUOUS
 10
-0.399909
 20
0.960344
  0
VERTEX
  8
EBENE_1
 62
    39
  6
CONTINUOUS
 10
-0.408319
 20
0.978724
  0
VERTEX
  8
EBENE_1
 62
    39
  6
CONTINUOUS
 10
-0.416104
 20
0.997563
  0
VERTEX
  8
EBENE_1
 62
    39
  6
CONTINUOUS
 10
-0.423232
 20
1.016858
  0
VERTEX
  8
EBENE_1
 62
    39
  6
CONTINUOUS
 10
-0.423232
 20
1.016858
  0
VERTEX
  8
EBENE_1
 62
    39
  6
CONTINUOUS
 10
-0.426717
 20
1.038538
  0
VERTEX
  8
EBENE_1
 62
    39
  6
CONTINUOUS
 10
-0.428194
 20
1.059228
  0
VERTEX
  8
EBENE_1
 62
    39
  6
CONTINUOUS
 10
-0.427766
 20
1.078851
  0
VERTEX
  8
EBENE_1
 62
    39
  6
CONTINUOUS
 10
-0.425536
 20
1.097330
  0
VERTEX
  8
EBENE_1
 62
    39
  6
CONTINUOUS
 10
-0.421607
 20
1.114587
  0
VERTEX
  8
EBENE_1
 62
    39
  6
CONTINUOUS
 10
-0.416084
 20
1.130544
  0
VERTEX
  8
EBENE_1
 62
    39
  6
CONTINUOUS
 10
-0.409070
 20
1.145125
  0
VERTEX
  8
EBENE_1
 62
    39
  6
CONTINUOUS
 10
-0.400667
 20
1.158251
  0
VERTEX
  8
EBENE_1
 62
    39
  6
CONTINUOUS
 10
-0.390979
 20
1.169845
  0
VERTEX
  8
EBENE_1
 62
    39
  6
CONTINUOUS
 10
-0.380110
 20
1.179829
  0
VERTEX
  8
EBENE_1
 62
    39
  6
CONTINUOUS
 10
-0.368163
 20
1.188126
  0
VERTEX
  8
EBENE_1
 62
    39
  6
CONTINUOUS
 10
-0.355242
 20
1.194659
  0
VERTEX
  8
EBENE_1
 62
    39
  6
CONTINUOUS
 10
-0.341449
 20
1.199350
  0
VERTEX
  8
EBENE_1
 62
    39
  6
CONTINUOUS
 10
-0.002154
 20
1.290594
  0
VERTEX
  8
EBENE_1
 62
    39
  6
CONTINUOUS
 10
0.019715
 20
1.294539
  0
VERTEX
  8
EBENE_1
 62
    39
  6
CONTINUOUS
 10
0.037192
 20
1.294250
  0
VERTEX
  8
EBENE_1
 62
    39
  6
CONTINUOUS
 10
0.051076
 20
1.290400
  0
VERTEX
  8
EBENE_1
 62
    39
  6
CONTINUOUS
 10
0.062165
 20
1.283663
  0
VERTEX
  8
EBENE_1
 62
    39
  6
CONTINUOUS
 10
0.071260
 20
1.274711
  0
VERTEX
  8
EBENE_1
 62
    39
  6
CONTINUOUS
 10
0.079159
 20
1.264219
  0
VERTEX
  8
EBENE_1
 62
    39
  6
CONTINUOUS
 10
0.086661
 20
1.252858
  0
VERTEX
  8
EBENE_1
 62
    39
  6
CONTINUOUS
 10
0.094564
 20
1.241304
  0
VERTEX
  8
EBENE_1
 62
    39
  6
CONTINUOUS
 10
0.103668
 20
1.230227
  0
SEQEND
  8
0
  0
POLYLINE
  8
EBENE_1
 62
    39
  6
CONTINUOUS
 66
     1
 40
0.003000
 41
0.003000
  0
VERTEX
  8
EBENE_1
 62
    39
  6
CONTINUOUS
 10
-0.163016
 20
1.196646
  0
VERTEX
  8
EBENE_1
 62
    39
  6
CONTINUOUS
 10
-0.157033
 20
1.198123
  0
VERTEX
  8
EBENE_1
 62
    39
  6
CONTINUOUS
 10
-0.153004
 20
1.202153
  0
VERTEX
  8
EBENE_1
 62
    39
  6
CONTINUOUS
 10
-0.151528
 20
1.208134
  0
SEQEND
  8
0
  0
POLYLINE
  8
EBENE_1
 62
    39
  6
CONTINUOUS
 66
     1
 40
0.003000
 41
0.003000
  0
VERTEX
  8
EBENE_1
 62
    39
  6
CONTINUOUS
 10
-0.151528
 20
1.208134
  0
VERTEX
  8
EBENE_1
 62
    39
  6
CONTINUOUS
 10
-0.153004
 20
1.213818
  0
VERTEX
  8
EBENE_1
 62
    39
  6
CONTINUOUS
 10
-0.157033
 20
1.217999
  0
VERTEX
  8
EBENE_1
 62
    39
  6
CONTINUOUS
 10
-0.163016
 20
1.219626
  0
SEQEND
  8
0
  0
POLYLINE
  8
EBENE_1
 62
    39
  6
CONTINUOUS
 66
     1
 40
0.003000
 41
0.003000
  0
VERTEX
  8
EBENE_1
 62
    39
  6
CONTINUOUS
 10
-0.163016
 20
1.219626
  0
VERTEX
  8
EBENE_1
 62
    39
  6
CONTINUOUS
 10
-0.168523
 20
1.217999
  0
VERTEX
  8
EBENE_1
 62
    39
  6
CONTINUOUS
 10
-0.172379
 20
1.213818
  0
VERTEX
  8
EBENE_1
 62
    39
  6
CONTINUOUS
 10
-0.173831
 20
1.208134
  0
SEQEND
  8
0
  0
POLYLINE
  8
EBENE_1
 62
    39
  6
CONTINUOUS
 66
     1
 40
0.003000
 41
0.003000
  0
VERTEX
  8
EBENE_1
 62
    39
  6
CONTINUOUS
 10
-0.173831
 20
1.208134
  0
VERTEX
  8
EBENE_1
 62
    39
  6
CONTINUOUS
 10
-0.172379
 20
1.202153
  0
VERTEX
  8
EBENE_1
 62
    39
  6
CONTINUOUS
 10
-0.168523
 20
1.198123
  0
VERTEX
  8
EBENE_1
 62
    39
  6
CONTINUOUS
 10
-0.163016
 20
1.196646
  0
SEQEND
  8
0
  0
POLYLINE
  8
EBENE_1
 62
    39
  6
CONTINUOUS
 66
     1
 40
0.003000
 41
0.003000
  0
VERTEX
  8
EBENE_1
 62
    39
  6
CONTINUOUS
 10
-0.041358
 20
1.222327
  0
VERTEX
  8
EBENE_1
 62
    39
  6
CONTINUOUS
 10
-0.035674
 20
1.223955
  0
VERTEX
  8
EBENE_1
 62
    39
  6
CONTINUOUS
 10
-0.031493
 20
1.228136
  0
VERTEX
  8
EBENE_1
 62
    39
  6
CONTINUOUS
 10
-0.029866
 20
1.233819
  0
SEQEND
  8
0
  0
POLYLINE
  8
EBENE_1
 62
    39
  6
CONTINUOUS
 66
     1
 40
0.003000
 41
0.003000
  0
VERTEX
  8
EBENE_1
 62
    39
  6
CONTINUOUS
 10
-0.029866
 20
1.233819
  0
VERTEX
  8
EBENE_1
 62
    39
  6
CONTINUOUS
 10
-0.031493
 20
1.239803
  0
VERTEX
  8
EBENE_1
 62
    39
  6
CONTINUOUS
 10
-0.035674
 20
1.243834
  0
VERTEX
  8
EBENE_1
 62
    39
  6
CONTINUOUS
 10
-0.041358
 20
1.245311
  0
SEQEND
  8
0
  0
POLYLINE
  8
EBENE_1
 62
    39
  6
CONTINUOUS
 66
     1
 40
0.003000
 41
0.003000
  0
VERTEX
  8
EBENE_1
 62
    39
  6
CONTINUOUS
 10
-0.041358
 20
1.245311
  0
VERTEX
  8
EBENE_1
 62
    39
  6
CONTINUOUS
 10
-0.047038
 20
1.243834
  0
VERTEX
  8
EBENE_1
 62
    39
  6
CONTINUOUS
 10
-0.051219
 20
1.239803
  0
VERTEX
  8
EBENE_1
 62
    39
  6
CONTINUOUS
 10
-0.052846
 20
1.233819
  0
SEQEND
  8
0
  0
POLYLINE
  8
EBENE_1
 62
    39
  6
CONTINUOUS
 66
     1
 40
0.003000
 41
0.003000
  0
VERTEX
  8
EBENE_1
 62
    39
  6
CONTINUOUS
 10
-0.052846
 20
1.233819
  0
VERTEX
  8
EBENE_1
 62
    39
  6
CONTINUOUS
 10
-0.051219
 20
1.228136
  0
VERTEX
  8
EBENE_1
 62
    39
  6
CONTINUOUS
 10
-0.047038
 20
1.223955
  0
VERTEX
  8
EBENE_1
 62
    39
  6
CONTINUOUS
 10
-0.041358
 20
1.222327
  0
SEQEND
  8
0
  0
POLYLINE
  8
EBENE_1
 62
    39
  6
CONTINUOUS
 66
     1
 40
0.003000
 41
0.003000
  0
VERTEX
  8
EBENE_1
 62
    39
  6
CONTINUOUS
 10
0.077598
 20
1.177043
  0
VERTEX
  8
EBENE_1
 62
    39
  6
CONTINUOUS
 10
0.083280
 20
1.178521
  0
VERTEX
  8
EBENE_1
 62
    39
  6
CONTINUOUS
 10
0.087460
 20
1.182552
  0
VERTEX
  8
EBENE_1
 62
    39
  6
CONTINUOUS
 10
0.089087
 20
1.188535
  0
SEQEND
  8
0
  0
POLYLINE
  8
EBENE_1
 62
    39
  6
CONTINUOUS
 66
     1
 40
0.003000
 41
0.003000
  0
VERTEX
  8
EBENE_1
 62
    39
  6
CONTINUOUS
 10
0.089087
 20
1.188535
  0
VERTEX
  8
EBENE_1
 62
    39
  6
CONTINUOUS
 10
0.087460
 20
1.194217
  0
VERTEX
  8
EBENE_1
 62
    39
  6
CONTINUOUS
 10
0.083280
 20
1.198397
  0
VERTEX
  8
EBENE_1
 62
    39
  6
CONTINUOUS
 10
0.077598
 20
1.200024
  0
SEQEND
  8
0
  0
POLYLINE
  8
EBENE_1
 62
    39
  6
CONTINUOUS
 66
     1
 40
0.003000
 41
0.003000
  0
VERTEX
  8
EBENE_1
 62
    39
  6
CONTINUOUS
 10
0.077598
 20
1.200024
  0
VERTEX
  8
EBENE_1
 62
    39
  6
CONTINUOUS
 10
0.071615
 20
1.198397
  0
VERTEX
  8
EBENE_1
 62
    39
  6
CONTINUOUS
 10
0.067584
 20
1.194217
  0
VERTEX
  8
EBENE_1
 62
    39
  6
CONTINUOUS
 10
0.066106
 20
1.188535
  0
SEQEND
  8
0
  0
POLYLINE
  8
EBENE_1
 62
    39
  6
CONTINUOUS
 66
     1
 40
0.003000
 41
0.003000
  0
VERTEX
  8
EBENE_1
 62
    39
  6
CONTINUOUS
 10
0.066106
 20
1.188535
  0
VERTEX
  8
EBENE_1
 62
    39
  6
CONTINUOUS
 10
0.067584
 20
1.182552
  0
VERTEX
  8
EBENE_1
 62
    39
  6
CONTINUOUS
 10
0.071615
 20
1.178521
  0
VERTEX
  8
EBENE_1
 62
    39
  6
CONTINUOUS
 10
0.077598
 20
1.177043
  0
SEQEND
  8
0
  0
POLYLINE
  8
EBENE_1
 62
    39
  6
CONTINUOUS
 66
     1
 40
0.003000
 41
0.003000
  0
VERTEX
  8
EBENE_1
 62
    39
  6
CONTINUOUS
 10
0.447307
 20
1.304110
  0
VERTEX
  8
EBENE_1
 62
    39
  6
CONTINUOUS
 10
0.764299
 20
0.785031
  0
VERTEX
  8
EBENE_1
 62
    39
  6
CONTINUOUS
 10
0.432437
 20
0.698516
  0
SEQEND
  8
0
  0
POLYLINE
  8
EBENE_1
 62
    39
  6
CONTINUOUS
 66
     1
 40
0.003000
 41
0.003000
  0
VERTEX
  8
EBENE_1
 62
    39
  6
CONTINUOUS
 10
0.432437
 20
0.698516
  0
VERTEX
  8
EBENE_1
 62
    39
  6
CONTINUOUS
 10
0.423825
 20
0.696904
  0
VERTEX
  8
EBENE_1
 62
    39
  6
CONTINUOUS
 10
0.414608
 20
0.695842
  0
VERTEX
  8
EBENE_1
 62
    39
  6
CONTINUOUS
 10
0.404817
 20
0.695325
  0
VERTEX
  8
EBENE_1
 62
    39
  6
CONTINUOUS
 10
0.394483
 20
0.695352
  0
VERTEX
  8
EBENE_1
 62
    39
  6
CONTINUOUS
 10
0.383638
 20
0.695921
  0
VERTEX
  8
EBENE_1
 62
    39
  6
CONTINUOUS
 10
0.372313
 20
0.697030
  0
VERTEX
  8
EBENE_1
 62
    39
  6
CONTINUOUS
 10
0.360538
 20
0.698677
  0
VERTEX
  8
EBENE_1
 62
    39
  6
CONTINUOUS
 10
0.348345
 20
0.700859
  0
VERTEX
  8
EBENE_1
 62
    39
  6
CONTINUOUS
 10
0.335764
 20
0.703575
  0
VERTEX
  8
EBENE_1
 62
    39
  6
CONTINUOUS
 10
0.322828
 20
0.706822
  0
VERTEX
  8
EBENE_1
 62
    39
  6
CONTINUOUS
 10
0.309567
 20
0.710598
  0
VERTEX
  8
EBENE_1
 62
    39
  6
CONTINUOUS
 10
0.296012
 20
0.714901
  0
VERTEX
  8
EBENE_1
 62
    39
  6
CONTINUOUS
 10
0.282194
 20
0.719728
  0
VERTEX
  8
EBENE_1
 62
    39
  6
CONTINUOUS
 10
0.268145
 20
0.725078
  0
VERTEX
  8
EBENE_1
 62
    39
  6
CONTINUOUS
 10
0.253895
 20
0.730949
  0
VERTEX
  8
EBENE_1
 62
    39
  6
CONTINUOUS
 10
0.239476
 20
0.737338
  0
VERTEX
  8
EBENE_1
 62
    39
  6
CONTINUOUS
 10
0.224919
 20
0.744244
  0
VERTEX
  8
EBENE_1
 62
    39
  6
CONTINUOUS
 10
0.210254
 20
0.751663
  0
VERTEX
  8
EBENE_1
 62
    39
  6
CONTINUOUS
 10
0.195514
 20
0.759595
  0
VERTEX
  8
EBENE_1
 62
    39
  6
CONTINUOUS
 10
0.180729
 20
0.768036
  0
VERTEX
  8
EBENE_1
 62
    39
  6
CONTINUOUS
 10
0.165930
 20
0.776985
  0
VERTEX
  8
EBENE_1
 62
    39
  6
CONTINUOUS
 10
0.151148
 20
0.786439
  0
VERTEX
  8
EBENE_1
 62
    39
  6
CONTINUOUS
 10
0.136415
 20
0.796397
  0
VERTEX
  8
EBENE_1
 62
    39
  6
CONTINUOUS
 10
0.121761
 20
0.806856
  0
VERTEX
  8
EBENE_1
 62
    39
  6
CONTINUOUS
 10
0.107219
 20
0.817814
  0
VERTEX
  8
EBENE_1
 62
    39
  6
CONTINUOUS
 10
0.092817
 20
0.829269
  0
VERTEX
  8
EBENE_1
 62
    39
  6
CONTINUOUS
 10
0.078589
 20
0.841219
  0
VERTEX
  8
EBENE_1
 62
    39
  6
CONTINUOUS
 10
0.064565
 20
0.853662
  0
VERTEX
  8
EBENE_1
 62
    39
  6
CONTINUOUS
 10
0.050776
 20
0.866595
  0
VERTEX
  8
EBENE_1
 62
    39
  6
CONTINUOUS
 10
0.037253
 20
0.880017
  0
VERTEX
  8
EBENE_1
 62
    39
  6
CONTINUOUS
 10
0.024028
 20
0.893924
  0
VERTEX
  8
EBENE_1
 62
    39
  6
CONTINUOUS
 10
0.011131
 20
0.908316
  0
VERTEX
  8
EBENE_1
 62
    39
  6
CONTINUOUS
 10
-0.001407
 20
0.923190
  0
VERTEX
  8
EBENE_1
 62
    39
  6
CONTINUOUS
 10
-0.013553
 20
0.938544
  0
VERTEX
  8
EBENE_1
 62
    39
  6
CONTINUOUS
 10
-0.025278
 20
0.954375
  0
VERTEX
  8
EBENE_1
 62
    39
  6
CONTINUOUS
 10
-0.036550
 20
0.970682
  0
VERTEX
  8
EBENE_1
 62
    39
  6
CONTINUOUS
 10
-0.047338
 20
0.987462
  0
VERTEX
  8
EBENE_1
 62
    39
  6
CONTINUOUS
 10
-0.057610
 20
1.004713
  0
VERTEX
  8
EBENE_1
 62
    39
  6
CONTINUOUS
 10
-0.067337
 20
1.022434
  0
VERTEX
  8
EBENE_1
 62
    39
  6
CONTINUOUS
 10
-0.076486
 20
1.040622
  0
VERTEX
  8
EBENE_1
 62
    39
  6
CONTINUOUS
 10
-0.085026
 20
1.059274
  0
VERTEX
  8
EBENE_1
 62
    39
  6
CONTINUOUS
 10
-0.092927
 20
1.078389
  0
VERTEX
  8
EBENE_1
 62
    39
  6
CONTINUOUS
 10
-0.100157
 20
1.097965
  0
SEQEND
  8
0
  0
POLYLINE
  8
EBENE_1
 62
    39
  6
CONTINUOUS
 66
     1
 40
0.003000
 41
0.003000
  0
VERTEX
  8
EBENE_1
 62
    39
  6
CONTINUOUS
 10
-0.100157
 20
1.097965
  0
VERTEX
  8
EBENE_1
 62
    39
  6
CONTINUOUS
 10
-0.103642
 20
1.120089
  0
VERTEX
  8
EBENE_1
 62
    39
  6
CONTINUOUS
 10
-0.105114
 20
1.141179
  0
VERTEX
  8
EBENE_1
 62
    39
  6
CONTINUOUS
 10
-0.104674
 20
1.161162
  0
VERTEX
  8
EBENE_1
 62
    39
  6
CONTINUOUS
 10
-0.102421
 20
1.179963
  0
VERTEX
  8
EBENE_1
 62
    39
  6
CONTINUOUS
 10
-0.098456
 20
1.197510
  0
VERTEX
  8
EBENE_1
 62
    39
  6
CONTINUOUS
 10
-0.092877
 20
1.213727
  0
VERTEX
  8
EBENE_1
 62
    39
  6
CONTINUOUS
 10
-0.085784
 20
1.228542
  0
VERTEX
  8
EBENE_1
 62
    39
  6
CONTINUOUS
 10
-0.077277
 20
1.241880
  0
VERTEX
  8
EBENE_1
 62
    39
  6
CONTINUOUS
 10
-0.067456
 20
1.253667
  0
VERTEX
  8
EBENE_1
 62
    39
  6
CONTINUOUS
 10
-0.056421
 20
1.263830
  0
VERTEX
  8
EBENE_1
 62
    39
  6
CONTINUOUS
 10
-0.044270
 20
1.272295
  0
VERTEX
  8
EBENE_1
 62
    39
  6
CONTINUOUS
 10
-0.031105
 20
1.278988
  0
VERTEX
  8
EBENE_1
 62
    39
  6
CONTINUOUS
 10
-0.017024
 20
1.283835
  0
SEQEND
  8
0
  0
POLYLINE
  8
EBENE_1
 62
    39
  6
CONTINUOUS
 66
     1
 40
0.003000
 41
0.003000
  0
VERTEX
  8
EBENE_1
 62
    39
  6
CONTINUOUS
 10
-0.017024
 20
1.283835
  0
VERTEX
  8
EBENE_1
 62
    39
  6
CONTINUOUS
 10
0.328350
 20
1.375756
  0
SEQEND
  8
0
  0
POLYLINE
  8
EBENE_1
 62
    39
  6
CONTINUOUS
 66
     1
 40
0.003000
 41
0.003000
  0
VERTEX
  8
EBENE_1
 62
    39
  6
CONTINUOUS
 10
0.328350
 20
1.375756
  0
VERTEX
  8
EBENE_1
 62
    39
  6
CONTINUOUS
 10
0.350588
 20
1.379845
  0
VERTEX
  8
EBENE_1
 62
    39
  6
CONTINUOUS
 10
0.368364
 20
1.379595
  0
VERTEX
  8
EBENE_1
 62
    39
  6
CONTINUOUS
 10
0.382490
 20
1.375695
  0
VERTEX
  8
EBENE_1
 62
    39
  6
CONTINUOUS
 10
0.393777
 20
1.368835
  0
VERTEX
  8
EBENE_1
 62
    39
  6
CONTINUOUS
 10
0.403037
 20
1.359703
  0
VERTEX
  8
EBENE_1
 62
    39
  6
CONTINUOUS
 10
0.411080
 20
1.348990
  0
VERTEX
  8
EBENE_1
 62
    39
  6
CONTINUOUS
 10
0.418717
 20
1.337385
  0
VERTEX
  8
EBENE_1
 62
    39
  6
CONTINUOUS
 10
0.426760
 20
1.325577
  0
VERTEX
  8
EBENE_1
 62
    39
  6
CONTINUOUS
 10
0.436020
 20
1.314255
  0
VERTEX
  8
EBENE_1
 62
    39
  6
CONTINUOUS
 10
0.447307
 20
1.304110
  0
SEQEND
  8
0
  0
POLYLINE
  8
EBENE_1
 62
    39
  6
CONTINUOUS
 66
     1
 40
0.003000
 41
0.003000
 70
     1
  0
VERTEX
  8
EBENE_1
 62
    39
  6
CONTINUOUS
 10
0.447307
 20
1.302083
  0
VERTEX
  8
EBENE_1
 62
    39
  6
CONTINUOUS
 10
0.758894
 20
0.791114
  0
VERTEX
  8
EBENE_1
 62
    39
  6
CONTINUOUS
 10
0.432437
 20
0.706626
  0
VERTEX
  8
EBENE_1
 62
    39
  6
CONTINUOUS
 10
0.423972
 20
0.705010
  0
VERTEX
  8
EBENE_1
 62
    39
  6
CONTINUOUS
 10
0.414912
 20
0.703934
  0
VERTEX
  8
EBENE_1
 62
    39
  6
CONTINUOUS
 10
0.405288
 20
0.703396
  0
VERTEX
  8
EBENE_1
 62
    39
  6
CONTINUOUS
 10
0.395131
 20
0.703393
  0
VERTEX
  8
EBENE_1
 62
    39
  6
CONTINUOUS
 10
0.384471
 20
0.703924
  0
VERTEX
  8
EBENE_1
 62
    39
  6
CONTINUOUS
 10
0.373339
 20
0.704987
  0
VERTEX
  8
EBENE_1
 62
    39
  6
CONTINUOUS
 10
0.361764
 20
0.706579
  0
VERTEX
  8
EBENE_1
 62
    39
  6
CONTINUOUS
 10
0.349779
 20
0.708698
  0
VERTEX
  8
EBENE_1
 62
    39
  6
CONTINUOUS
 10
0.337413
 20
0.711343
  0
VERTEX
  8
EBENE_1
 62
    39
  6
CONTINUOUS
 10
0.324697
 20
0.714511
  0
VERTEX
  8
EBENE_1
 62
    39
  6
CONTINUOUS
 10
0.311662
 20
0.718200
  0
VERTEX
  8
EBENE_1
 62
    39
  6
CONTINUOUS
 10
0.298337
 20
0.722409
  0
VERTEX
  8
EBENE_1
 62
    39
  6
CONTINUOUS
 10
0.284754
 20
0.727135
  0
VERTEX
  8
EBENE_1
 62
    39
  6
CONTINUOUS
 10
0.270943
 20
0.732376
  0
VERTEX
  8
EBENE_1
 62
    39
  6
CONTINUOUS
 10
0.256935
 20
0.738131
  0
VERTEX
  8
EBENE_1
 62
    39
  6
CONTINUOUS
 10
0.242760
 20
0.744396
  0
VERTEX
  8
EBENE_1
 62
    39
  6
CONTINUOUS
 10
0.228448
 20
0.751171
  0
VERTEX
  8
EBENE_1
 62
    39
  6
CONTINUOUS
 10
0.214031
 20
0.758453
  0
VERTEX
  8
EBENE_1
 62
    39
  6
CONTINUOUS
 10
0.199539
 20
0.766239
  0
VERTEX
  8
EBENE_1
 62
    39
  6
CONTINUOUS
 10
0.185003
 20
0.774529
  0
VERTEX
  8
EBENE_1
 62
    39
  6
CONTINUOUS
 10
0.170452
 20
0.783320
  0
VERTEX
  8
EBENE_1
 62
    39
  6
CONTINUOUS
 10
0.155918
 20
0.792609
  0
VERTEX
  8
EBENE_1
 62
    39
  6
CONTINUOUS
 10
0.141431
 20
0.802395
  0
VERTEX
  8
EBENE_1
 62
    39
  6
CONTINUOUS
 10
0.127022
 20
0.812677
  0
VERTEX
  8
EBENE_1
 62
    39
  6
CONTINUOUS
 10
0.112720
 20
0.823450
  0
VERTEX
  8
EBENE_1
 62
    39
  6
CONTINUOUS
 10
0.098558
 20
0.834715
  0
VERTEX
  8
EBENE_1
 62
    39
  6
CONTINUOUS
 10
0.084565
 20
0.846468
  0
VERTEX
  8
EBENE_1
 62
    39
  6
CONTINUOUS
 10
0.070772
 20
0.858708
  0
VERTEX
  8
EBENE_1
 62
    39
  6
CONTINUOUS
 10
0.057209
 20
0.871433
  0
VERTEX
  8
EBENE_1
 62
    39
  6
CONTINUOUS
 10
0.043907
 20
0.884640
  0
VERTEX
  8
EBENE_1
 62
    39
  6
CONTINUOUS
 10
0.030896
 20
0.898328
  0
VERTEX
  8
EBENE_1
 62
    39
  6
CONTINUOUS
 10
0.018208
 20
0.912494
  0
VERTEX
  8
EBENE_1
 62
    39
  6
CONTINUOUS
 10
0.005872
 20
0.927137
  0
VERTEX
  8
EBENE_1
 62
    39
  6
CONTINUOUS
 10
-0.006080
 20
0.942254
  0
VERTEX
  8
EBENE_1
 62
    39
  6
CONTINUOUS
 10
-0.017619
 20
0.957843
  0
VERTEX
  8
EBENE_1
 62
    39
  6
CONTINUOUS
 10
-0.028714
 20
0.973903
  0
VERTEX
  8
EBENE_1
 62
    39
  6
CONTINUOUS
 10
-0.039334
 20
0.990431
  0
VERTEX
  8
EBENE_1
 62
    39
  6
CONTINUOUS
 10
-0.049448
 20
1.007425
  0
VERTEX
  8
EBENE_1
 62
    39
  6
CONTINUOUS
 10
-0.059027
 20
1.024884
  0
VERTEX
  8
EBENE_1
 62
    39
  6
CONTINUOUS
 10
-0.068039
 20
1.042804
  0
VERTEX
  8
EBENE_1
 62
    39
  6
CONTINUOUS
 10
-0.076453
 20
1.061185
  0
VERTEX
  8
EBENE_1
 62
    39
  6
CONTINUOUS
 10
-0.084241
 20
1.080024
  0
VERTEX
  8
EBENE_1
 62
    39
  6
CONTINUOUS
 10
-0.091370
 20
1.099319
  0
VERTEX
  8
EBENE_1
 62
    39
  6
CONTINUOUS
 10
-0.091370
 20
1.099319
  0
VERTEX
  8
EBENE_1
 62
    39
  6
CONTINUOUS
 10
-0.094722
 20
1.120998
  0
VERTEX
  8
EBENE_1
 62
    39
  6
CONTINUOUS
 10
-0.096108
 20
1.141689
  0
VERTEX
  8
EBENE_1
 62
    39
  6
CONTINUOUS
 10
-0.095626
 20
1.161312
  0
VERTEX
  8
EBENE_1
 62
    39
  6
CONTINUOUS
 10
-0.093374
 20
1.179790
  0
VERTEX
  8
EBENE_1
 62
    39
  6
CONTINUOUS
 10
-0.089449
 20
1.197047
  0
VERTEX
  8
EBENE_1
 62
    39
  6
CONTINUOUS
 10
-0.083951
 20
1.213004
  0
VERTEX
  8
EBENE_1
 62
    39
  6
CONTINUOUS
 10
-0.076975
 20
1.227585
  0
VERTEX
  8
EBENE_1
 62
    39
  6
CONTINUOUS
 10
-0.068621
 20
1.240710
  0
VERTEX
  8
EBENE_1
 62
    39
  6
CONTINUOUS
 10
-0.058985
 20
1.252304
  0
VERTEX
  8
EBENE_1
 62
    39
  6
CONTINUOUS
 10
-0.048167
 20
1.262288
  0
VERTEX
  8
EBENE_1
 62
    39
  6
CONTINUOUS
 10
-0.036263
 20
1.270585
  0
VERTEX
  8
EBENE_1
 62
    39
  6
CONTINUOUS
 10
-0.023372
 20
1.277117
  0
VERTEX
  8
EBENE_1
 62
    39
  6
CONTINUOUS
 10
-0.009591
 20
1.281807
  0
VERTEX
  8
EBENE_1
 62
    39
  6
CONTINUOUS
 10
0.330378
 20
1.372374
  0
VERTEX
  8
EBENE_1
 62
    39
  6
CONTINUOUS
 10
0.352248
 20
1.376483
  0
VERTEX
  8
EBENE_1
 62
    39
  6
CONTINUOUS
 10
0.369725
 20
1.376290
  0
VERTEX
  8
EBENE_1
 62
    39
  6
CONTINUOUS
 10
0.383610
 20
1.372479
  0
VERTEX
  8
EBENE_1
 62
    39
  6
CONTINUOUS
 10
0.394701
 20
1.365736
  0
VERTEX
  8
EBENE_1
 62
    39
  6
CONTINUOUS
 10
0.403797
 20
1.356746
  0
VERTEX
  8
EBENE_1
 62
    39
  6
CONTINUOUS
 10
0.411696
 20
1.346195
  0
VERTEX
  8
EBENE_1
 62
    39
  6
CONTINUOUS
 10
0.419198
 20
1.334768
  0
VERTEX
  8
EBENE_1
 62
    39
  6
CONTINUOUS
 10
0.427101
 20
1.323150
  0
VERTEX
  8
EBENE_1
 62
    39
  6
CONTINUOUS
 10
0.436204
 20
1.312026
  0
SEQEND
  8
0
  0
POLYLINE
  8
EBENE_1
 62
    39
  6
CONTINUOUS
 66
     1
 40
0.003000
 41
0.003000
  0
VERTEX
  8
EBENE_1
 62
    39
  6
CONTINUOUS
 10
0.170193
 20
1.279102
  0
VERTEX
  8
EBENE_1
 62
    39
  6
CONTINUOUS
 10
0.175700
 20
1.280580
  0
VERTEX
  8
EBENE_1
 62
    39
  6
CONTINUOUS
 10
0.179556
 20
1.284611
  0
VERTEX
  8
EBENE_1
 62
    39
  6
CONTINUOUS
 10
0.181008
 20
1.290594
  0
SEQEND
  8
0
  0
POLYLINE
  8
EBENE_1
 62
    39
  6
CONTINUOUS
 66
     1
 40
0.003000
 41
0.003000
  0
VERTEX
  8
EBENE_1
 62
    39
  6
CONTINUOUS
 10
0.181008
 20
1.290594
  0
VERTEX
  8
EBENE_1
 62
    39
  6
CONTINUOUS
 10
0.179556
 20
1.296102
  0
VERTEX
  8
EBENE_1
 62
    39
  6
CONTINUOUS
 10
0.175700
 20
1.299957
  0
VERTEX
  8
EBENE_1
 62
    39
  6
CONTINUOUS
 10
0.170193
 20
1.301409
  0
SEQEND
  8
0
  0
POLYLINE
  8
EBENE_1
 62
    39
  6
CONTINUOUS
 66
     1
 40
0.003000
 41
0.003000
  0
VERTEX
  8
EBENE_1
 62
    39
  6
CONTINUOUS
 10
0.170193
 20
1.301409
  0
VERTEX
  8
EBENE_1
 62
    39
  6
CONTINUOUS
 10
0.164210
 20
1.299957
  0
VERTEX
  8
EBENE_1
 62
    39
  6
CONTINUOUS
 10
0.160181
 20
1.296102
  0
VERTEX
  8
EBENE_1
 62
    39
  6
CONTINUOUS
 10
0.158705
 20
1.290594
  0
SEQEND
  8
0
  0
POLYLINE
  8
EBENE_1
 62
    39
  6
CONTINUOUS
 66
     1
 40
0.003000
 41
0.003000
  0
VERTEX
  8
EBENE_1
 62
    39
  6
CONTINUOUS
 10
0.158705
 20
1.290594
  0
VERTEX
  8
EBENE_1
 62
    39
  6
CONTINUOUS
 10
0.160181
 20
1.284611
  0
VERTEX
  8
EBENE_1
 62
    39
  6
CONTINUOUS
 10
0.164210
 20
1.280580
  0
VERTEX
  8
EBENE_1
 62
    39
  6
CONTINUOUS
 10
0.170193
 20
1.279102
  0
SEQEND
  8
0
  0
POLYLINE
  8
EBENE_1
 62
    39
  6
CONTINUOUS
 66
     1
 40
0.003000
 41
0.003000
  0
VERTEX
  8
EBENE_1
 62
    39
  6
CONTINUOUS
 10
0.291177
 20
1.304110
  0
VERTEX
  8
EBENE_1
 62
    39
  6
CONTINUOUS
 10
0.296860
 20
1.305738
  0
VERTEX
  8
EBENE_1
 62
    39
  6
CONTINUOUS
 10
0.301042
 20
1.309920
  0
VERTEX
  8
EBENE_1
 62
    39
  6
CONTINUOUS
 10
0.302669
 20
1.315602
  0
SEQEND
  8
0
  0
POLYLINE
  8
EBENE_1
 62
    39
  6
CONTINUOUS
 66
     1
 40
0.003000
 41
0.003000
  0
VERTEX
  8
EBENE_1
 62
    39
  6
CONTINUOUS
 10
0.302669
 20
1.315602
  0
VERTEX
  8
EBENE_1
 62
    39
  6
CONTINUOUS
 10
0.301042
 20
1.321585
  0
VERTEX
  8
EBENE_1
 62
    39
  6
CONTINUOUS
 10
0.296860
 20
1.325614
  0
VERTEX
  8
EBENE_1
 62
    39
  6
CONTINUOUS
 10
0.291177
 20
1.327091
  0
SEQEND
  8
0
  0
POLYLINE
  8
EBENE_1
 62
    39
  6
CONTINUOUS
 66
     1
 40
0.003000
 41
0.003000
  0
VERTEX
  8
EBENE_1
 62
    39
  6
CONTINUOUS
 10
0.291177
 20
1.327091
  0
VERTEX
  8
EBENE_1
 62
    39
  6
CONTINUOUS
 10
0.285494
 20
1.325614
  0
VERTEX
  8
EBENE_1
 62
    39
  6
CONTINUOUS
 10
0.281313
 20
1.321585
  0
VERTEX
  8
EBENE_1
 62
    39
  6
CONTINUOUS
 10
0.279685
 20
1.315602
  0
SEQEND
  8
0
  0
POLYLINE
  8
EBENE_1
 62
    39
  6
CONTINUOUS
 66
     1
 40
0.003000
 41
0.003000
  0
VERTEX
  8
EBENE_1
 62
    39
  6
CONTINUOUS
 10
0.279685
 20
1.315602
  0
VERTEX
  8
EBENE_1
 62
    39
  6
CONTINUOUS
 10
0.281313
 20
1.309920
  0
VERTEX
  8
EBENE_1
 62
    39
  6
CONTINUOUS
 10
0.285494
 20
1.305738
  0
VERTEX
  8
EBENE_1
 62
    39
  6
CONTINUOUS
 10
0.291177
 20
1.304110
  0
SEQEND
  8
0
  0
POLYLINE
  8
EBENE_1
 62
    39
  6
CONTINUOUS
 66
     1
 40
0.003000
 41
0.003000
  0
VERTEX
  8
EBENE_1
 62
    39
  6
CONTINUOUS
 10
0.410134
 20
1.259504
  0
VERTEX
  8
EBENE_1
 62
    39
  6
CONTINUOUS
 10
0.415816
 20
1.261131
  0
VERTEX
  8
EBENE_1
 62
    39
  6
CONTINUOUS
 10
0.419995
 20
1.265310
  0
VERTEX
  8
EBENE_1
 62
    39
  6
CONTINUOUS
 10
0.421622
 20
1.270992
  0
SEQEND
  8
0
  0
POLYLINE
  8
EBENE_1
 62
    39
  6
CONTINUOUS
 66
     1
 40
0.003000
 41
0.003000
  0
VERTEX
  8
EBENE_1
 62
    39
  6
CONTINUOUS
 10
0.421622
 20
1.270992
  0
VERTEX
  8
EBENE_1
 62
    39
  6
CONTINUOUS
 10
0.419995
 20
1.276675
  0
VERTEX
  8
EBENE_1
 62
    39
  6
CONTINUOUS
 10
0.415816
 20
1.280857
  0
VERTEX
  8
EBENE_1
 62
    39
  6
CONTINUOUS
 10
0.410134
 20
1.282484
  0
SEQEND
  8
0
  0
POLYLINE
  8
EBENE_1
 62
    39
  6
CONTINUOUS
 66
     1
 40
0.003000
 41
0.003000
  0
VERTEX
  8
EBENE_1
 62
    39
  6
CONTINUOUS
 10
0.410134
 20
1.282484
  0
VERTEX
  8
EBENE_1
 62
    39
  6
CONTINUOUS
 10
0.404452
 20
1.280857
  0
VERTEX
  8
EBENE_1
 62
    39
  6
CONTINUOUS
 10
0.400272
 20
1.276675
  0
VERTEX
  8
EBENE_1
 62
    39
  6
CONTINUOUS
 10
0.398646
 20
1.270992
  0
SEQEND
  8
0
  0
POLYLINE
  8
EBENE_1
 62
    39
  6
CONTINUOUS
 66
     1
 40
0.003000
 41
0.003000
  0
VERTEX
  8
EBENE_1
 62
    39
  6
CONTINUOUS
 10
0.398646
 20
1.270992
  0
VERTEX
  8
EBENE_1
 62
    39
  6
CONTINUOUS
 10
0.400272
 20
1.265310
  0
VERTEX
  8
EBENE_1
 62
    39
  6
CONTINUOUS
 10
0.404452
 20
1.261131
  0
VERTEX
  8
EBENE_1
 62
    39
  6
CONTINUOUS
 10
0.410134
 20
1.259504
  0
SEQEND
  8
0
  0
POLYLINE
  8
EBENE_1
 62
    39
  6
CONTINUOUS
 66
     1
 40
0.003000
 41
0.003000
  0
VERTEX
  8
EBENE_1
 62
    39
  6
CONTINUOUS
 10
0.779843
 20
1.386571
  0
VERTEX
  8
EBENE_1
 62
    39
  6
CONTINUOUS
 10
1.096835
 20
0.867488
  0
VERTEX
  8
EBENE_1
 62
    39
  6
CONTINUOUS
 10
0.764976
 20
0.780976
  0
SEQEND
  8
0
  0
POLYLINE
  8
EBENE_1
 62
    39
  6
CONTINUOUS
 66
     1
 40
0.003000
 41
0.003000
  0
VERTEX
  8
EBENE_1
 62
    39
  6
CONTINUOUS
 10
0.764976
 20
0.780976
  0
VERTEX
  8
EBENE_1
 62
    39
  6
CONTINUOUS
 10
0.756364
 20
0.779365
  0
VERTEX
  8
EBENE_1
 62
    39
  6
CONTINUOUS
 10
0.747147
 20
0.778302
  0
VERTEX
  8
EBENE_1
 62
    39
  6
CONTINUOUS
 10
0.737356
 20
0.777785
  0
VERTEX
  8
EBENE_1
 62
    39
  6
CONTINUOUS
 10
0.727023
 20
0.777812
  0
VERTEX
  8
EBENE_1
 62
    39
  6
CONTINUOUS
 10
0.716177
 20
0.778381
  0
VERTEX
  8
EBENE_1
 62
    39
  6
CONTINUOUS
 10
0.704852
 20
0.779490
  0
VERTEX
  8
EBENE_1
 62
    39
  6
CONTINUOUS
 10
0.693077
 20
0.781136
  0
VERTEX
  8
EBENE_1
 62
    39
  6
CONTINUOUS
 10
0.680884
 20
0.783319
  0
VERTEX
  8
EBENE_1
 62
    39
  6
CONTINUOUS
 10
0.668303
 20
0.786034
  0
VERTEX
  8
EBENE_1
 62
    39
  6
CONTINUOUS
 10
0.655367
 20
0.789281
  0
VERTEX
  8
EBENE_1
 62
    39
  6
CONTINUOUS
 10
0.642105
 20
0.793057
  0
VERTEX
  8
EBENE_1
 62
    39
  6
CONTINUOUS
 10
0.628550
 20
0.797359
  0
VERTEX
  8
EBENE_1
 62
    39
  6
CONTINUOUS
 10
0.614732
 20
0.802187
  0
VERTEX
  8
EBENE_1
 62
    39
  6
CONTINUOUS
 10
0.600683
 20
0.807537
  0
VERTEX
  8
EBENE_1
 62
    39
  6
CONTINUOUS
 10
0.586433
 20
0.813408
  0
VERTEX
  8
EBENE_1
 62
    39
  6
CONTINUOUS
 10
0.572014
 20
0.819797
  0
VERTEX
  8
EBENE_1
 62
    39
  6
CONTINUOUS
 10
0.557457
 20
0.826703
  0
VERTEX
  8
EBENE_1
 62
    39
  6
CONTINUOUS
 10
0.542792
 20
0.834122
  0
VERTEX
  8
EBENE_1
 62
    39
  6
CONTINUOUS
 10
0.528051
 20
0.842054
  0
VERTEX
  8
EBENE_1
 62
    39
  6
CONTINUOUS
 10
0.513266
 20
0.850495
  0
VERTEX
  8
EBENE_1
 62
    39
  6
CONTINUOUS
 10
0.498467
 20
0.859444
  0
VERTEX
  8
EBENE_1
 62
    39
  6
CONTINUOUS
 10
0.483685
 20
0.868899
  0
VERTEX
  8
EBENE_1
 62
    39
  6
CONTINUOUS
 10
0.468952
 20
0.878856
  0
VERTEX
  8
EBENE_1
 62
    39
  6
CONTINUOUS
 10
0.454298
 20
0.889316
  0
VERTEX
  8
EBENE_1
 62
    39
  6
CONTINUOUS
 10
0.439755
 20
0.900274
  0
VERTEX
  8
EBENE_1
 62
    39
  6
CONTINUOUS
 10
0.425353
 20
0.911729
  0
VERTEX
  8
EBENE_1
 62
    39
  6
CONTINUOUS
 10
0.411125
 20
0.923679
  0
VERTEX
  8
EBENE_1
 62
    39
  6
CONTINUOUS
 10
0.397100
 20
0.936122
  0
VERTEX
  8
EBENE_1
 62
    39
  6
CONTINUOUS
 10
0.383311
 20
0.949055
  0
VERTEX
  8
EBENE_1
 62
    39
  6
CONTINUOUS
 10
0.369788
 20
0.962476
  0
VERTEX
  8
EBENE_1
 62
    39
  6
CONTINUOUS
 10
0.356562
 20
0.976384
  0
VERTEX
  8
EBENE_1
 62
    39
  6
CONTINUOUS
 10
0.343665
 20
0.990776
  0
VERTEX
  8
EBENE_1
 62
    39
  6
CONTINUOUS
 10
0.331128
 20
1.005650
  0
VERTEX
  8
EBENE_1
 62
    39
  6
CONTINUOUS
 10
0.318981
 20
1.021004
  0
VERTEX
  8
EBENE_1
 62
    39
  6
CONTINUOUS
 10
0.307256
 20
1.036835
  0
VERTEX
  8
EBENE_1
 62
    39
  6
CONTINUOUS
 10
0.295984
 20
1.053142
  0
VERTEX
  8
EBENE_1
 62
    39
  6
CONTINUOUS
 10
0.285195
 20
1.069922
  0
VERTEX
  8
EBENE_1
 62
    39
  6
CONTINUOUS
 10
0.274922
 20
1.087174
  0
VERTEX
  8
EBENE_1
 62
    39
  6
CONTINUOUS
 10
0.265196
 20
1.104894
  0
VERTEX
  8
EBENE_1
 62
    39
  6
CONTINUOUS
 10
0.256046
 20
1.123082
  0
VERTEX
  8
EBENE_1
 62
    39
  6
CONTINUOUS
 10
0.247506
 20
1.141735
  0
VERTEX
  8
EBENE_1
 62
    39
  6
CONTINUOUS
 10
0.239604
 20
1.160850
  0
VERTEX
  8
EBENE_1
 62
    39
  6
CONTINUOUS
 10
0.232374
 20
1.180425
  0
SEQEND
  8
0
  0
POLYLINE
  8
EBENE_1
 62
    39
  6
CONTINUOUS
 66
     1
 40
0.003000
 41
0.003000
  0
VERTEX
  8
EBENE_1
 62
    39
  6
CONTINUOUS
 10
0.232374
 20
1.180425
  0
VERTEX
  8
EBENE_1
 62
    39
  6
CONTINUOUS
 10
0.228902
 20
1.202538
  0
VERTEX
  8
EBENE_1
 62
    39
  6
CONTINUOUS
 10
0.227459
 20
1.223597
  0
VERTEX
  8
EBENE_1
 62
    39
  6
CONTINUOUS
 10
0.227942
 20
1.243531
  0
VERTEX
  8
EBENE_1
 62
    39
  6
CONTINUOUS
 10
0.230245
 20
1.262271
  0
VERTEX
  8
EBENE_1
 62
    39
  6
CONTINUOUS
 10
0.234262
 20
1.279747
  0
VERTEX
  8
EBENE_1
 62
    39
  6
CONTINUOUS
 10
0.239889
 20
1.295888
  0
VERTEX
  8
EBENE_1
 62
    39
  6
CONTINUOUS
 10
0.247021
 20
1.310625
  0
VERTEX
  8
EBENE_1
 62
    39
  6
CONTINUOUS
 10
0.255551
 20
1.323887
  0
VERTEX
  8
EBENE_1
 62
    39
  6
CONTINUOUS
 10
0.265375
 20
1.335603
  0
VERTEX
  8
EBENE_1
 62
    39
  6
CONTINUOUS
 10
0.276388
 20
1.345705
  0
VERTEX
  8
EBENE_1
 62
    39
  6
CONTINUOUS
 10
0.288485
 20
1.354121
  0
VERTEX
  8
EBENE_1
 62
    39
  6
CONTINUOUS
 10
0.301560
 20
1.360783
  0
VERTEX
  8
EBENE_1
 62
    39
  6
CONTINUOUS
 10
0.315508
 20
1.365618
  0
SEQEND
  8
0
  0
POLYLINE
  8
EBENE_1
 62
    39
  6
CONTINUOUS
 66
     1
 40
0.003000
 41
0.003000
  0
VERTEX
  8
EBENE_1
 62
    39
  6
CONTINUOUS
 10
0.315508
 20
1.365618
  0
VERTEX
  8
EBENE_1
 62
    39
  6
CONTINUOUS
 10
0.660890
 20
1.458217
  0
SEQEND
  8
0
  0
POLYLINE
  8
EBENE_1
 62
    39
  6
CONTINUOUS
 66
     1
 40
0.003000
 41
0.003000
  0
VERTEX
  8
EBENE_1
 62
    39
  6
CONTINUOUS
 10
0.660890
 20
1.458217
  0
VERTEX
  8
EBENE_1
 62
    39
  6
CONTINUOUS
 10
0.683126
 20
1.462305
  0
VERTEX
  8
EBENE_1
 62
    39
  6
CONTINUOUS
 10
0.700902
 20
1.462054
  0
VERTEX
  8
EBENE_1
 62
    39
  6
CONTINUOUS
 10
0.715028
 20
1.458154
  0
VERTEX
  8
EBENE_1
 62
    39
  6
CONTINUOUS
 10
0.726315
 20
1.451294
  0
VERTEX
  8
EBENE_1
 62
    39
  6
CONTINUOUS
 10
0.735574
 20
1.442162
  0
VERTEX
  8
EBENE_1
 62
    39
  6
CONTINUOUS
 10
0.743617
 20
1.431450
  0
VERTEX
  8
EBENE_1
 62
    39
  6
CONTINUOUS
 10
0.751254
 20
1.419845
  0
VERTEX
  8
EBENE_1
 62
    39
  6
CONTINUOUS
 10
0.759297
 20
1.408037
  0
VERTEX
  8
EBENE_1
 62
    39
  6
CONTINUOUS
 10
0.768556
 20
1.396716
  0
VERTEX
  8
EBENE_1
 62
    39
  6
CONTINUOUS
 10
0.779843
 20
1.386571
  0
SEQEND
  8
0
  0
POLYLINE
  8
EBENE_1
 62
    39
  6
CONTINUOUS
 66
     1
 40
0.003000
 41
0.003000
 70
     1
  0
VERTEX
  8
EBENE_1
 62
    39
  6
CONTINUOUS
 10
0.779843
 20
1.384543
  0
VERTEX
  8
EBENE_1
 62
    39
  6
CONTINUOUS
 10
1.091429
 20
0.873571
  0
VERTEX
  8
EBENE_1
 62
    39
  6
CONTINUOUS
 10
0.764976
 20
0.789087
  0
VERTEX
  8
EBENE_1
 62
    39
  6
CONTINUOUS
 10
0.756511
 20
0.787471
  0
VERTEX
  8
EBENE_1
 62
    39
  6
CONTINUOUS
 10
0.747451
 20
0.786395
  0
VERTEX
  8
EBENE_1
 62
    39
  6
CONTINUOUS
 10
0.737827
 20
0.785857
  0
VERTEX
  8
EBENE_1
 62
    39
  6
CONTINUOUS
 10
0.727670
 20
0.785854
  0
VERTEX
  8
EBENE_1
 62
    39
  6
CONTINUOUS
 10
0.717010
 20
0.786385
  0
VERTEX
  8
EBENE_1
 62
    39
  6
CONTINUOUS
 10
0.705878
 20
0.787447
  0
VERTEX
  8
EBENE_1
 62
    39
  6
CONTINUOUS
 10
0.694304
 20
0.789039
  0
VERTEX
  8
EBENE_1
 62
    39
  6
CONTINUOUS
 10
0.682318
 20
0.791158
  0
VERTEX
  8
EBENE_1
 62
    39
  6
CONTINUOUS
 10
0.669952
 20
0.793803
  0
VERTEX
  8
EBENE_1
 62
    39
  6
CONTINUOUS
 10
0.657236
 20
0.796971
  0
VERTEX
  8
EBENE_1
 62
    39
  6
CONTINUOUS
 10
0.644200
 20
0.800660
  0
VERTEX
  8
EBENE_1
 62
    39
  6
CONTINUOUS
 10
0.630875
 20
0.804869
  0
VERTEX
  8
EBENE_1
 62
    39
  6
CONTINUOUS
 10
0.617292
 20
0.809595
  0
VERTEX
  8
EBENE_1
 62
    39
  6
CONTINUOUS
 10
0.603481
 20
0.814836
  0
VERTEX
  8
EBENE_1
 62
    39
  6
CONTINUOUS
 10
0.589473
 20
0.820590
  0
VERTEX
  8
EBENE_1
 62
    39
  6
CONTINUOUS
 10
0.575298
 20
0.826856
  0
VERTEX
  8
EBENE_1
 62
    39
  6
CONTINUOUS
 10
0.560986
 20
0.833630
  0
VERTEX
  8
EBENE_1
 62
    39
  6
CONTINUOUS
 10
0.546569
 20
0.840912
  0
VERTEX
  8
EBENE_1
 62
    39
  6
CONTINUOUS
 10
0.532077
 20
0.848698
  0
VERTEX
  8
EBENE_1
 62
    39
  6
CONTINUOUS
 10
0.517540
 20
0.856988
  0
VERTEX
  8
EBENE_1
 62
    39
  6
CONTINUOUS
 10
0.502989
 20
0.865778
  0
VERTEX
  8
EBENE_1
 62
    39
  6
CONTINUOUS
 10
0.488455
 20
0.875068
  0
VERTEX
  8
EBENE_1
 62
    39
  6
CONTINUOUS
 10
0.473968
 20
0.884854
  0
VERTEX
  8
EBENE_1
 62
    39
  6
CONTINUOUS
 10
0.459558
 20
0.895135
  0
VERTEX
  8
EBENE_1
 62
    39
  6
CONTINUOUS
 10
0.445257
 20
0.905909
  0
VERTEX
  8
EBENE_1
 62
    39
  6
CONTINUOUS
 10
0.431094
 20
0.917173
  0
VERTEX
  8
EBENE_1
 62
    39
  6
CONTINUOUS
 10
0.417101
 20
0.928926
  0
VERTEX
  8
EBENE_1
 62
    39
  6
CONTINUOUS
 10
0.403307
 20
0.941166
  0
VERTEX
  8
EBENE_1
 62
    39
  6
CONTINUOUS
 10
0.389744
 20
0.953891
  0
VERTEX
  8
EBENE_1
 62
    39
  6
CONTINUOUS
 10
0.376442
 20
0.967098
  0
VERTEX
  8
EBENE_1
 62
    39
  6
CONTINUOUS
 10
0.363431
 20
0.980785
  0
VERTEX
  8
EBENE_1
 62
    39
  6
CONTINUOUS
 10
0.350742
 20
0.994951
  0
VERTEX
  8
EBENE_1
 62
    39
  6
CONTINUOUS
 10
0.338406
 20
1.009594
  0
VERTEX
  8
EBENE_1
 62
    39
  6
CONTINUOUS
 10
0.326453
 20
1.024711
  0
VERTEX
  8
EBENE_1
 62
    39
  6
CONTINUOUS
 10
0.314914
 20
1.040300
  0
VERTEX
  8
EBENE_1
 62
    39
  6
CONTINUOUS
 10
0.303819
 20
1.056360
  0
VERTEX
  8
EBENE_1
 62
    39
  6
CONTINUOUS
 10
0.293199
 20
1.072888
  0
VERTEX
  8
EBENE_1
 62
    39
  6
CONTINUOUS
 10
0.283085
 20
1.089882
  0
VERTEX
  8
EBENE_1
 62
    39
  6
CONTINUOUS
 10
0.273506
 20
1.107341
  0
VERTEX
  8
EBENE_1
 62
    39
  6
CONTINUOUS
 10
0.264494
 20
1.125261
  0
VERTEX
  8
EBENE_1
 62
    39
  6
CONTINUOUS
 10
0.256079
 20
1.143642
  0
VERTEX
  8
EBENE_1
 62
    39
  6
CONTINUOUS
 10
0.248291
 20
1.162481
  0
VERTEX
  8
EBENE_1
 62
    39
  6
CONTINUOUS
 10
0.241161
 20
1.181776
  0
VERTEX
  8
EBENE_1
 62
    39
  6
CONTINUOUS
 10
0.241161
 20
1.181776
  0
VERTEX
  8
EBENE_1
 62
    39
  6
CONTINUOUS
 10
0.237810
 20
1.203444
  0
VERTEX
  8
EBENE_1
 62
    39
  6
CONTINUOUS
 10
0.236424
 20
1.224102
  0
VERTEX
  8
EBENE_1
 62
    39
  6
CONTINUOUS
 10
0.236906
 20
1.243677
  0
VERTEX
  8
EBENE_1
 62
    39
  6
CONTINUOUS
 10
0.239158
 20
1.262095
  0
VERTEX
  8
EBENE_1
 62
    39
  6
CONTINUOUS
 10
0.243082
 20
1.279282
  0
VERTEX
  8
EBENE_1
 62
    39
  6
CONTINUOUS
 10
0.248581
 20
1.295163
  0
VERTEX
  8
EBENE_1
 62
    39
  6
CONTINUOUS
 10
0.255557
 20
1.309666
  0
VERTEX
  8
EBENE_1
 62
    39
  6
CONTINUOUS
 10
0.263912
 20
1.322716
  0
VERTEX
  8
EBENE_1
 62
    39
  6
CONTINUOUS
 10
0.273548
 20
1.334239
  0
VERTEX
  8
EBENE_1
 62
    39
  6
CONTINUOUS
 10
0.284367
 20
1.344162
  0
VERTEX
  8
EBENE_1
 62
    39
  6
CONTINUOUS
 10
0.296271
 20
1.352411
  0
VERTEX
  8
EBENE_1
 62
    39
  6
CONTINUOUS
 10
0.309163
 20
1.358912
  0
VERTEX
  8
EBENE_1
 62
    39
  6
CONTINUOUS
 10
0.322945
 20
1.363591
  0
VERTEX
  8
EBENE_1
 62
    39
  6
CONTINUOUS
 10
0.662917
 20
1.454835
  0
VERTEX
  8
EBENE_1
 62
    39
  6
CONTINUOUS
 10
0.684786
 20
1.458944
  0
VERTEX
  8
EBENE_1
 62
    39
  6
CONTINUOUS
 10
0.702263
 20
1.458750
  0
VERTEX
  8
EBENE_1
 62
    39
  6
CONTINUOUS
 10
0.716147
 20
1.454939
  0
VERTEX
  8
EBENE_1
 62
    39
  6
CONTINUOUS
 10
0.727237
 20
1.448195
  0
VERTEX
  8
EBENE_1
 62
    39
  6
CONTINUOUS
 10
0.736333
 20
1.439205
  0
VERTEX
  8
EBENE_1
 62
    39
  6
CONTINUOUS
 10
0.744232
 20
1.428654
  0
VERTEX
  8
EBENE_1
 62
    39
  6
CONTINUOUS
 10
0.751733
 20
1.417227
  0
VERTEX
  8
EBENE_1
 62
    39
  6
CONTINUOUS
 10
0.759636
 20
1.405609
  0
VERTEX
  8
EBENE_1
 62
    39
  6
CONTINUOUS
 10
0.768740
 20
1.394486
  0
SEQEND
  8
0
  0
POLYLINE
  8
EBENE_1
 62
    39
  6
CONTINUOUS
 66
     1
 40
0.003000
 41
0.003000
  0
VERTEX
  8
EBENE_1
 62
    39
  6
CONTINUOUS
 10
0.502728
 20
1.360886
  0
VERTEX
  8
EBENE_1
 62
    39
  6
CONTINUOUS
 10
0.508413
 20
1.362363
  0
VERTEX
  8
EBENE_1
 62
    39
  6
CONTINUOUS
 10
0.512594
 20
1.366393
  0
VERTEX
  8
EBENE_1
 62
    39
  6
CONTINUOUS
 10
0.514220
 20
1.372374
  0
SEQEND
  8
0
  0
POLYLINE
  8
EBENE_1
 62
    39
  6
CONTINUOUS
 66
     1
 40
0.003000
 41
0.003000
  0
VERTEX
  8
EBENE_1
 62
    39
  6
CONTINUOUS
 10
0.514220
 20
1.372374
  0
VERTEX
  8
EBENE_1
 62
    39
  6
CONTINUOUS
 10
0.512594
 20
1.378059
  0
VERTEX
  8
EBENE_1
 62
    39
  6
CONTINUOUS
 10
0.508413
 20
1.382239
  0
VERTEX
  8
EBENE_1
 62
    39
  6
CONTINUOUS
 10
0.502728
 20
1.383866
  0
SEQEND
  8
0
  0
POLYLINE
  8
EBENE_1
 62
    39
  6
CONTINUOUS
 66
     1
 40
0.003000
 41
0.003000
  0
VERTEX
  8
EBENE_1
 62
    39
  6
CONTINUOUS
 10
0.502728
 20
1.383866
  0
VERTEX
  8
EBENE_1
 62
    39
  6
CONTINUOUS
 10
0.496747
 20
1.382239
  0
VERTEX
  8
EBENE_1
 62
    39
  6
CONTINUOUS
 10
0.492717
 20
1.378059
  0
VERTEX
  8
EBENE_1
 62
    39
  6
CONTINUOUS
 10
0.491240
 20
1.372374
  0
SEQEND
  8
0
  0
POLYLINE
  8
EBENE_1
 62
    39
  6
CONTINUOUS
 66
     1
 40
0.003000
 41
0.003000
  0
VERTEX
  8
EBENE_1
 62
    39
  6
CONTINUOUS
 10
0.491240
 20
1.372374
  0
VERTEX
  8
EBENE_1
 62
    39
  6
CONTINUOUS
 10
0.492717
 20
1.366393
  0
VERTEX
  8
EBENE_1
 62
    39
  6
CONTINUOUS
 10
0.496747
 20
1.362363
  0
VERTEX
  8
EBENE_1
 62
    39
  6
CONTINUOUS
 10
0.502728
 20
1.360886
  0
SEQEND
  8
0
  0
POLYLINE
  8
EBENE_1
 62
    39
  6
CONTINUOUS
 66
     1
 40
0.003000
 41
0.003000
  0
VERTEX
  8
EBENE_1
 62
    39
  6
CONTINUOUS
 10
0.623717
 20
1.387248
  0
VERTEX
  8
EBENE_1
 62
    39
  6
CONTINUOUS
 10
0.629698
 20
1.388699
  0
VERTEX
  8
EBENE_1
 62
    39
  6
CONTINUOUS
 10
0.633728
 20
1.392553
  0
VERTEX
  8
EBENE_1
 62
    39
  6
CONTINUOUS
 10
0.635205
 20
1.398059
  0
SEQEND
  8
0
  0
POLYLINE
  8
EBENE_1
 62
    39
  6
CONTINUOUS
 66
     1
 40
0.003000
 41
0.003000
  0
VERTEX
  8
EBENE_1
 62
    39
  6
CONTINUOUS
 10
0.635205
 20
1.398059
  0
VERTEX
  8
EBENE_1
 62
    39
  6
CONTINUOUS
 10
0.633728
 20
1.404043
  0
VERTEX
  8
EBENE_1
 62
    39
  6
CONTINUOUS
 10
0.629698
 20
1.408074
  0
VERTEX
  8
EBENE_1
 62
    39
  6
CONTINUOUS
 10
0.623717
 20
1.409551
  0
SEQEND
  8
0
  0
POLYLINE
  8
EBENE_1
 62
    39
  6
CONTINUOUS
 66
     1
 40
0.003000
 41
0.003000
  0
VERTEX
  8
EBENE_1
 62
    39
  6
CONTINUOUS
 10
0.623717
 20
1.409551
  0
VERTEX
  8
EBENE_1
 62
    39
  6
CONTINUOUS
 10
0.618032
 20
1.408074
  0
VERTEX
  8
EBENE_1
 62
    39
  6
CONTINUOUS
 10
0.613851
 20
1.404043
  0
VERTEX
  8
EBENE_1
 62
    39
  6
CONTINUOUS
 10
0.612224
 20
1.398059
  0
SEQEND
  8
0
  0
POLYLINE
  8
EBENE_1
 62
    39
  6
CONTINUOUS
 66
     1
 40
0.003000
 41
0.003000
  0
VERTEX
  8
EBENE_1
 62
    39
  6
CONTINUOUS
 10
0.612224
 20
1.398059
  0
VERTEX
  8
EBENE_1
 62
    39
  6
CONTINUOUS
 10
0.613851
 20
1.392553
  0
VERTEX
  8
EBENE_1
 62
    39
  6
CONTINUOUS
 10
0.618032
 20
1.388699
  0
VERTEX
  8
EBENE_1
 62
    39
  6
CONTINUOUS
 10
0.623717
 20
1.387248
  0
SEQEND
  8
0
  0
POLYLINE
  8
EBENE_1
 62
    39
  6
CONTINUOUS
 66
     1
 40
0.003000
 41
0.003000
  0
VERTEX
  8
EBENE_1
 62
    39
  6
CONTINUOUS
 10
0.742669
 20
1.341287
  0
VERTEX
  8
EBENE_1
 62
    39
  6
CONTINUOUS
 10
0.748352
 20
1.342914
  0
VERTEX
  8
EBENE_1
 62
    39
  6
CONTINUOUS
 10
0.752534
 20
1.347094
  0
VERTEX
  8
EBENE_1
 62
    39
  6
CONTINUOUS
 10
0.754161
 20
1.352776
  0
SEQEND
  8
0
  0
POLYLINE
  8
EBENE_1
 62
    39
  6
CONTINUOUS
 66
     1
 40
0.003000
 41
0.003000
  0
VERTEX
  8
EBENE_1
 62
    39
  6
CONTINUOUS
 10
0.754161
 20
1.352776
  0
VERTEX
  8
EBENE_1
 62
    39
  6
CONTINUOUS
 10
0.752534
 20
1.358458
  0
VERTEX
  8
EBENE_1
 62
    39
  6
CONTINUOUS
 10
0.748352
 20
1.362640
  0
VERTEX
  8
EBENE_1
 62
    39
  6
CONTINUOUS
 10
0.742669
 20
1.364268
  0
SEQEND
  8
0
  0
POLYLINE
  8
EBENE_1
 62
    39
  6
CONTINUOUS
 66
     1
 40
0.003000
 41
0.003000
  0
VERTEX
  8
EBENE_1
 62
    39
  6
CONTINUOUS
 10
0.742669
 20
1.364268
  0
VERTEX
  8
EBENE_1
 62
    39
  6
CONTINUOUS
 10
0.736987
 20
1.362640
  0
VERTEX
  8
EBENE_1
 62
    39
  6
CONTINUOUS
 10
0.732808
 20
1.358458
  0
VERTEX
  8
EBENE_1
 62
    39
  6
CONTINUOUS
 10
0.731181
 20
1.352776
  0
SEQEND
  8
0
  0
POLYLINE
  8
EBENE_1
 62
    39
  6
CONTINUOUS
 66
     1
 40
0.003000
 41
0.003000
  0
VERTEX
  8
EBENE_1
 62
    39
  6
CONTINUOUS
 10
0.731181
 20
1.352776
  0
VERTEX
  8
EBENE_1
 62
    39
  6
CONTINUOUS
 10
0.732808
 20
1.347094
  0
VERTEX
  8
EBENE_1
 62
    39
  6
CONTINUOUS
 10
0.736987
 20
1.342914
  0
VERTEX
  8
EBENE_1
 62
    39
  6
CONTINUOUS
 10
0.742669
 20
1.341287
  0
SEQEND
  8
0
  0
POLYLINE
  8
EBENE_1
 62
    39
  6
CONTINUOUS
 66
     1
 40
0.003000
 41
0.003000
 70
     1
  0
VERTEX
  8
EBENE_1
 62
    39
  6
CONTINUOUS
 10
1.427402
 20
-0.778654
  0
VERTEX
  8
EBENE_1
 62
    39
  6
CONTINUOUS
 10
1.427402
 20
-0.539469
  0
VERTEX
  8
EBENE_1
 62
    39
  6
CONTINUOUS
 10
-0.728299
 20
-0.539469
  0
VERTEX
  8
EBENE_1
 62
    39
  6
CONTINUOUS
 10
-0.728299
 20
-0.778654
  0
SEQEND
  8
0
  0
TEXT
  8
EBENE_1
 62
    39
 10
-0.728299
 20
-0.743480
 40
0.186988
  1
Anfangort als Stichort 
 41
1.000000
  7
SN0
 71
     0
 72
     5
 11
1.488966
 21
-0.743480
  0
ENDSEC
  0
EOF
