  0
SECTION
  2
HEADER
  9
$ACADVER
  1
AC1006
  9
$EXTMIN
 10
-1.416850
 20
-1.961087
  9
$EXTMAX
 10
1.420024
 20
0.640449
  9
$LTSCALE
 40
0.000394
  9
$PDMODE
 70
    35
  9
$PDSIZE
 40
0.000315
  0
ENDSEC
  0
SECTION
  2
TABLES
  0
TABLE
  2
LTYPE
 70
     9
  0
LTYPE
  2
CONTINUOUS
 70
    64
  3
Solid line
 72
    65
 73
     0
 40
0.000000
  0
LTYPE
  2
DASHED
 70
    64
  3
__ __ __ __ __ __ __ __ __ __ __ __ __ __ __
 72
    65
 73
     2
 40
0.000003
 49
0.000002
 49
-0.000001
  0
LTYPE
  2
HIDDEN
 70
    64
  3
 _ _ _ _ _ _ _ _ _ _ _ _ _ _ _ _ _ _ _ _ _ _
 72
    65
 73
     2
 40
0.000001
 49
0.000001
 49
-0.000000
  0
LTYPE
  2
CENTER
 70
    64
  3
____ _ ____ _ ____ _ ____ _ ____ _ ____ _ ____
 72
    65
 73
     4
 40
0.000008
 49
0.000005
 49
-0.000001
 49
0.000001
 49
-0.000001
  0
LTYPE
  2
PHANTOM
 70
    64
  3
_____ _ _ _____ _ _ _____ _ _ _____ _ _ ____
 72
    65
 73
     6
 40
0.000010
 49
0.000005
 49
-0.000001
 49
0.000001
 49
-0.000001
 49
0.000001
 49
-0.000001
  0
LTYPE
  2
DOT
 70
    64
  3
...............................................
 72
    65
 73
     2
 40
0.000001
 49
0.000000
 49
-0.000001
  0
LTYPE
  2
DASHDOT
 70
    64
  3
__ . __ . __ . __ . __ . __ . __ . __ . __ . __
 72
    65
 73
     4
 40
0.000004
 49
0.000002
 49
-0.000001
 49
0.000000
 49
-0.000001
  0
LTYPE
  2
BORDER
 70
    64
  3
__ __ . __ __ . __ __ . __ __ . __ __ . __ __
 72
    65
 73
     6
 40
0.000007
 49
0.000002
 49
-0.000001
 49
0.000002
 49
-0.000001
 49
0.000000
 49
-0.000001
  0
LTYPE
  2
DIVIDE
 70
    64
  3
__ . . __ . . __ . . __ . . __ . . __ . . __
 72
    65
 73
     6
 40
0.000005
 49
0.000002
 49
-0.000001
 49
0.000000
 49
-0.000001
 49
0.000000
 49
-0.000001
  0
LTYPE
  2
DOTDOT
 70
    64
  3
 . .  . .  . .  . .  . .  . . 
 72
    65
 73
     5
 40
0.000002
 49
-0.000001
 49
0.000000
 49
-0.000001
 49
0.000000
 49
-0.000001
  0
ENDTAB
  0
TABLE
  2
STYLE
 70
     2
  0
STYLE
 70
     0
  2
SN0
 40
0.000000
 41
0.000004
 50
0.000000
 71
     0
 42
0.000000
  3
SCRIPTS
  0
STYLE
 70
    68
  2
SV0
 40
0.000000
 41
0.000004
 50
0.000000
 71
     0
 42
0.000000
  3
SCRIPTS
  0
ENDTAB
  0
TABLE
  2
LAYER
 70
     3
  0
LAYER
  2
FOREGROUND
 70
    64
 62
     7
  6
CONTINUOUS
  0
LAYER
  2
BACKGROUND
 70
    65
 62
    -7
  6
CONTINUOUS
  0
LAYER
  2
EBENE_1
 70
    64
 62
     7
  6
CONTINUOUS
  0
ENDTAB
  0
ENDSEC
  0
SECTION
  2
ENTITIES
  0
POLYLINE
  8
EBENE_1
 62
    39
  6
CONTINUOUS
 66
     1
 40
0.003000
 41
0.003000
 70
     1
  0
VERTEX
  8
EBENE_1
 62
    39
  6
CONTINUOUS
 10
1.388445
 20
-1.959587
  0
VERTEX
  8
EBENE_1
 62
    39
  6
CONTINUOUS
 10
1.388445
 20
-1.720406
  0
VERTEX
  8
EBENE_1
 62
    39
  6
CONTINUOUS
 10
-0.453760
 20
-1.720406
  0
VERTEX
  8
EBENE_1
 62
    39
  6
CONTINUOUS
 10
-0.453760
 20
-1.959587
  0
SEQEND
  8
0
  0
TEXT
  8
EBENE_1
 62
    39
 10
-0.453760
 20
-1.924413
 40
0.186980
  1
Endort als Stichort 
 41
1.000000
  7
SN0
 71
     0
 72
     5
 11
1.448932
 21
-1.924413
  0
POLYLINE
  8
EBENE_1
 62
    39
  6
CONTINUOUS
 66
     1
 40
0.003000
 41
0.003000
  0
VERTEX
  8
EBENE_1
 62
    39
  6
CONTINUOUS
 10
-0.139748
 20
-0.929638
  0
VERTEX
  8
EBENE_1
 62
    39
  6
CONTINUOUS
 10
0.177244
 20
-1.450071
  0
VERTEX
  8
EBENE_1
 62
    39
  6
CONTINUOUS
 10
-0.153941
 20
-1.535909
  0
SEQEND
  8
0
  0
POLYLINE
  8
EBENE_1
 62
    39
  6
CONTINUOUS
 66
     1
 40
0.003000
 41
0.003000
  0
VERTEX
  8
EBENE_1
 62
    39
  6
CONTINUOUS
 10
-0.153941
 20
-1.535909
  0
VERTEX
  8
EBENE_1
 62
    39
  6
CONTINUOUS
 10
-0.163732
 20
-1.537693
  0
VERTEX
  8
EBENE_1
 62
    39
  6
CONTINUOUS
 10
-0.174292
 20
-1.538778
  0
VERTEX
  8
EBENE_1
 62
    39
  6
CONTINUOUS
 10
-0.185576
 20
-1.539166
  0
VERTEX
  8
EBENE_1
 62
    39
  6
CONTINUOUS
 10
-0.197540
 20
-1.538861
  0
VERTEX
  8
EBENE_1
 62
    39
  6
CONTINUOUS
 10
-0.210137
 20
-1.537865
  0
VERTEX
  8
EBENE_1
 62
    39
  6
CONTINUOUS
 10
-0.223324
 20
-1.536182
  0
VERTEX
  8
EBENE_1
 62
    39
  6
CONTINUOUS
 10
-0.237055
 20
-1.533813
  0
VERTEX
  8
EBENE_1
 62
    39
  6
CONTINUOUS
 10
-0.251284
 20
-1.530763
  0
VERTEX
  8
EBENE_1
 62
    39
  6
CONTINUOUS
 10
-0.265968
 20
-1.527034
  0
VERTEX
  8
EBENE_1
 62
    39
  6
CONTINUOUS
 10
-0.281060
 20
-1.522629
  0
VERTEX
  8
EBENE_1
 62
    39
  6
CONTINUOUS
 10
-0.296516
 20
-1.517550
  0
VERTEX
  8
EBENE_1
 62
    39
  6
CONTINUOUS
 10
-0.312290
 20
-1.511801
  0
VERTEX
  8
EBENE_1
 62
    39
  6
CONTINUOUS
 10
-0.328337
 20
-1.505384
  0
VERTEX
  8
EBENE_1
 62
    39
  6
CONTINUOUS
 10
-0.344614
 20
-1.498303
  0
VERTEX
  8
EBENE_1
 62
    39
  6
CONTINUOUS
 10
-0.361073
 20
-1.490560
  0
VERTEX
  8
EBENE_1
 62
    39
  6
CONTINUOUS
 10
-0.377670
 20
-1.482158
  0
VERTEX
  8
EBENE_1
 62
    39
  6
CONTINUOUS
 10
-0.394361
 20
-1.473101
  0
VERTEX
  8
EBENE_1
 62
    39
  6
CONTINUOUS
 10
-0.411100
 20
-1.463390
  0
VERTEX
  8
EBENE_1
 62
    39
  6
CONTINUOUS
 10
-0.427842
 20
-1.453029
  0
VERTEX
  8
EBENE_1
 62
    39
  6
CONTINUOUS
 10
-0.444541
 20
-1.442020
  0
VERTEX
  8
EBENE_1
 62
    39
  6
CONTINUOUS
 10
-0.461153
 20
-1.430367
  0
VERTEX
  8
EBENE_1
 62
    39
  6
CONTINUOUS
 10
-0.477634
 20
-1.418073
  0
VERTEX
  8
EBENE_1
 62
    39
  6
CONTINUOUS
 10
-0.493936
 20
-1.405140
  0
VERTEX
  8
EBENE_1
 62
    39
  6
CONTINUOUS
 10
-0.510016
 20
-1.391571
  0
VERTEX
  8
EBENE_1
 62
    39
  6
CONTINUOUS
 10
-0.525829
 20
-1.377369
  0
VERTEX
  8
EBENE_1
 62
    39
  6
CONTINUOUS
 10
-0.541329
 20
-1.362537
  0
VERTEX
  8
EBENE_1
 62
    39
  6
CONTINUOUS
 10
-0.556472
 20
-1.347078
  0
VERTEX
  8
EBENE_1
 62
    39
  6
CONTINUOUS
 10
-0.571211
 20
-1.330995
  0
VERTEX
  8
EBENE_1
 62
    39
  6
CONTINUOUS
 10
-0.585503
 20
-1.314290
  0
VERTEX
  8
EBENE_1
 62
    39
  6
CONTINUOUS
 10
-0.599302
 20
-1.296967
  0
VERTEX
  8
EBENE_1
 62
    39
  6
CONTINUOUS
 10
-0.612562
 20
-1.279028
  0
VERTEX
  8
EBENE_1
 62
    39
  6
CONTINUOUS
 10
-0.625240
 20
-1.260476
  0
VERTEX
  8
EBENE_1
 62
    39
  6
CONTINUOUS
 10
-0.637289
 20
-1.241315
  0
VERTEX
  8
EBENE_1
 62
    39
  6
CONTINUOUS
 10
-0.648665
 20
-1.221546
  0
VERTEX
  8
EBENE_1
 62
    39
  6
CONTINUOUS
 10
-0.659323
 20
-1.201174
  0
VERTEX
  8
EBENE_1
 62
    39
  6
CONTINUOUS
 10
-0.669218
 20
-1.180200
  0
VERTEX
  8
EBENE_1
 62
    39
  6
CONTINUOUS
 10
-0.678303
 20
-1.158628
  0
VERTEX
  8
EBENE_1
 62
    39
  6
CONTINUOUS
 10
-0.686535
 20
-1.136461
  0
SEQEND
  8
0
  0
POLYLINE
  8
EBENE_1
 62
    39
  6
CONTINUOUS
 66
     1
 40
0.003000
 41
0.003000
  0
VERTEX
  8
EBENE_1
 62
    39
  6
CONTINUOUS
 10
-0.686535
 20
-1.136461
  0
VERTEX
  8
EBENE_1
 62
    39
  6
CONTINUOUS
 10
-0.690419
 20
-1.110439
  0
VERTEX
  8
EBENE_1
 62
    39
  6
CONTINUOUS
 10
-0.691493
 20
-1.085906
  0
VERTEX
  8
EBENE_1
 62
    39
  6
CONTINUOUS
 10
-0.689932
 20
-1.062980
  0
VERTEX
  8
EBENE_1
 62
    39
  6
CONTINUOUS
 10
-0.685908
 20
-1.041775
  0
VERTEX
  8
EBENE_1
 62
    39
  6
CONTINUOUS
 10
-0.679597
 20
-1.022407
  0
VERTEX
  8
EBENE_1
 62
    39
  6
CONTINUOUS
 10
-0.671171
 20
-1.004992
  0
VERTEX
  8
EBENE_1
 62
    39
  6
CONTINUOUS
 10
-0.660804
 20
-0.989646
  0
VERTEX
  8
EBENE_1
 62
    39
  6
CONTINUOUS
 10
-0.648670
 20
-0.976485
  0
VERTEX
  8
EBENE_1
 62
    39
  6
CONTINUOUS
 10
-0.634942
 20
-0.965624
  0
VERTEX
  8
EBENE_1
 62
    39
  6
CONTINUOUS
 10
-0.619795
 20
-0.957180
  0
VERTEX
  8
EBENE_1
 62
    39
  6
CONTINUOUS
 10
-0.603402
 20
-0.951268
  0
SEQEND
  8
0
  0
POLYLINE
  8
EBENE_1
 62
    39
  6
CONTINUOUS
 66
     1
 40
0.003000
 41
0.003000
  0
VERTEX
  8
EBENE_1
 62
    39
  6
CONTINUOUS
 10
-0.603402
 20
-0.951268
  0
VERTEX
  8
EBENE_1
 62
    39
  6
CONTINUOUS
 10
-0.258024
 20
-0.858669
  0
SEQEND
  8
0
  0
POLYLINE
  8
EBENE_1
 62
    39
  6
CONTINUOUS
 66
     1
 40
0.003000
 41
0.003000
  0
VERTEX
  8
EBENE_1
 62
    39
  6
CONTINUOUS
 10
-0.258024
 20
-0.858669
  0
VERTEX
  8
EBENE_1
 62
    39
  6
CONTINUOUS
 10
-0.233609
 20
-0.854228
  0
VERTEX
  8
EBENE_1
 62
    39
  6
CONTINUOUS
 10
-0.214595
 20
-0.855126
  0
VERTEX
  8
EBENE_1
 62
    39
  6
CONTINUOUS
 10
-0.199876
 20
-0.860397
  0
VERTEX
  8
EBENE_1
 62
    39
  6
CONTINUOUS
 10
-0.188344
 20
-0.869072
  0
VERTEX
  8
EBENE_1
 62
    39
  6
CONTINUOUS
 10
-0.178892
 20
-0.880183
  0
VERTEX
  8
EBENE_1
 62
    39
  6
CONTINUOUS
 10
-0.170413
 20
-0.892763
  0
VERTEX
  8
EBENE_1
 62
    39
  6
CONTINUOUS
 10
-0.161801
 20
-0.905845
  0
VERTEX
  8
EBENE_1
 62
    39
  6
CONTINUOUS
 10
-0.151948
 20
-0.918459
  0
VERTEX
  8
EBENE_1
 62
    39
  6
CONTINUOUS
 10
-0.139748
 20
-0.929638
  0
SEQEND
  8
0
  0
POLYLINE
  8
EBENE_1
 62
    39
  6
CONTINUOUS
 66
     1
 40
0.003000
 41
0.003000
 70
     1
  0
VERTEX
  8
EBENE_1
 62
    39
  6
CONTINUOUS
 10
-0.139748
 20
-0.932343
  0
VERTEX
  8
EBENE_1
 62
    39
  6
CONTINUOUS
 10
0.171839
 20
-1.443311
  0
VERTEX
  8
EBENE_1
 62
    39
  6
CONTINUOUS
 10
-0.153941
 20
-1.528472
  0
VERTEX
  8
EBENE_1
 62
    39
  6
CONTINUOUS
 10
-0.163565
 20
-1.530209
  0
VERTEX
  8
EBENE_1
 62
    39
  6
CONTINUOUS
 10
-0.173945
 20
-1.531257
  0
VERTEX
  8
EBENE_1
 62
    39
  6
CONTINUOUS
 10
-0.185036
 20
-1.531620
  0
VERTEX
  8
EBENE_1
 62
    39
  6
CONTINUOUS
 10
-0.196796
 20
-1.531302
  0
VERTEX
  8
EBENE_1
 62
    39
  6
CONTINUOUS
 10
-0.209178
 20
-1.530304
  0
VERTEX
  8
EBENE_1
 62
    39
  6
CONTINUOUS
 10
-0.222140
 20
-1.528630
  0
VERTEX
  8
EBENE_1
 62
    39
  6
CONTINUOUS
 10
-0.235637
 20
-1.526284
  0
VERTEX
  8
EBENE_1
 62
    39
  6
CONTINUOUS
 10
-0.249624
 20
-1.523266
  0
VERTEX
  8
EBENE_1
 62
    39
  6
CONTINUOUS
 10
-0.264057
 20
-1.519582
  0
VERTEX
  8
EBENE_1
 62
    39
  6
CONTINUOUS
 10
-0.278892
 20
-1.515234
  0
VERTEX
  8
EBENE_1
 62
    39
  6
CONTINUOUS
 10
-0.294085
 20
-1.510224
  0
VERTEX
  8
EBENE_1
 62
    39
  6
CONTINUOUS
 10
-0.309592
 20
-1.504555
  0
VERTEX
  8
EBENE_1
 62
    39
  6
CONTINUOUS
 10
-0.325367
 20
-1.498232
  0
VERTEX
  8
EBENE_1
 62
    39
  6
CONTINUOUS
 10
-0.341368
 20
-1.491256
  0
VERTEX
  8
EBENE_1
 62
    39
  6
CONTINUOUS
 10
-0.357549
 20
-1.483630
  0
VERTEX
  8
EBENE_1
 62
    39
  6
CONTINUOUS
 10
-0.373866
 20
-1.475358
  0
VERTEX
  8
EBENE_1
 62
    39
  6
CONTINUOUS
 10
-0.390276
 20
-1.466442
  0
VERTEX
  8
EBENE_1
 62
    39
  6
CONTINUOUS
 10
-0.406733
 20
-1.456886
  0
VERTEX
  8
EBENE_1
 62
    39
  6
CONTINUOUS
 10
-0.423194
 20
-1.446692
  0
VERTEX
  8
EBENE_1
 62
    39
  6
CONTINUOUS
 10
-0.439615
 20
-1.435863
  0
VERTEX
  8
EBENE_1
 62
    39
  6
CONTINUOUS
 10
-0.455950
 20
-1.424403
  0
VERTEX
  8
EBENE_1
 62
    39
  6
CONTINUOUS
 10
-0.472156
 20
-1.412314
  0
VERTEX
  8
EBENE_1
 62
    39
  6
CONTINUOUS
 10
-0.488189
 20
-1.399599
  0
VERTEX
  8
EBENE_1
 62
    39
  6
CONTINUOUS
 10
-0.504003
 20
-1.386261
  0
VERTEX
  8
EBENE_1
 62
    39
  6
CONTINUOUS
 10
-0.519556
 20
-1.372303
  0
VERTEX
  8
EBENE_1
 62
    39
  6
CONTINUOUS
 10
-0.534802
 20
-1.357728
  0
VERTEX
  8
EBENE_1
 62
    39
  6
CONTINUOUS
 10
-0.549698
 20
-1.342539
  0
VERTEX
  8
EBENE_1
 62
    39
  6
CONTINUOUS
 10
-0.564199
 20
-1.326739
  0
VERTEX
  8
EBENE_1
 62
    39
  6
CONTINUOUS
 10
-0.578261
 20
-1.310331
  0
VERTEX
  8
EBENE_1
 62
    39
  6
CONTINUOUS
 10
-0.591839
 20
-1.293318
  0
VERTEX
  8
EBENE_1
 62
    39
  6
CONTINUOUS
 10
-0.604890
 20
-1.275703
  0
VERTEX
  8
EBENE_1
 62
    39
  6
CONTINUOUS
 10
-0.617369
 20
-1.257489
  0
VERTEX
  8
EBENE_1
 62
    39
  6
CONTINUOUS
 10
-0.629231
 20
-1.238678
  0
VERTEX
  8
EBENE_1
 62
    39
  6
CONTINUOUS
 10
-0.640434
 20
-1.219274
  0
VERTEX
  8
EBENE_1
 62
    39
  6
CONTINUOUS
 10
-0.650931
 20
-1.199279
  0
VERTEX
  8
EBENE_1
 62
    39
  6
CONTINUOUS
 10
-0.660679
 20
-1.178697
  0
VERTEX
  8
EBENE_1
 62
    39
  6
CONTINUOUS
 10
-0.669634
 20
-1.157531
  0
VERTEX
  8
EBENE_1
 62
    39
  6
CONTINUOUS
 10
-0.677752
 20
-1.135783
  0
VERTEX
  8
EBENE_1
 62
    39
  6
CONTINUOUS
 10
-0.677752
 20
-1.135783
  0
VERTEX
  8
EBENE_1
 62
    39
  6
CONTINUOUS
 10
-0.681499
 20
-1.110114
  0
VERTEX
  8
EBENE_1
 62
    39
  6
CONTINUOUS
 10
-0.682525
 20
-1.085905
  0
VERTEX
  8
EBENE_1
 62
    39
  6
CONTINUOUS
 10
-0.680992
 20
-1.063273
  0
VERTEX
  8
EBENE_1
 62
    39
  6
CONTINUOUS
 10
-0.677061
 20
-1.042338
  0
VERTEX
  8
EBENE_1
 62
    39
  6
CONTINUOUS
 10
-0.670893
 20
-1.023219
  0
VERTEX
  8
EBENE_1
 62
    39
  6
CONTINUOUS
 10
-0.662651
 20
-1.006035
  0
VERTEX
  8
EBENE_1
 62
    39
  6
CONTINUOUS
 10
-0.652495
 20
-0.990904
  0
VERTEX
  8
EBENE_1
 62
    39
  6
CONTINUOUS
 10
-0.640587
 20
-0.977945
  0
VERTEX
  8
EBENE_1
 62
    39
  6
CONTINUOUS
 10
-0.627089
 20
-0.967278
  0
VERTEX
  8
EBENE_1
 62
    39
  6
CONTINUOUS
 10
-0.612163
 20
-0.959020
  0
VERTEX
  8
EBENE_1
 62
    39
  6
CONTINUOUS
 10
-0.595969
 20
-0.953291
  0
VERTEX
  8
EBENE_1
 62
    39
  6
CONTINUOUS
 10
-0.595969
 20
-0.953291
  0
VERTEX
  8
EBENE_1
 62
    39
  6
CONTINUOUS
 10
-0.255996
 20
-0.862047
  0
VERTEX
  8
EBENE_1
 62
    39
  6
CONTINUOUS
 10
-0.231984
 20
-0.857761
  0
VERTEX
  8
EBENE_1
 62
    39
  6
CONTINUOUS
 10
-0.213290
 20
-0.858692
  0
VERTEX
  8
EBENE_1
 62
    39
  6
CONTINUOUS
 10
-0.198824
 20
-0.863901
  0
VERTEX
  8
EBENE_1
 62
    39
  6
CONTINUOUS
 10
-0.187494
 20
-0.872448
  0
VERTEX
  8
EBENE_1
 62
    39
  6
CONTINUOUS
 10
-0.178212
 20
-0.883392
  0
VERTEX
  8
EBENE_1
 62
    39
  6
CONTINUOUS
 10
-0.169886
 20
-0.895793
  0
VERTEX
  8
EBENE_1
 62
    39
  6
CONTINUOUS
 10
-0.161427
 20
-0.908712
  0
VERTEX
  8
EBENE_1
 62
    39
  6
CONTINUOUS
 10
-0.151745
 20
-0.921209
  0
SEQEND
  8
0
  0
POLYLINE
  8
EBENE_1
 62
    39
  6
CONTINUOUS
 66
     1
 40
0.003000
 41
0.003000
  0
VERTEX
  8
EBENE_1
 62
    39
  6
CONTINUOUS
 10
-0.416181
 20
-0.955996
  0
VERTEX
  8
EBENE_1
 62
    39
  6
CONTINUOUS
 10
-0.410674
 20
-0.954369
  0
VERTEX
  8
EBENE_1
 62
    39
  6
CONTINUOUS
 10
-0.406818
 20
-0.950190
  0
VERTEX
  8
EBENE_1
 62
    39
  6
CONTINUOUS
 10
-0.405366
 20
-0.944508
  0
SEQEND
  8
0
  0
POLYLINE
  8
EBENE_1
 62
    39
  6
CONTINUOUS
 66
     1
 40
0.003000
 41
0.003000
  0
VERTEX
  8
EBENE_1
 62
    39
  6
CONTINUOUS
 10
-0.405366
 20
-0.944508
  0
VERTEX
  8
EBENE_1
 62
    39
  6
CONTINUOUS
 10
-0.406818
 20
-0.938524
  0
VERTEX
  8
EBENE_1
 62
    39
  6
CONTINUOUS
 10
-0.410674
 20
-0.934493
  0
VERTEX
  8
EBENE_1
 62
    39
  6
CONTINUOUS
 10
-0.416181
 20
-0.933016
  0
SEQEND
  8
0
  0
POLYLINE
  8
EBENE_1
 62
    39
  6
CONTINUOUS
 66
     1
 40
0.003000
 41
0.003000
  0
VERTEX
  8
EBENE_1
 62
    39
  6
CONTINUOUS
 10
-0.416181
 20
-0.933016
  0
VERTEX
  8
EBENE_1
 62
    39
  6
CONTINUOUS
 10
-0.422165
 20
-0.934493
  0
VERTEX
  8
EBENE_1
 62
    39
  6
CONTINUOUS
 10
-0.426196
 20
-0.938524
  0
VERTEX
  8
EBENE_1
 62
    39
  6
CONTINUOUS
 10
-0.427673
 20
-0.944508
  0
SEQEND
  8
0
  0
POLYLINE
  8
EBENE_1
 62
    39
  6
CONTINUOUS
 66
     1
 40
0.003000
 41
0.003000
  0
VERTEX
  8
EBENE_1
 62
    39
  6
CONTINUOUS
 10
-0.427673
 20
-0.944508
  0
VERTEX
  8
EBENE_1
 62
    39
  6
CONTINUOUS
 10
-0.426196
 20
-0.950190
  0
VERTEX
  8
EBENE_1
 62
    39
  6
CONTINUOUS
 10
-0.422165
 20
-0.954369
  0
VERTEX
  8
EBENE_1
 62
    39
  6
CONTINUOUS
 10
-0.416181
 20
-0.955996
  0
SEQEND
  8
0
  0
POLYLINE
  8
EBENE_1
 62
    39
  6
CONTINUOUS
 66
     1
 40
0.003000
 41
0.003000
  0
VERTEX
  8
EBENE_1
 62
    39
  6
CONTINUOUS
 10
-0.295197
 20
-0.929638
  0
VERTEX
  8
EBENE_1
 62
    39
  6
CONTINUOUS
 10
-0.289216
 20
-0.928011
  0
VERTEX
  8
EBENE_1
 62
    39
  6
CONTINUOUS
 10
-0.285186
 20
-0.923830
  0
VERTEX
  8
EBENE_1
 62
    39
  6
CONTINUOUS
 10
-0.283709
 20
-0.918146
  0
SEQEND
  8
0
  0
POLYLINE
  8
EBENE_1
 62
    39
  6
CONTINUOUS
 66
     1
 40
0.003000
 41
0.003000
  0
VERTEX
  8
EBENE_1
 62
    39
  6
CONTINUOUS
 10
-0.283709
 20
-0.918146
  0
VERTEX
  8
EBENE_1
 62
    39
  6
CONTINUOUS
 10
-0.285186
 20
-0.912464
  0
VERTEX
  8
EBENE_1
 62
    39
  6
CONTINUOUS
 10
-0.289216
 20
-0.908284
  0
VERTEX
  8
EBENE_1
 62
    39
  6
CONTINUOUS
 10
-0.295197
 20
-0.906657
  0
SEQEND
  8
0
  0
POLYLINE
  8
EBENE_1
 62
    39
  6
CONTINUOUS
 66
     1
 40
0.003000
 41
0.003000
  0
VERTEX
  8
EBENE_1
 62
    39
  6
CONTINUOUS
 10
-0.295197
 20
-0.906657
  0
VERTEX
  8
EBENE_1
 62
    39
  6
CONTINUOUS
 10
-0.300880
 20
-0.908284
  0
VERTEX
  8
EBENE_1
 62
    39
  6
CONTINUOUS
 10
-0.305061
 20
-0.912464
  0
VERTEX
  8
EBENE_1
 62
    39
  6
CONTINUOUS
 10
-0.306689
 20
-0.918146
  0
SEQEND
  8
0
  0
POLYLINE
  8
EBENE_1
 62
    39
  6
CONTINUOUS
 66
     1
 40
0.003000
 41
0.003000
  0
VERTEX
  8
EBENE_1
 62
    39
  6
CONTINUOUS
 10
-0.306689
 20
-0.918146
  0
VERTEX
  8
EBENE_1
 62
    39
  6
CONTINUOUS
 10
-0.305061
 20
-0.923830
  0
VERTEX
  8
EBENE_1
 62
    39
  6
CONTINUOUS
 10
-0.300880
 20
-0.928011
  0
VERTEX
  8
EBENE_1
 62
    39
  6
CONTINUOUS
 10
-0.295197
 20
-0.929638
  0
SEQEND
  8
0
  0
POLYLINE
  8
EBENE_1
 62
    39
  6
CONTINUOUS
 66
     1
 40
0.003000
 41
0.003000
  0
VERTEX
  8
EBENE_1
 62
    39
  6
CONTINUOUS
 10
-0.176244
 20
-0.975598
  0
VERTEX
  8
EBENE_1
 62
    39
  6
CONTINUOUS
 10
-0.170562
 20
-0.973971
  0
VERTEX
  8
EBENE_1
 62
    39
  6
CONTINUOUS
 10
-0.166383
 20
-0.969790
  0
VERTEX
  8
EBENE_1
 62
    39
  6
CONTINUOUS
 10
-0.164756
 20
-0.964110
  0
SEQEND
  8
0
  0
POLYLINE
  8
EBENE_1
 62
    39
  6
CONTINUOUS
 66
     1
 40
0.003000
 41
0.003000
  0
VERTEX
  8
EBENE_1
 62
    39
  6
CONTINUOUS
 10
-0.164756
 20
-0.964110
  0
VERTEX
  8
EBENE_1
 62
    39
  6
CONTINUOUS
 10
-0.166383
 20
-0.958126
  0
VERTEX
  8
EBENE_1
 62
    39
  6
CONTINUOUS
 10
-0.170562
 20
-0.954095
  0
VERTEX
  8
EBENE_1
 62
    39
  6
CONTINUOUS
 10
-0.176244
 20
-0.952618
  0
SEQEND
  8
0
  0
POLYLINE
  8
EBENE_1
 62
    39
  6
CONTINUOUS
 66
     1
 40
0.003000
 41
0.003000
  0
VERTEX
  8
EBENE_1
 62
    39
  6
CONTINUOUS
 10
-0.176244
 20
-0.952618
  0
VERTEX
  8
EBENE_1
 62
    39
  6
CONTINUOUS
 10
-0.181924
 20
-0.954095
  0
VERTEX
  8
EBENE_1
 62
    39
  6
CONTINUOUS
 10
-0.186105
 20
-0.958126
  0
VERTEX
  8
EBENE_1
 62
    39
  6
CONTINUOUS
 10
-0.187732
 20
-0.964110
  0
SEQEND
  8
0
  0
POLYLINE
  8
EBENE_1
 62
    39
  6
CONTINUOUS
 66
     1
 40
0.003000
 41
0.003000
  0
VERTEX
  8
EBENE_1
 62
    39
  6
CONTINUOUS
 10
-0.187732
 20
-0.964110
  0
VERTEX
  8
EBENE_1
 62
    39
  6
CONTINUOUS
 10
-0.186105
 20
-0.969790
  0
VERTEX
  8
EBENE_1
 62
    39
  6
CONTINUOUS
 10
-0.181924
 20
-0.973971
  0
VERTEX
  8
EBENE_1
 62
    39
  6
CONTINUOUS
 10
-0.176244
 20
-0.975598
  0
SEQEND
  8
0
  0
POLYLINE
  8
EBENE_1
 62
    39
  6
CONTINUOUS
 66
     1
 40
0.003000
 41
0.003000
  0
VERTEX
  8
EBENE_1
 62
    39
  6
CONTINUOUS
 10
-0.668287
 20
-0.541000
  0
VERTEX
  8
EBENE_1
 62
    39
  6
CONTINUOUS
 10
-0.351295
 20
-1.061437
  0
VERTEX
  8
EBENE_1
 62
    39
  6
CONTINUOUS
 10
-0.683157
 20
-1.147272
  0
SEQEND
  8
0
  0
POLYLINE
  8
EBENE_1
 62
    39
  6
CONTINUOUS
 66
     1
 40
0.003000
 41
0.003000
  0
VERTEX
  8
EBENE_1
 62
    39
  6
CONTINUOUS
 10
-0.683157
 20
-1.147272
  0
VERTEX
  8
EBENE_1
 62
    39
  6
CONTINUOUS
 10
-0.692947
 20
-1.149056
  0
VERTEX
  8
EBENE_1
 62
    39
  6
CONTINUOUS
 10
-0.703504
 20
-1.150141
  0
VERTEX
  8
EBENE_1
 62
    39
  6
CONTINUOUS
 10
-0.714782
 20
-1.150529
  0
VERTEX
  8
EBENE_1
 62
    39
  6
CONTINUOUS
 10
-0.726737
 20
-1.150224
  0
VERTEX
  8
EBENE_1
 62
    39
  6
CONTINUOUS
 10
-0.739325
 20
-1.149229
  0
VERTEX
  8
EBENE_1
 62
    39
  6
CONTINUOUS
 10
-0.752500
 20
-1.147545
  0
VERTEX
  8
EBENE_1
 62
    39
  6
CONTINUOUS
 10
-0.766217
 20
-1.145177
  0
VERTEX
  8
EBENE_1
 62
    39
  6
CONTINUOUS
 10
-0.780432
 20
-1.142127
  0
VERTEX
  8
EBENE_1
 62
    39
  6
CONTINUOUS
 10
-0.795100
 20
-1.138398
  0
VERTEX
  8
EBENE_1
 62
    39
  6
CONTINUOUS
 10
-0.810175
 20
-1.133993
  0
VERTEX
  8
EBENE_1
 62
    39
  6
CONTINUOUS
 10
-0.825614
 20
-1.128915
  0
VERTEX
  8
EBENE_1
 62
    39
  6
CONTINUOUS
 10
-0.841370
 20
-1.123166
  0
VERTEX
  8
EBENE_1
 62
    39
  6
CONTINUOUS
 10
-0.857400
 20
-1.116749
  0
VERTEX
  8
EBENE_1
 62
    39
  6
CONTINUOUS
 10
-0.873659
 20
-1.109668
  0
VERTEX
  8
EBENE_1
 62
    39
  6
CONTINUOUS
 10
-0.890101
 20
-1.101925
  0
VERTEX
  8
EBENE_1
 62
    39
  6
CONTINUOUS
 10
-0.906682
 20
-1.093523
  0
VERTEX
  8
EBENE_1
 62
    39
  6
CONTINUOUS
 10
-0.923356
 20
-1.084466
  0
VERTEX
  8
EBENE_1
 62
    39
  6
CONTINUOUS
 10
-0.940080
 20
-1.074755
  0
VERTEX
  8
EBENE_1
 62
    39
  6
CONTINUOUS
 10
-0.956808
 20
-1.064394
  0
VERTEX
  8
EBENE_1
 62
    39
  6
CONTINUOUS
 10
-0.973495
 20
-1.053385
  0
VERTEX
  8
EBENE_1
 62
    39
  6
CONTINUOUS
 10
-0.990096
 20
-1.041732
  0
VERTEX
  8
EBENE_1
 62
    39
  6
CONTINUOUS
 10
-1.006567
 20
-1.029438
  0
VERTEX
  8
EBENE_1
 62
    39
  6
CONTINUOUS
 10
-1.022863
 20
-1.016505
  0
VERTEX
  8
EBENE_1
 62
    39
  6
CONTINUOUS
 10
-1.038938
 20
-1.002936
  0
VERTEX
  8
EBENE_1
 62
    39
  6
CONTINUOUS
 10
-1.054749
 20
-0.988734
  0
VERTEX
  8
EBENE_1
 62
    39
  6
CONTINUOUS
 10
-1.070249
 20
-0.973902
  0
VERTEX
  8
EBENE_1
 62
    39
  6
CONTINUOUS
 10
-1.085395
 20
-0.958443
  0
VERTEX
  8
EBENE_1
 62
    39
  6
CONTINUOUS
 10
-1.100141
 20
-0.942359
  0
VERTEX
  8
EBENE_1
 62
    39
  6
CONTINUOUS
 10
-1.114443
 20
-0.925654
  0
VERTEX
  8
EBENE_1
 62
    39
  6
CONTINUOUS
 10
-1.128256
 20
-0.908331
  0
VERTEX
  8
EBENE_1
 62
    39
  6
CONTINUOUS
 10
-1.141534
 20
-0.890392
  0
VERTEX
  8
EBENE_1
 62
    39
  6
CONTINUOUS
 10
-1.154233
 20
-0.871840
  0
VERTEX
  8
EBENE_1
 62
    39
  6
CONTINUOUS
 10
-1.166308
 20
-0.852678
  0
VERTEX
  8
EBENE_1
 62
    39
  6
CONTINUOUS
 10
-1.177715
 20
-0.832910
  0
VERTEX
  8
EBENE_1
 62
    39
  6
CONTINUOUS
 10
-1.188408
 20
-0.812537
  0
VERTEX
  8
EBENE_1
 62
    39
  6
CONTINUOUS
 10
-1.198342
 20
-0.791563
  0
VERTEX
  8
EBENE_1
 62
    39
  6
CONTINUOUS
 10
-1.207473
 20
-0.769991
  0
VERTEX
  8
EBENE_1
 62
    39
  6
CONTINUOUS
 10
-1.215756
 20
-0.747823
  0
SEQEND
  8
0
  0
POLYLINE
  8
EBENE_1
 62
    39
  6
CONTINUOUS
 66
     1
 40
0.003000
 41
0.003000
  0
VERTEX
  8
EBENE_1
 62
    39
  6
CONTINUOUS
 10
-1.215756
 20
-0.747823
  0
VERTEX
  8
EBENE_1
 62
    39
  6
CONTINUOUS
 10
-1.219639
 20
-0.721786
  0
VERTEX
  8
EBENE_1
 62
    39
  6
CONTINUOUS
 10
-1.220714
 20
-0.697214
  0
VERTEX
  8
EBENE_1
 62
    39
  6
CONTINUOUS
 10
-1.219152
 20
-0.674233
  0
VERTEX
  8
EBENE_1
 62
    39
  6
CONTINUOUS
 10
-1.215129
 20
-0.652967
  0
VERTEX
  8
EBENE_1
 62
    39
  6
CONTINUOUS
 10
-1.208817
 20
-0.633541
  0
VERTEX
  8
EBENE_1
 62
    39
  6
CONTINUOUS
 10
-1.200391
 20
-0.616081
  0
VERTEX
  8
EBENE_1
 62
    39
  6
CONTINUOUS
 10
-1.190024
 20
-0.600711
  0
VERTEX
  8
EBENE_1
 62
    39
  6
CONTINUOUS
 10
-1.177890
 20
-0.587556
  0
VERTEX
  8
EBENE_1
 62
    39
  6
CONTINUOUS
 10
-1.164163
 20
-0.576740
  0
VERTEX
  8
EBENE_1
 62
    39
  6
CONTINUOUS
 10
-1.149015
 20
-0.568390
  0
VERTEX
  8
EBENE_1
 62
    39
  6
CONTINUOUS
 10
-1.132622
 20
-0.562630
  0
SEQEND
  8
0
  0
POLYLINE
  8
EBENE_1
 62
    39
  6
CONTINUOUS
 66
     1
 40
0.003000
 41
0.003000
  0
VERTEX
  8
EBENE_1
 62
    39
  6
CONTINUOUS
 10
-1.132622
 20
-0.562630
  0
VERTEX
  8
EBENE_1
 62
    39
  6
CONTINUOUS
 10
-0.787244
 20
-0.470031
  0
SEQEND
  8
0
  0
POLYLINE
  8
EBENE_1
 62
    39
  6
CONTINUOUS
 66
     1
 40
0.003000
 41
0.003000
  0
VERTEX
  8
EBENE_1
 62
    39
  6
CONTINUOUS
 10
-0.787244
 20
-0.470031
  0
VERTEX
  8
EBENE_1
 62
    39
  6
CONTINUOUS
 10
-0.762827
 20
-0.465590
  0
VERTEX
  8
EBENE_1
 62
    39
  6
CONTINUOUS
 10
-0.743806
 20
-0.466489
  0
VERTEX
  8
EBENE_1
 62
    39
  6
CONTINUOUS
 10
-0.729068
 20
-0.471760
  0
VERTEX
  8
EBENE_1
 62
    39
  6
CONTINUOUS
 10
-0.717501
 20
-0.480435
  0
VERTEX
  8
EBENE_1
 62
    39
  6
CONTINUOUS
 10
-0.707992
 20
-0.491547
  0
VERTEX
  8
EBENE_1
 62
    39
  6
CONTINUOUS
 10
-0.699429
 20
-0.504127
  0
VERTEX
  8
EBENE_1
 62
    39
  6
CONTINUOUS
 10
-0.690699
 20
-0.517208
  0
VERTEX
  8
EBENE_1
 62
    39
  6
CONTINUOUS
 10
-0.680689
 20
-0.529822
  0
VERTEX
  8
EBENE_1
 62
    39
  6
CONTINUOUS
 10
-0.668287
 20
-0.541000
  0
SEQEND
  8
0
  0
POLYLINE
  8
EBENE_1
 62
    39
  6
CONTINUOUS
 66
     1
 40
0.003000
 41
0.003000
 70
     1
  0
VERTEX
  8
EBENE_1
 62
    39
  6
CONTINUOUS
 10
-0.668287
 20
-0.543705
  0
VERTEX
  8
EBENE_1
 62
    39
  6
CONTINUOUS
 10
-0.356028
 20
-1.054677
  0
VERTEX
  8
EBENE_1
 62
    39
  6
CONTINUOUS
 10
-0.683157
 20
-1.139839
  0
VERTEX
  8
EBENE_1
 62
    39
  6
CONTINUOUS
 10
-0.692782
 20
-1.141575
  0
VERTEX
  8
EBENE_1
 62
    39
  6
CONTINUOUS
 10
-0.703162
 20
-1.142623
  0
VERTEX
  8
EBENE_1
 62
    39
  6
CONTINUOUS
 10
-0.714254
 20
-1.142986
  0
VERTEX
  8
EBENE_1
 62
    39
  6
CONTINUOUS
 10
-0.726013
 20
-1.142667
  0
VERTEX
  8
EBENE_1
 62
    39
  6
CONTINUOUS
 10
-0.738396
 20
-1.141669
  0
VERTEX
  8
EBENE_1
 62
    39
  6
CONTINUOUS
 10
-0.751358
 20
-1.139995
  0
VERTEX
  8
EBENE_1
 62
    39
  6
CONTINUOUS
 10
-0.764855
 20
-1.137648
  0
VERTEX
  8
EBENE_1
 62
    39
  6
CONTINUOUS
 10
-0.778842
 20
-1.134631
  0
VERTEX
  8
EBENE_1
 62
    39
  6
CONTINUOUS
 10
-0.793276
 20
-1.130946
  0
VERTEX
  8
EBENE_1
 62
    39
  6
CONTINUOUS
 10
-0.808111
 20
-1.126597
  0
VERTEX
  8
EBENE_1
 62
    39
  6
CONTINUOUS
 10
-0.823304
 20
-1.121587
  0
VERTEX
  8
EBENE_1
 62
    39
  6
CONTINUOUS
 10
-0.838811
 20
-1.115919
  0
VERTEX
  8
EBENE_1
 62
    39
  6
CONTINUOUS
 10
-0.854587
 20
-1.109595
  0
VERTEX
  8
EBENE_1
 62
    39
  6
CONTINUOUS
 10
-0.870587
 20
-1.102619
  0
VERTEX
  8
EBENE_1
 62
    39
  6
CONTINUOUS
 10
-0.886768
 20
-1.094993
  0
VERTEX
  8
EBENE_1
 62
    39
  6
CONTINUOUS
 10
-0.903086
 20
-1.086721
  0
VERTEX
  8
EBENE_1
 62
    39
  6
CONTINUOUS
 10
-0.919496
 20
-1.077805
  0
VERTEX
  8
EBENE_1
 62
    39
  6
CONTINUOUS
 10
-0.935953
 20
-1.068249
  0
VERTEX
  8
EBENE_1
 62
    39
  6
CONTINUOUS
 10
-0.952414
 20
-1.058055
  0
VERTEX
  8
EBENE_1
 62
    39
  6
CONTINUOUS
 10
-0.968835
 20
-1.047226
  0
VERTEX
  8
EBENE_1
 62
    39
  6
CONTINUOUS
 10
-0.985170
 20
-1.035765
  0
VERTEX
  8
EBENE_1
 62
    39
  6
CONTINUOUS
 10
-1.001376
 20
-1.023676
  0
VERTEX
  8
EBENE_1
 62
    39
  6
CONTINUOUS
 10
-1.017409
 20
-1.010961
  0
VERTEX
  8
EBENE_1
 62
    39
  6
CONTINUOUS
 10
-1.033224
 20
-0.997623
  0
VERTEX
  8
EBENE_1
 62
    39
  6
CONTINUOUS
 10
-1.048776
 20
-0.983665
  0
VERTEX
  8
EBENE_1
 62
    39
  6
CONTINUOUS
 10
-1.064023
 20
-0.969090
  0
VERTEX
  8
EBENE_1
 62
    39
  6
CONTINUOUS
 10
-1.078919
 20
-0.953902
  0
VERTEX
  8
EBENE_1
 62
    39
  6
CONTINUOUS
 10
-1.093420
 20
-0.938102
  0
VERTEX
  8
EBENE_1
 62
    39
  6
CONTINUOUS
 10
-1.107481
 20
-0.921694
  0
VERTEX
  8
EBENE_1
 62
    39
  6
CONTINUOUS
 10
-1.121060
 20
-0.904681
  0
VERTEX
  8
EBENE_1
 62
    39
  6
CONTINUOUS
 10
-1.134111
 20
-0.887065
  0
VERTEX
  8
EBENE_1
 62
    39
  6
CONTINUOUS
 10
-1.146589
 20
-0.868851
  0
VERTEX
  8
EBENE_1
 62
    39
  6
CONTINUOUS
 10
-1.158452
 20
-0.850040
  0
VERTEX
  8
EBENE_1
 62
    39
  6
CONTINUOUS
 10
-1.169654
 20
-0.830636
  0
VERTEX
  8
EBENE_1
 62
    39
  6
CONTINUOUS
 10
-1.180151
 20
-0.810642
  0
VERTEX
  8
EBENE_1
 62
    39
  6
CONTINUOUS
 10
-1.189900
 20
-0.790060
  0
VERTEX
  8
EBENE_1
 62
    39
  6
CONTINUOUS
 10
-1.198855
 20
-0.768893
  0
VERTEX
  8
EBENE_1
 62
    39
  6
CONTINUOUS
 10
-1.206972
 20
-0.747146
  0
VERTEX
  8
EBENE_1
 62
    39
  6
CONTINUOUS
 10
-1.206972
 20
-0.747146
  0
VERTEX
  8
EBENE_1
 62
    39
  6
CONTINUOUS
 10
-1.210703
 20
-0.721477
  0
VERTEX
  8
EBENE_1
 62
    39
  6
CONTINUOUS
 10
-1.211690
 20
-0.697267
  0
VERTEX
  8
EBENE_1
 62
    39
  6
CONTINUOUS
 10
-1.210101
 20
-0.674635
  0
VERTEX
  8
EBENE_1
 62
    39
  6
CONTINUOUS
 10
-1.206110
 20
-0.653701
  0
VERTEX
  8
EBENE_1
 62
    39
  6
CONTINUOUS
 10
-1.199884
 20
-0.634582
  0
VERTEX
  8
EBENE_1
 62
    39
  6
CONTINUOUS
 10
-1.191597
 20
-0.617398
  0
VERTEX
  8
EBENE_1
 62
    39
  6
CONTINUOUS
 10
-1.181417
 20
-0.602267
  0
VERTEX
  8
EBENE_1
 62
    39
  6
CONTINUOUS
 10
-1.169516
 20
-0.589309
  0
VERTEX
  8
EBENE_1
 62
    39
  6
CONTINUOUS
 10
-1.156064
 20
-0.578642
  0
VERTEX
  8
EBENE_1
 62
    39
  6
CONTINUOUS
 10
-1.141231
 20
-0.570385
  0
VERTEX
  8
EBENE_1
 62
    39
  6
CONTINUOUS
 10
-1.125189
 20
-0.564657
  0
VERTEX
  8
EBENE_1
 62
    39
  6
CONTINUOUS
 10
-0.785217
 20
-0.473413
  0
VERTEX
  8
EBENE_1
 62
    39
  6
CONTINUOUS
 10
-0.761203
 20
-0.469126
  0
VERTEX
  8
EBENE_1
 62
    39
  6
CONTINUOUS
 10
-0.742501
 20
-0.470057
  0
VERTEX
  8
EBENE_1
 62
    39
  6
CONTINUOUS
 10
-0.728016
 20
-0.475265
  0
VERTEX
  8
EBENE_1
 62
    39
  6
CONTINUOUS
 10
-0.716652
 20
-0.483812
  0
VERTEX
  8
EBENE_1
 62
    39
  6
CONTINUOUS
 10
-0.707313
 20
-0.494756
  0
VERTEX
  8
EBENE_1
 62
    39
  6
CONTINUOUS
 10
-0.698902
 20
-0.507157
  0
VERTEX
  8
EBENE_1
 62
    39
  6
CONTINUOUS
 10
-0.690325
 20
-0.520076
  0
VERTEX
  8
EBENE_1
 62
    39
  6
CONTINUOUS
 10
-0.680486
 20
-0.532572
  0
SEQEND
  8
0
  0
POLYLINE
  8
EBENE_1
 62
    39
  6
CONTINUOUS
 66
     1
 40
0.003000
 41
0.003000
  0
VERTEX
  8
EBENE_1
 62
    39
  6
CONTINUOUS
 10
-0.945402
 20
-0.567362
  0
VERTEX
  8
EBENE_1
 62
    39
  6
CONTINUOUS
 10
-0.939720
 20
-0.565734
  0
VERTEX
  8
EBENE_1
 62
    39
  6
CONTINUOUS
 10
-0.935540
 20
-0.561553
  0
VERTEX
  8
EBENE_1
 62
    39
  6
CONTINUOUS
 10
-0.933913
 20
-0.555870
  0
SEQEND
  8
0
  0
POLYLINE
  8
EBENE_1
 62
    39
  6
CONTINUOUS
 66
     1
 40
0.003000
 41
0.003000
  0
VERTEX
  8
EBENE_1
 62
    39
  6
CONTINUOUS
 10
-0.933913
 20
-0.555870
  0
VERTEX
  8
EBENE_1
 62
    39
  6
CONTINUOUS
 10
-0.935540
 20
-0.549889
  0
VERTEX
  8
EBENE_1
 62
    39
  6
CONTINUOUS
 10
-0.939720
 20
-0.545859
  0
VERTEX
  8
EBENE_1
 62
    39
  6
CONTINUOUS
 10
-0.945402
 20
-0.544382
  0
SEQEND
  8
0
  0
POLYLINE
  8
EBENE_1
 62
    39
  6
CONTINUOUS
 66
     1
 40
0.003000
 41
0.003000
  0
VERTEX
  8
EBENE_1
 62
    39
  6
CONTINUOUS
 10
-0.945402
 20
-0.544382
  0
VERTEX
  8
EBENE_1
 62
    39
  6
CONTINUOUS
 10
-0.951084
 20
-0.545859
  0
VERTEX
  8
EBENE_1
 62
    39
  6
CONTINUOUS
 10
-0.955266
 20
-0.549889
  0
VERTEX
  8
EBENE_1
 62
    39
  6
CONTINUOUS
 10
-0.956894
 20
-0.555870
  0
SEQEND
  8
0
  0
POLYLINE
  8
EBENE_1
 62
    39
  6
CONTINUOUS
 66
     1
 40
0.003000
 41
0.003000
  0
VERTEX
  8
EBENE_1
 62
    39
  6
CONTINUOUS
 10
-0.956894
 20
-0.555870
  0
VERTEX
  8
EBENE_1
 62
    39
  6
CONTINUOUS
 10
-0.955266
 20
-0.561553
  0
VERTEX
  8
EBENE_1
 62
    39
  6
CONTINUOUS
 10
-0.951084
 20
-0.565734
  0
VERTEX
  8
EBENE_1
 62
    39
  6
CONTINUOUS
 10
-0.945402
 20
-0.567362
  0
SEQEND
  8
0
  0
POLYLINE
  8
EBENE_1
 62
    39
  6
CONTINUOUS
 66
     1
 40
0.003000
 41
0.003000
  0
VERTEX
  8
EBENE_1
 62
    39
  6
CONTINUOUS
 10
-0.824417
 20
-0.541000
  0
VERTEX
  8
EBENE_1
 62
    39
  6
CONTINUOUS
 10
-0.818435
 20
-0.539373
  0
VERTEX
  8
EBENE_1
 62
    39
  6
CONTINUOUS
 10
-0.814405
 20
-0.535194
  0
VERTEX
  8
EBENE_1
 62
    39
  6
CONTINUOUS
 10
-0.812929
 20
-0.529512
  0
SEQEND
  8
0
  0
POLYLINE
  8
EBENE_1
 62
    39
  6
CONTINUOUS
 66
     1
 40
0.003000
 41
0.003000
  0
VERTEX
  8
EBENE_1
 62
    39
  6
CONTINUOUS
 10
-0.812929
 20
-0.529512
  0
VERTEX
  8
EBENE_1
 62
    39
  6
CONTINUOUS
 10
-0.814405
 20
-0.523830
  0
VERTEX
  8
EBENE_1
 62
    39
  6
CONTINUOUS
 10
-0.818435
 20
-0.519650
  0
VERTEX
  8
EBENE_1
 62
    39
  6
CONTINUOUS
 10
-0.824417
 20
-0.518024
  0
SEQEND
  8
0
  0
POLYLINE
  8
EBENE_1
 62
    39
  6
CONTINUOUS
 66
     1
 40
0.003000
 41
0.003000
  0
VERTEX
  8
EBENE_1
 62
    39
  6
CONTINUOUS
 10
-0.824417
 20
-0.518024
  0
VERTEX
  8
EBENE_1
 62
    39
  6
CONTINUOUS
 10
-0.829925
 20
-0.519650
  0
VERTEX
  8
EBENE_1
 62
    39
  6
CONTINUOUS
 10
-0.833780
 20
-0.523830
  0
VERTEX
  8
EBENE_1
 62
    39
  6
CONTINUOUS
 10
-0.835232
 20
-0.529512
  0
SEQEND
  8
0
  0
POLYLINE
  8
EBENE_1
 62
    39
  6
CONTINUOUS
 66
     1
 40
0.003000
 41
0.003000
  0
VERTEX
  8
EBENE_1
 62
    39
  6
CONTINUOUS
 10
-0.835232
 20
-0.529512
  0
VERTEX
  8
EBENE_1
 62
    39
  6
CONTINUOUS
 10
-0.833780
 20
-0.535194
  0
VERTEX
  8
EBENE_1
 62
    39
  6
CONTINUOUS
 10
-0.829925
 20
-0.539373
  0
VERTEX
  8
EBENE_1
 62
    39
  6
CONTINUOUS
 10
-0.824417
 20
-0.541000
  0
SEQEND
  8
0
  0
POLYLINE
  8
EBENE_1
 62
    39
  6
CONTINUOUS
 66
     1
 40
0.003000
 41
0.003000
  0
VERTEX
  8
EBENE_1
 62
    39
  6
CONTINUOUS
 10
-0.705461
 20
-0.586961
  0
VERTEX
  8
EBENE_1
 62
    39
  6
CONTINUOUS
 10
-0.699779
 20
-0.585334
  0
VERTEX
  8
EBENE_1
 62
    39
  6
CONTINUOUS
 10
-0.695599
 20
-0.581154
  0
VERTEX
  8
EBENE_1
 62
    39
  6
CONTINUOUS
 10
-0.693972
 20
-0.575472
  0
SEQEND
  8
0
  0
POLYLINE
  8
EBENE_1
 62
    39
  6
CONTINUOUS
 66
     1
 40
0.003000
 41
0.003000
  0
VERTEX
  8
EBENE_1
 62
    39
  6
CONTINUOUS
 10
-0.693972
 20
-0.575472
  0
VERTEX
  8
EBENE_1
 62
    39
  6
CONTINUOUS
 10
-0.695599
 20
-0.569489
  0
VERTEX
  8
EBENE_1
 62
    39
  6
CONTINUOUS
 10
-0.699779
 20
-0.565458
  0
VERTEX
  8
EBENE_1
 62
    39
  6
CONTINUOUS
 10
-0.705461
 20
-0.563980
  0
SEQEND
  8
0
  0
POLYLINE
  8
EBENE_1
 62
    39
  6
CONTINUOUS
 66
     1
 40
0.003000
 41
0.003000
  0
VERTEX
  8
EBENE_1
 62
    39
  6
CONTINUOUS
 10
-0.705461
 20
-0.563980
  0
VERTEX
  8
EBENE_1
 62
    39
  6
CONTINUOUS
 10
-0.711143
 20
-0.565458
  0
VERTEX
  8
EBENE_1
 62
    39
  6
CONTINUOUS
 10
-0.715325
 20
-0.569489
  0
VERTEX
  8
EBENE_1
 62
    39
  6
CONTINUOUS
 10
-0.716953
 20
-0.575472
  0
SEQEND
  8
0
  0
POLYLINE
  8
EBENE_1
 62
    39
  6
CONTINUOUS
 66
     1
 40
0.003000
 41
0.003000
  0
VERTEX
  8
EBENE_1
 62
    39
  6
CONTINUOUS
 10
-0.716953
 20
-0.575472
  0
VERTEX
  8
EBENE_1
 62
    39
  6
CONTINUOUS
 10
-0.715325
 20
-0.581154
  0
VERTEX
  8
EBENE_1
 62
    39
  6
CONTINUOUS
 10
-0.711143
 20
-0.585334
  0
VERTEX
  8
EBENE_1
 62
    39
  6
CONTINUOUS
 10
-0.705461
 20
-0.586961
  0
SEQEND
  8
0
  0
POLYLINE
  8
EBENE_1
 62
    39
  6
CONTINUOUS
 66
     1
 40
0.003000
 41
0.003000
  0
VERTEX
  8
EBENE_1
 62
    39
  6
CONTINUOUS
 10
0.194819
 20
-0.849882
  0
VERTEX
  8
EBENE_1
 62
    39
  6
CONTINUOUS
 10
0.511811
 20
-1.369642
  0
VERTEX
  8
EBENE_1
 62
    39
  6
CONTINUOUS
 10
0.179949
 20
-1.456154
  0
SEQEND
  8
0
  0
POLYLINE
  8
EBENE_1
 62
    39
  6
CONTINUOUS
 66
     1
 40
0.003000
 41
0.003000
  0
VERTEX
  8
EBENE_1
 62
    39
  6
CONTINUOUS
 10
0.179949
 20
-1.456154
  0
VERTEX
  8
EBENE_1
 62
    39
  6
CONTINUOUS
 10
0.170161
 20
-1.457937
  0
VERTEX
  8
EBENE_1
 62
    39
  6
CONTINUOUS
 10
0.159608
 20
-1.459022
  0
VERTEX
  8
EBENE_1
 62
    39
  6
CONTINUOUS
 10
0.148336
 20
-1.459410
  0
VERTEX
  8
EBENE_1
 62
    39
  6
CONTINUOUS
 10
0.136390
 20
-1.459105
  0
VERTEX
  8
EBENE_1
 62
    39
  6
CONTINUOUS
 10
0.123814
 20
-1.458109
  0
VERTEX
  8
EBENE_1
 62
    39
  6
CONTINUOUS
 10
0.110652
 20
-1.456426
  0
VERTEX
  8
EBENE_1
 62
    39
  6
CONTINUOUS
 10
0.096950
 20
-1.454057
  0
VERTEX
  8
EBENE_1
 62
    39
  6
CONTINUOUS
 10
0.082752
 20
-1.451007
  0
VERTEX
  8
EBENE_1
 62
    39
  6
CONTINUOUS
 10
0.068103
 20
-1.447278
  0
VERTEX
  8
EBENE_1
 62
    39
  6
CONTINUOUS
 10
0.053047
 20
-1.442873
  0
VERTEX
  8
EBENE_1
 62
    39
  6
CONTINUOUS
 10
0.037630
 20
-1.437794
  0
VERTEX
  8
EBENE_1
 62
    39
  6
CONTINUOUS
 10
0.021896
 20
-1.432045
  0
VERTEX
  8
EBENE_1
 62
    39
  6
CONTINUOUS
 10
0.005889
 20
-1.425628
  0
VERTEX
  8
EBENE_1
 62
    39
  6
CONTINUOUS
 10
-0.010345
 20
-1.418547
  0
VERTEX
  8
EBENE_1
 62
    39
  6
CONTINUOUS
 10
-0.026761
 20
-1.410804
  0
VERTEX
  8
EBENE_1
 62
    39
  6
CONTINUOUS
 10
-0.043316
 20
-1.402402
  0
VERTEX
  8
EBENE_1
 62
    39
  6
CONTINUOUS
 10
-0.059965
 20
-1.393345
  0
VERTEX
  8
EBENE_1
 62
    39
  6
CONTINUOUS
 10
-0.076662
 20
-1.383634
  0
VERTEX
  8
EBENE_1
 62
    39
  6
CONTINUOUS
 10
-0.093363
 20
-1.373273
  0
VERTEX
  8
EBENE_1
 62
    39
  6
CONTINUOUS
 10
-0.110023
 20
-1.362264
  0
VERTEX
  8
EBENE_1
 62
    39
  6
CONTINUOUS
 10
-0.126598
 20
-1.350611
  0
VERTEX
  8
EBENE_1
 62
    39
  6
CONTINUOUS
 10
-0.143043
 20
-1.338317
  0
VERTEX
  8
EBENE_1
 62
    39
  6
CONTINUOUS
 10
-0.159312
 20
-1.325384
  0
VERTEX
  8
EBENE_1
 62
    39
  6
CONTINUOUS
 10
-0.175363
 20
-1.311815
  0
VERTEX
  8
EBENE_1
 62
    39
  6
CONTINUOUS
 10
-0.191149
 20
-1.297613
  0
VERTEX
  8
EBENE_1
 62
    39
  6
CONTINUOUS
 10
-0.206626
 20
-1.282781
  0
VERTEX
  8
EBENE_1
 62
    39
  6
CONTINUOUS
 10
-0.221749
 20
-1.267322
  0
VERTEX
  8
EBENE_1
 62
    39
  6
CONTINUOUS
 10
-0.236474
 20
-1.251239
  0
VERTEX
  8
EBENE_1
 62
    39
  6
CONTINUOUS
 10
-0.250756
 20
-1.234534
  0
VERTEX
  8
EBENE_1
 62
    39
  6
CONTINUOUS
 10
-0.264549
 20
-1.217211
  0
VERTEX
  8
EBENE_1
 62
    39
  6
CONTINUOUS
 10
-0.277811
 20
-1.199272
  0
VERTEX
  8
EBENE_1
 62
    39
  6
CONTINUOUS
 10
-0.290495
 20
-1.180720
  0
VERTEX
  8
EBENE_1
 62
    39
  6
CONTINUOUS
 10
-0.302557
 20
-1.161559
  0
VERTEX
  8
EBENE_1
 62
    39
  6
CONTINUOUS
 10
-0.313952
 20
-1.141790
  0
VERTEX
  8
EBENE_1
 62
    39
  6
CONTINUOUS
 10
-0.324636
 20
-1.121418
  0
VERTEX
  8
EBENE_1
 62
    39
  6
CONTINUOUS
 10
-0.334564
 20
-1.100444
  0
VERTEX
  8
EBENE_1
 62
    39
  6
CONTINUOUS
 10
-0.343691
 20
-1.078872
  0
VERTEX
  8
EBENE_1
 62
    39
  6
CONTINUOUS
 10
-0.351972
 20
-1.056705
  0
SEQEND
  8
0
  0
POLYLINE
  8
EBENE_1
 62
    39
  6
CONTINUOUS
 66
     1
 40
0.003000
 41
0.003000
  0
VERTEX
  8
EBENE_1
 62
    39
  6
CONTINUOUS
 10
-0.351972
 20
-1.056705
  0
VERTEX
  8
EBENE_1
 62
    39
  6
CONTINUOUS
 10
-0.355855
 20
-1.030667
  0
VERTEX
  8
EBENE_1
 62
    39
  6
CONTINUOUS
 10
-0.356929
 20
-1.006096
  0
VERTEX
  8
EBENE_1
 62
    39
  6
CONTINUOUS
 10
-0.355367
 20
-0.983115
  0
VERTEX
  8
EBENE_1
 62
    39
  6
CONTINUOUS
 10
-0.351344
 20
-0.961849
  0
VERTEX
  8
EBENE_1
 62
    39
  6
CONTINUOUS
 10
-0.345032
 20
-0.942423
  0
VERTEX
  8
EBENE_1
 62
    39
  6
CONTINUOUS
 10
-0.336606
 20
-0.924963
  0
VERTEX
  8
EBENE_1
 62
    39
  6
CONTINUOUS
 10
-0.326240
 20
-0.909593
  0
VERTEX
  8
EBENE_1
 62
    39
  6
CONTINUOUS
 10
-0.314106
 20
-0.896437
  0
VERTEX
  8
EBENE_1
 62
    39
  6
CONTINUOUS
 10
-0.300379
 20
-0.885622
  0
VERTEX
  8
EBENE_1
 62
    39
  6
CONTINUOUS
 10
-0.285232
 20
-0.877272
  0
VERTEX
  8
EBENE_1
 62
    39
  6
CONTINUOUS
 10
-0.268839
 20
-0.871512
  0
SEQEND
  8
0
  0
POLYLINE
  8
EBENE_1
 62
    39
  6
CONTINUOUS
 66
     1
 40
0.003000
 41
0.003000
  0
VERTEX
  8
EBENE_1
 62
    39
  6
CONTINUOUS
 10
-0.268839
 20
-0.871512
  0
VERTEX
  8
EBENE_1
 62
    39
  6
CONTINUOUS
 10
0.075862
 20
-0.778913
  0
SEQEND
  8
0
  0
POLYLINE
  8
EBENE_1
 62
    39
  6
CONTINUOUS
 66
     1
 40
0.003000
 41
0.003000
  0
VERTEX
  8
EBENE_1
 62
    39
  6
CONTINUOUS
 10
0.075862
 20
-0.778913
  0
VERTEX
  8
EBENE_1
 62
    39
  6
CONTINUOUS
 10
0.100279
 20
-0.774472
  0
VERTEX
  8
EBENE_1
 62
    39
  6
CONTINUOUS
 10
0.119300
 20
-0.775371
  0
VERTEX
  8
EBENE_1
 62
    39
  6
CONTINUOUS
 10
0.134038
 20
-0.780642
  0
VERTEX
  8
EBENE_1
 62
    39
  6
CONTINUOUS
 10
0.145605
 20
-0.789317
  0
VERTEX
  8
EBENE_1
 62
    39
  6
CONTINUOUS
 10
0.155114
 20
-0.800429
  0
VERTEX
  8
EBENE_1
 62
    39
  6
CONTINUOUS
 10
0.163677
 20
-0.813009
  0
VERTEX
  8
EBENE_1
 62
    39
  6
CONTINUOUS
 10
0.172408
 20
-0.826090
  0
VERTEX
  8
EBENE_1
 62
    39
  6
CONTINUOUS
 10
0.182417
 20
-0.838704
  0
VERTEX
  8
EBENE_1
 62
    39
  6
CONTINUOUS
 10
0.194819
 20
-0.849882
  0
SEQEND
  8
0
  0
POLYLINE
  8
EBENE_1
 62
    39
  6
CONTINUOUS
 66
     1
 40
0.003000
 41
0.003000
 70
     1
  0
VERTEX
  8
EBENE_1
 62
    39
  6
CONTINUOUS
 10
0.194819
 20
-0.852587
  0
VERTEX
  8
EBENE_1
 62
    39
  6
CONTINUOUS
 10
0.507079
 20
-1.363559
  0
VERTEX
  8
EBENE_1
 62
    39
  6
CONTINUOUS
 10
0.179949
 20
-1.448720
  0
VERTEX
  8
EBENE_1
 62
    39
  6
CONTINUOUS
 10
0.170326
 20
-1.450456
  0
VERTEX
  8
EBENE_1
 62
    39
  6
CONTINUOUS
 10
0.159950
 20
-1.451505
  0
VERTEX
  8
EBENE_1
 62
    39
  6
CONTINUOUS
 10
0.148865
 20
-1.451868
  0
VERTEX
  8
EBENE_1
 62
    39
  6
CONTINUOUS
 10
0.137114
 20
-1.451549
  0
VERTEX
  8
EBENE_1
 62
    39
  6
CONTINUOUS
 10
0.124742
 20
-1.450551
  0
VERTEX
  8
EBENE_1
 62
    39
  6
CONTINUOUS
 10
0.111793
 20
-1.448877
  0
VERTEX
  8
EBENE_1
 62
    39
  6
CONTINUOUS
 10
0.098312
 20
-1.446530
  0
VERTEX
  8
EBENE_1
 62
    39
  6
CONTINUOUS
 10
0.084342
 20
-1.443512
  0
VERTEX
  8
EBENE_1
 62
    39
  6
CONTINUOUS
 10
0.069927
 20
-1.439828
  0
VERTEX
  8
EBENE_1
 62
    39
  6
CONTINUOUS
 10
0.055111
 20
-1.435479
  0
VERTEX
  8
EBENE_1
 62
    39
  6
CONTINUOUS
 10
0.039940
 20
-1.430469
  0
VERTEX
  8
EBENE_1
 62
    39
  6
CONTINUOUS
 10
0.024456
 20
-1.424801
  0
VERTEX
  8
EBENE_1
 62
    39
  6
CONTINUOUS
 10
0.008703
 20
-1.418477
  0
VERTEX
  8
EBENE_1
 62
    39
  6
CONTINUOUS
 10
-0.007273
 20
-1.411501
  0
VERTEX
  8
EBENE_1
 62
    39
  6
CONTINUOUS
 10
-0.023429
 20
-1.403875
  0
VERTEX
  8
EBENE_1
 62
    39
  6
CONTINUOUS
 10
-0.039720
 20
-1.395603
  0
VERTEX
  8
EBENE_1
 62
    39
  6
CONTINUOUS
 10
-0.056104
 20
-1.386687
  0
VERTEX
  8
EBENE_1
 62
    39
  6
CONTINUOUS
 10
-0.072535
 20
-1.377131
  0
VERTEX
  8
EBENE_1
 62
    39
  6
CONTINUOUS
 10
-0.088969
 20
-1.366937
  0
VERTEX
  8
EBENE_1
 62
    39
  6
CONTINUOUS
 10
-0.105363
 20
-1.356108
  0
VERTEX
  8
EBENE_1
 62
    39
  6
CONTINUOUS
 10
-0.121671
 20
-1.344647
  0
VERTEX
  8
EBENE_1
 62
    39
  6
CONTINUOUS
 10
-0.137851
 20
-1.332558
  0
VERTEX
  8
EBENE_1
 62
    39
  6
CONTINUOUS
 10
-0.153858
 20
-1.319843
  0
VERTEX
  8
EBENE_1
 62
    39
  6
CONTINUOUS
 10
-0.169647
 20
-1.306505
  0
VERTEX
  8
EBENE_1
 62
    39
  6
CONTINUOUS
 10
-0.185175
 20
-1.292547
  0
VERTEX
  8
EBENE_1
 62
    39
  6
CONTINUOUS
 10
-0.200398
 20
-1.277972
  0
VERTEX
  8
EBENE_1
 62
    39
  6
CONTINUOUS
 10
-0.215271
 20
-1.262783
  0
VERTEX
  8
EBENE_1
 62
    39
  6
CONTINUOUS
 10
-0.229751
 20
-1.246984
  0
VERTEX
  8
EBENE_1
 62
    39
  6
CONTINUOUS
 10
-0.243792
 20
-1.230576
  0
VERTEX
  8
EBENE_1
 62
    39
  6
CONTINUOUS
 10
-0.257352
 20
-1.213562
  0
VERTEX
  8
EBENE_1
 62
    39
  6
CONTINUOUS
 10
-0.270385
 20
-1.195947
  0
VERTEX
  8
EBENE_1
 62
    39
  6
CONTINUOUS
 10
-0.282849
 20
-1.177733
  0
VERTEX
  8
EBENE_1
 62
    39
  6
CONTINUOUS
 10
-0.294698
 20
-1.158922
  0
VERTEX
  8
EBENE_1
 62
    39
  6
CONTINUOUS
 10
-0.305889
 20
-1.139518
  0
VERTEX
  8
EBENE_1
 62
    39
  6
CONTINUOUS
 10
-0.316377
 20
-1.119523
  0
VERTEX
  8
EBENE_1
 62
    39
  6
CONTINUOUS
 10
-0.326118
 20
-1.098942
  0
VERTEX
  8
EBENE_1
 62
    39
  6
CONTINUOUS
 10
-0.335069
 20
-1.077775
  0
VERTEX
  8
EBENE_1
 62
    39
  6
CONTINUOUS
 10
-0.343185
 20
-1.056028
  0
VERTEX
  8
EBENE_1
 62
    39
  6
CONTINUOUS
 10
-0.343185
 20
-1.056028
  0
VERTEX
  8
EBENE_1
 62
    39
  6
CONTINUOUS
 10
-0.346917
 20
-1.030358
  0
VERTEX
  8
EBENE_1
 62
    39
  6
CONTINUOUS
 10
-0.347904
 20
-1.006145
  0
VERTEX
  8
EBENE_1
 62
    39
  6
CONTINUOUS
 10
-0.346316
 20
-0.983504
  0
VERTEX
  8
EBENE_1
 62
    39
  6
CONTINUOUS
 10
-0.342324
 20
-0.962550
  0
VERTEX
  8
EBENE_1
 62
    39
  6
CONTINUOUS
 10
-0.336099
 20
-0.943400
  0
VERTEX
  8
EBENE_1
 62
    39
  6
CONTINUOUS
 10
-0.327811
 20
-0.926170
  0
VERTEX
  8
EBENE_1
 62
    39
  6
CONTINUOUS
 10
-0.317631
 20
-0.910975
  0
VERTEX
  8
EBENE_1
 62
    39
  6
CONTINUOUS
 10
-0.305729
 20
-0.897931
  0
VERTEX
  8
EBENE_1
 62
    39
  6
CONTINUOUS
 10
-0.292277
 20
-0.887153
  0
VERTEX
  8
EBENE_1
 62
    39
  6
CONTINUOUS
 10
-0.277444
 20
-0.878758
  0
VERTEX
  8
EBENE_1
 62
    39
  6
CONTINUOUS
 10
-0.261402
 20
-0.872862
  0
VERTEX
  8
EBENE_1
 62
    39
  6
CONTINUOUS
 10
0.077890
 20
-0.782295
  0
VERTEX
  8
EBENE_1
 62
    39
  6
CONTINUOUS
 10
0.101904
 20
-0.778008
  0
VERTEX
  8
EBENE_1
 62
    39
  6
CONTINUOUS
 10
0.120605
 20
-0.778938
  0
VERTEX
  8
EBENE_1
 62
    39
  6
CONTINUOUS
 10
0.135090
 20
-0.784146
  0
VERTEX
  8
EBENE_1
 62
    39
  6
CONTINUOUS
 10
0.146454
 20
-0.792692
  0
VERTEX
  8
EBENE_1
 62
    39
  6
CONTINUOUS
 10
0.155794
 20
-0.803636
  0
VERTEX
  8
EBENE_1
 62
    39
  6
CONTINUOUS
 10
0.164204
 20
-0.816037
  0
VERTEX
  8
EBENE_1
 62
    39
  6
CONTINUOUS
 10
0.172781
 20
-0.828956
  0
VERTEX
  8
EBENE_1
 62
    39
  6
CONTINUOUS
 10
0.182621
 20
-0.841453
  0
SEQEND
  8
0
  0
POLYLINE
  8
EBENE_1
 62
    39
  6
CONTINUOUS
 66
     1
 40
0.003000
 41
0.003000
  0
VERTEX
  8
EBENE_1
 62
    39
  6
CONTINUOUS
 10
-0.082299
 20
-0.875567
  0
VERTEX
  8
EBENE_1
 62
    39
  6
CONTINUOUS
 10
-0.076615
 20
-0.874115
  0
VERTEX
  8
EBENE_1
 62
    39
  6
CONTINUOUS
 10
-0.072434
 20
-0.870259
  0
VERTEX
  8
EBENE_1
 62
    39
  6
CONTINUOUS
 10
-0.070807
 20
-0.864752
  0
SEQEND
  8
0
  0
POLYLINE
  8
EBENE_1
 62
    39
  6
CONTINUOUS
 66
     1
 40
0.003000
 41
0.003000
  0
VERTEX
  8
EBENE_1
 62
    39
  6
CONTINUOUS
 10
-0.070807
 20
-0.864752
  0
VERTEX
  8
EBENE_1
 62
    39
  6
CONTINUOUS
 10
-0.072434
 20
-0.858769
  0
VERTEX
  8
EBENE_1
 62
    39
  6
CONTINUOUS
 10
-0.076615
 20
-0.854740
  0
VERTEX
  8
EBENE_1
 62
    39
  6
CONTINUOUS
 10
-0.082299
 20
-0.853264
  0
SEQEND
  8
0
  0
POLYLINE
  8
EBENE_1
 62
    39
  6
CONTINUOUS
 66
     1
 40
0.003000
 41
0.003000
  0
VERTEX
  8
EBENE_1
 62
    39
  6
CONTINUOUS
 10
-0.082299
 20
-0.853264
  0
VERTEX
  8
EBENE_1
 62
    39
  6
CONTINUOUS
 10
-0.088280
 20
-0.854740
  0
VERTEX
  8
EBENE_1
 62
    39
  6
CONTINUOUS
 10
-0.092310
 20
-0.858769
  0
VERTEX
  8
EBENE_1
 62
    39
  6
CONTINUOUS
 10
-0.093787
 20
-0.864752
  0
SEQEND
  8
0
  0
POLYLINE
  8
EBENE_1
 62
    39
  6
CONTINUOUS
 66
     1
 40
0.003000
 41
0.003000
  0
VERTEX
  8
EBENE_1
 62
    39
  6
CONTINUOUS
 10
-0.093787
 20
-0.864752
  0
VERTEX
  8
EBENE_1
 62
    39
  6
CONTINUOUS
 10
-0.092310
 20
-0.870259
  0
VERTEX
  8
EBENE_1
 62
    39
  6
CONTINUOUS
 10
-0.088280
 20
-0.874115
  0
VERTEX
  8
EBENE_1
 62
    39
  6
CONTINUOUS
 10
-0.082299
 20
-0.875567
  0
SEQEND
  8
0
  0
POLYLINE
  8
EBENE_1
 62
    39
  6
CONTINUOUS
 66
     1
 40
0.003000
 41
0.003000
  0
VERTEX
  8
EBENE_1
 62
    39
  6
CONTINUOUS
 10
0.038689
 20
-0.849882
  0
VERTEX
  8
EBENE_1
 62
    39
  6
CONTINUOUS
 10
0.044670
 20
-0.848255
  0
VERTEX
  8
EBENE_1
 62
    39
  6
CONTINUOUS
 10
0.048700
 20
-0.844076
  0
VERTEX
  8
EBENE_1
 62
    39
  6
CONTINUOUS
 10
0.050177
 20
-0.838394
  0
SEQEND
  8
0
  0
POLYLINE
  8
EBENE_1
 62
    39
  6
CONTINUOUS
 66
     1
 40
0.003000
 41
0.003000
  0
VERTEX
  8
EBENE_1
 62
    39
  6
CONTINUOUS
 10
0.050177
 20
-0.838394
  0
VERTEX
  8
EBENE_1
 62
    39
  6
CONTINUOUS
 10
0.048700
 20
-0.832711
  0
VERTEX
  8
EBENE_1
 62
    39
  6
CONTINUOUS
 10
0.044670
 20
-0.828529
  0
VERTEX
  8
EBENE_1
 62
    39
  6
CONTINUOUS
 10
0.038689
 20
-0.826902
  0
SEQEND
  8
0
  0
POLYLINE
  8
EBENE_1
 62
    39
  6
CONTINUOUS
 66
     1
 40
0.003000
 41
0.003000
  0
VERTEX
  8
EBENE_1
 62
    39
  6
CONTINUOUS
 10
0.038689
 20
-0.826902
  0
VERTEX
  8
EBENE_1
 62
    39
  6
CONTINUOUS
 10
0.033180
 20
-0.828529
  0
VERTEX
  8
EBENE_1
 62
    39
  6
CONTINUOUS
 10
0.029325
 20
-0.832711
  0
VERTEX
  8
EBENE_1
 62
    39
  6
CONTINUOUS
 10
0.027874
 20
-0.838394
  0
SEQEND
  8
0
  0
POLYLINE
  8
EBENE_1
 62
    39
  6
CONTINUOUS
 66
     1
 40
0.003000
 41
0.003000
  0
VERTEX
  8
EBENE_1
 62
    39
  6
CONTINUOUS
 10
0.027874
 20
-0.838394
  0
VERTEX
  8
EBENE_1
 62
    39
  6
CONTINUOUS
 10
0.029325
 20
-0.844076
  0
VERTEX
  8
EBENE_1
 62
    39
  6
CONTINUOUS
 10
0.033180
 20
-0.848255
  0
VERTEX
  8
EBENE_1
 62
    39
  6
CONTINUOUS
 10
0.038689
 20
-0.849882
  0
SEQEND
  8
0
  0
POLYLINE
  8
EBENE_1
 62
    39
  6
CONTINUOUS
 66
     1
 40
0.003000
 41
0.003000
  0
VERTEX
  8
EBENE_1
 62
    39
  6
CONTINUOUS
 10
0.157642
 20
-0.895165
  0
VERTEX
  8
EBENE_1
 62
    39
  6
CONTINUOUS
 10
0.163325
 20
-0.893714
  0
VERTEX
  8
EBENE_1
 62
    39
  6
CONTINUOUS
 10
0.167506
 20
-0.889861
  0
VERTEX
  8
EBENE_1
 62
    39
  6
CONTINUOUS
 10
0.169134
 20
-0.884354
  0
SEQEND
  8
0
  0
POLYLINE
  8
EBENE_1
 62
    39
  6
CONTINUOUS
 66
     1
 40
0.003000
 41
0.003000
  0
VERTEX
  8
EBENE_1
 62
    39
  6
CONTINUOUS
 10
0.169134
 20
-0.884354
  0
VERTEX
  8
EBENE_1
 62
    39
  6
CONTINUOUS
 10
0.167506
 20
-0.878371
  0
VERTEX
  8
EBENE_1
 62
    39
  6
CONTINUOUS
 10
0.163325
 20
-0.874339
  0
VERTEX
  8
EBENE_1
 62
    39
  6
CONTINUOUS
 10
0.157642
 20
-0.872862
  0
SEQEND
  8
0
  0
POLYLINE
  8
EBENE_1
 62
    39
  6
CONTINUOUS
 66
     1
 40
0.003000
 41
0.003000
  0
VERTEX
  8
EBENE_1
 62
    39
  6
CONTINUOUS
 10
0.157642
 20
-0.872862
  0
VERTEX
  8
EBENE_1
 62
    39
  6
CONTINUOUS
 10
0.151960
 20
-0.874339
  0
VERTEX
  8
EBENE_1
 62
    39
  6
CONTINUOUS
 10
0.147780
 20
-0.878371
  0
VERTEX
  8
EBENE_1
 62
    39
  6
CONTINUOUS
 10
0.146154
 20
-0.884354
  0
SEQEND
  8
0
  0
POLYLINE
  8
EBENE_1
 62
    39
  6
CONTINUOUS
 66
     1
 40
0.003000
 41
0.003000
  0
VERTEX
  8
EBENE_1
 62
    39
  6
CONTINUOUS
 10
0.146154
 20
-0.884354
  0
VERTEX
  8
EBENE_1
 62
    39
  6
CONTINUOUS
 10
0.147780
 20
-0.889861
  0
VERTEX
  8
EBENE_1
 62
    39
  6
CONTINUOUS
 10
0.151960
 20
-0.893714
  0
VERTEX
  8
EBENE_1
 62
    39
  6
CONTINUOUS
 10
0.157642
 20
-0.895165
  0
SEQEND
  8
0
  0
POLYLINE
  8
EBENE_1
 62
    39
  6
CONTINUOUS
 66
     1
 40
0.003000
 41
0.003000
  0
VERTEX
  8
EBENE_1
 62
    39
  6
CONTINUOUS
 10
0.529382
 20
-0.770126
  0
VERTEX
  8
EBENE_1
 62
    39
  6
CONTINUOUS
 10
0.847051
 20
-1.289886
  0
VERTEX
  8
EBENE_1
 62
    39
  6
CONTINUOUS
 10
0.514512
 20
-1.376402
  0
SEQEND
  8
0
  0
POLYLINE
  8
EBENE_1
 62
    39
  6
CONTINUOUS
 66
     1
 40
0.003000
 41
0.003000
  0
VERTEX
  8
EBENE_1
 62
    39
  6
CONTINUOUS
 10
0.514512
 20
-1.376402
  0
VERTEX
  8
EBENE_1
 62
    39
  6
CONTINUOUS
 10
0.504722
 20
-1.378184
  0
VERTEX
  8
EBENE_1
 62
    39
  6
CONTINUOUS
 10
0.494166
 20
-1.379264
  0
VERTEX
  8
EBENE_1
 62
    39
  6
CONTINUOUS
 10
0.482887
 20
-1.379646
  0
VERTEX
  8
EBENE_1
 62
    39
  6
CONTINUOUS
 10
0.470932
 20
-1.379332
  0
VERTEX
  8
EBENE_1
 62
    39
  6
CONTINUOUS
 10
0.458345
 20
-1.378326
  0
VERTEX
  8
EBENE_1
 62
    39
  6
CONTINUOUS
 10
0.445170
 20
-1.376630
  0
VERTEX
  8
EBENE_1
 62
    39
  6
CONTINUOUS
 10
0.431452
 20
-1.374248
  0
VERTEX
  8
EBENE_1
 62
    39
  6
CONTINUOUS
 10
0.417237
 20
-1.371183
  0
VERTEX
  8
EBENE_1
 62
    39
  6
CONTINUOUS
 10
0.402570
 20
-1.367437
  0
VERTEX
  8
EBENE_1
 62
    39
  6
CONTINUOUS
 10
0.387494
 20
-1.363015
  0
VERTEX
  8
EBENE_1
 62
    39
  6
CONTINUOUS
 10
0.372056
 20
-1.357919
  0
VERTEX
  8
EBENE_1
 62
    39
  6
CONTINUOUS
 10
0.356299
 20
-1.352152
  0
VERTEX
  8
EBENE_1
 62
    39
  6
CONTINUOUS
 10
0.340269
 20
-1.345718
  0
VERTEX
  8
EBENE_1
 62
    39
  6
CONTINUOUS
 10
0.324010
 20
-1.338619
  0
VERTEX
  8
EBENE_1
 62
    39
  6
CONTINUOUS
 10
0.307568
 20
-1.330859
  0
VERTEX
  8
EBENE_1
 62
    39
  6
CONTINUOUS
 10
0.290988
 20
-1.322440
  0
VERTEX
  8
EBENE_1
 62
    39
  6
CONTINUOUS
 10
0.274313
 20
-1.313366
  0
VERTEX
  8
EBENE_1
 62
    39
  6
CONTINUOUS
 10
0.257589
 20
-1.303640
  0
VERTEX
  8
EBENE_1
 62
    39
  6
CONTINUOUS
 10
0.240862
 20
-1.293265
  0
VERTEX
  8
EBENE_1
 62
    39
  6
CONTINUOUS
 10
0.224175
 20
-1.282244
  0
VERTEX
  8
EBENE_1
 62
    39
  6
CONTINUOUS
 10
0.207573
 20
-1.270580
  0
VERTEX
  8
EBENE_1
 62
    39
  6
CONTINUOUS
 10
0.191102
 20
-1.258276
  0
VERTEX
  8
EBENE_1
 62
    39
  6
CONTINUOUS
 10
0.174807
 20
-1.245336
  0
VERTEX
  8
EBENE_1
 62
    39
  6
CONTINUOUS
 10
0.158731
 20
-1.231762
  0
VERTEX
  8
EBENE_1
 62
    39
  6
CONTINUOUS
 10
0.142921
 20
-1.217558
  0
VERTEX
  8
EBENE_1
 62
    39
  6
CONTINUOUS
 10
0.127420
 20
-1.202727
  0
VERTEX
  8
EBENE_1
 62
    39
  6
CONTINUOUS
 10
0.112274
 20
-1.187271
  0
VERTEX
  8
EBENE_1
 62
    39
  6
CONTINUOUS
 10
0.097528
 20
-1.171194
  0
VERTEX
  8
EBENE_1
 62
    39
  6
CONTINUOUS
 10
0.083226
 20
-1.154500
  0
VERTEX
  8
EBENE_1
 62
    39
  6
CONTINUOUS
 10
0.069414
 20
-1.137190
  0
VERTEX
  8
EBENE_1
 62
    39
  6
CONTINUOUS
 10
0.056136
 20
-1.119268
  0
VERTEX
  8
EBENE_1
 62
    39
  6
CONTINUOUS
 10
0.043436
 20
-1.100738
  0
VERTEX
  8
EBENE_1
 62
    39
  6
CONTINUOUS
 10
0.031361
 20
-1.081603
  0
VERTEX
  8
EBENE_1
 62
    39
  6
CONTINUOUS
 10
0.019955
 20
-1.061864
  0
VERTEX
  8
EBENE_1
 62
    39
  6
CONTINUOUS
 10
0.009262
 20
-1.041527
  0
VERTEX
  8
EBENE_1
 62
    39
  6
CONTINUOUS
 10
-0.000673
 20
-1.020593
  0
VERTEX
  8
EBENE_1
 62
    39
  6
CONTINUOUS
 10
-0.009804
 20
-0.999066
  0
VERTEX
  8
EBENE_1
 62
    39
  6
CONTINUOUS
 10
-0.018087
 20
-0.976949
  0
SEQEND
  8
0
  0
POLYLINE
  8
EBENE_1
 62
    39
  6
CONTINUOUS
 66
     1
 40
0.003000
 41
0.003000
  0
VERTEX
  8
EBENE_1
 62
    39
  6
CONTINUOUS
 10
-0.018087
 20
-0.976949
  0
VERTEX
  8
EBENE_1
 62
    39
  6
CONTINUOUS
 10
-0.021970
 20
-0.950911
  0
VERTEX
  8
EBENE_1
 62
    39
  6
CONTINUOUS
 10
-0.023044
 20
-0.926336
  0
VERTEX
  8
EBENE_1
 62
    39
  6
CONTINUOUS
 10
-0.021483
 20
-0.903345
  0
VERTEX
  8
EBENE_1
 62
    39
  6
CONTINUOUS
 10
-0.017460
 20
-0.882060
  0
VERTEX
  8
EBENE_1
 62
    39
  6
CONTINUOUS
 10
-0.011148
 20
-0.862604
  0
VERTEX
  8
EBENE_1
 62
    39
  6
CONTINUOUS
 10
-0.002722
 20
-0.845097
  0
VERTEX
  8
EBENE_1
 62
    39
  6
CONTINUOUS
 10
0.007645
 20
-0.829662
  0
VERTEX
  8
EBENE_1
 62
    39
  6
CONTINUOUS
 10
0.019779
 20
-0.816421
  0
VERTEX
  8
EBENE_1
 62
    39
  6
CONTINUOUS
 10
0.033507
 20
-0.805496
  0
VERTEX
  8
EBENE_1
 62
    39
  6
CONTINUOUS
 10
0.048654
 20
-0.797007
  0
VERTEX
  8
EBENE_1
 62
    39
  6
CONTINUOUS
 10
0.065047
 20
-0.791079
  0
SEQEND
  8
0
  0
POLYLINE
  8
EBENE_1
 62
    39
  6
CONTINUOUS
 66
     1
 40
0.003000
 41
0.003000
  0
VERTEX
  8
EBENE_1
 62
    39
  6
CONTINUOUS
 10
0.065047
 20
-0.791079
  0
VERTEX
  8
EBENE_1
 62
    39
  6
CONTINUOUS
 10
0.410425
 20
-0.698484
  0
SEQEND
  8
0
  0
POLYLINE
  8
EBENE_1
 62
    39
  6
CONTINUOUS
 66
     1
 40
0.003000
 41
0.003000
  0
VERTEX
  8
EBENE_1
 62
    39
  6
CONTINUOUS
 10
0.410425
 20
-0.698484
  0
VERTEX
  8
EBENE_1
 62
    39
  6
CONTINUOUS
 10
0.434865
 20
-0.694221
  0
VERTEX
  8
EBENE_1
 62
    39
  6
CONTINUOUS
 10
0.453943
 20
-0.695220
  0
VERTEX
  8
EBENE_1
 62
    39
  6
CONTINUOUS
 10
0.468753
 20
-0.700537
  0
VERTEX
  8
EBENE_1
 62
    39
  6
CONTINUOUS
 10
0.480393
 20
-0.709224
  0
VERTEX
  8
EBENE_1
 62
    39
  6
CONTINUOUS
 10
0.489957
 20
-0.720337
  0
VERTEX
  8
EBENE_1
 62
    39
  6
CONTINUOUS
 10
0.498542
 20
-0.732929
  0
VERTEX
  8
EBENE_1
 62
    39
  6
CONTINUOUS
 10
0.507244
 20
-0.746055
  0
VERTEX
  8
EBENE_1
 62
    39
  6
CONTINUOUS
 10
0.517159
 20
-0.758770
  0
VERTEX
  8
EBENE_1
 62
    39
  6
CONTINUOUS
 10
0.529382
 20
-0.770126
  0
SEQEND
  8
0
  0
POLYLINE
  8
EBENE_1
 62
    39
  6
CONTINUOUS
 66
     1
 40
0.003000
 41
0.003000
 70
     1
  0
VERTEX
  8
EBENE_1
 62
    39
  6
CONTINUOUS
 10
0.529382
 20
-0.772157
  0
VERTEX
  8
EBENE_1
 62
    39
  6
CONTINUOUS
 10
0.841642
 20
-1.283803
  0
VERTEX
  8
EBENE_1
 62
    39
  6
CONTINUOUS
 10
0.515189
 20
-1.368965
  0
VERTEX
  8
EBENE_1
 62
    39
  6
CONTINUOUS
 10
0.505565
 20
-1.370701
  0
VERTEX
  8
EBENE_1
 62
    39
  6
CONTINUOUS
 10
0.495185
 20
-1.371749
  0
VERTEX
  8
EBENE_1
 62
    39
  6
CONTINUOUS
 10
0.484093
 20
-1.372112
  0
VERTEX
  8
EBENE_1
 62
    39
  6
CONTINUOUS
 10
0.472333
 20
-1.371793
  0
VERTEX
  8
EBENE_1
 62
    39
  6
CONTINUOUS
 10
0.459950
 20
-1.370795
  0
VERTEX
  8
EBENE_1
 62
    39
  6
CONTINUOUS
 10
0.446988
 20
-1.369120
  0
VERTEX
  8
EBENE_1
 62
    39
  6
CONTINUOUS
 10
0.433491
 20
-1.366771
  0
VERTEX
  8
EBENE_1
 62
    39
  6
CONTINUOUS
 10
0.419504
 20
-1.363752
  0
VERTEX
  8
EBENE_1
 62
    39
  6
CONTINUOUS
 10
0.405070
 20
-1.360065
  0
VERTEX
  8
EBENE_1
 62
    39
  6
CONTINUOUS
 10
0.390235
 20
-1.355713
  0
VERTEX
  8
EBENE_1
 62
    39
  6
CONTINUOUS
 10
0.375041
 20
-1.350699
  0
VERTEX
  8
EBENE_1
 62
    39
  6
CONTINUOUS
 10
0.359535
 20
-1.345025
  0
VERTEX
  8
EBENE_1
 62
    39
  6
CONTINUOUS
 10
0.343759
 20
-1.338696
  0
VERTEX
  8
EBENE_1
 62
    39
  6
CONTINUOUS
 10
0.327758
 20
-1.331713
  0
VERTEX
  8
EBENE_1
 62
    39
  6
CONTINUOUS
 10
0.311577
 20
-1.324079
  0
VERTEX
  8
EBENE_1
 62
    39
  6
CONTINUOUS
 10
0.295259
 20
-1.315798
  0
VERTEX
  8
EBENE_1
 62
    39
  6
CONTINUOUS
 10
0.278849
 20
-1.306872
  0
VERTEX
  8
EBENE_1
 62
    39
  6
CONTINUOUS
 10
0.262392
 20
-1.297305
  0
VERTEX
  8
EBENE_1
 62
    39
  6
CONTINUOUS
 10
0.245931
 20
-1.287098
  0
VERTEX
  8
EBENE_1
 62
    39
  6
CONTINUOUS
 10
0.229510
 20
-1.276255
  0
VERTEX
  8
EBENE_1
 62
    39
  6
CONTINUOUS
 10
0.213175
 20
-1.264779
  0
VERTEX
  8
EBENE_1
 62
    39
  6
CONTINUOUS
 10
0.196969
 20
-1.252673
  0
VERTEX
  8
EBENE_1
 62
    39
  6
CONTINUOUS
 10
0.180936
 20
-1.239939
  0
VERTEX
  8
EBENE_1
 62
    39
  6
CONTINUOUS
 10
0.165121
 20
-1.226580
  0
VERTEX
  8
EBENE_1
 62
    39
  6
CONTINUOUS
 10
0.149568
 20
-1.212600
  0
VERTEX
  8
EBENE_1
 62
    39
  6
CONTINUOUS
 10
0.134322
 20
-1.198002
  0
VERTEX
  8
EBENE_1
 62
    39
  6
CONTINUOUS
 10
0.119426
 20
-1.182787
  0
VERTEX
  8
EBENE_1
 62
    39
  6
CONTINUOUS
 10
0.104925
 20
-1.166959
  0
VERTEX
  8
EBENE_1
 62
    39
  6
CONTINUOUS
 10
0.090863
 20
-1.150521
  0
VERTEX
  8
EBENE_1
 62
    39
  6
CONTINUOUS
 10
0.077285
 20
-1.133476
  0
VERTEX
  8
EBENE_1
 62
    39
  6
CONTINUOUS
 10
0.064234
 20
-1.115826
  0
VERTEX
  8
EBENE_1
 62
    39
  6
CONTINUOUS
 10
0.051756
 20
-1.097575
  0
VERTEX
  8
EBENE_1
 62
    39
  6
CONTINUOUS
 10
0.039893
 20
-1.078725
  0
VERTEX
  8
EBENE_1
 62
    39
  6
CONTINUOUS
 10
0.028691
 20
-1.059280
  0
VERTEX
  8
EBENE_1
 62
    39
  6
CONTINUOUS
 10
0.018194
 20
-1.039242
  0
VERTEX
  8
EBENE_1
 62
    39
  6
CONTINUOUS
 10
0.008446
 20
-1.018613
  0
VERTEX
  8
EBENE_1
 62
    39
  6
CONTINUOUS
 10
-0.000509
 20
-0.997398
  0
VERTEX
  8
EBENE_1
 62
    39
  6
CONTINUOUS
 10
-0.008626
 20
-0.975598
  0
VERTEX
  8
EBENE_1
 62
    39
  6
CONTINUOUS
 10
-0.008626
 20
-0.975598
  0
VERTEX
  8
EBENE_1
 62
    39
  6
CONTINUOUS
 10
-0.012525
 20
-0.950096
  0
VERTEX
  8
EBENE_1
 62
    39
  6
CONTINUOUS
 10
-0.013649
 20
-0.926020
  0
VERTEX
  8
EBENE_1
 62
    39
  6
CONTINUOUS
 10
-0.012172
 20
-0.903489
  0
VERTEX
  8
EBENE_1
 62
    39
  6
CONTINUOUS
 10
-0.008266
 20
-0.882621
  0
VERTEX
  8
EBENE_1
 62
    39
  6
CONTINUOUS
 10
-0.002105
 20
-0.863535
  0
VERTEX
  8
EBENE_1
 62
    39
  6
CONTINUOUS
 10
0.006136
 20
-0.846351
  0
VERTEX
  8
EBENE_1
 62
    39
  6
CONTINUOUS
 10
0.016285
 20
-0.831187
  0
VERTEX
  8
EBENE_1
 62
    39
  6
CONTINUOUS
 10
0.028167
 20
-0.818162
  0
VERTEX
  8
EBENE_1
 62
    39
  6
CONTINUOUS
 10
0.041610
 20
-0.807395
  0
VERTEX
  8
EBENE_1
 62
    39
  6
CONTINUOUS
 10
0.056439
 20
-0.799005
  0
VERTEX
  8
EBENE_1
 62
    39
  6
CONTINUOUS
 10
0.072480
 20
-0.793110
  0
VERTEX
  8
EBENE_1
 62
    39
  6
CONTINUOUS
 10
0.412453
 20
-0.702539
  0
VERTEX
  8
EBENE_1
 62
    39
  6
CONTINUOUS
 10
0.436489
 20
-0.698051
  0
VERTEX
  8
EBENE_1
 62
    39
  6
CONTINUOUS
 10
0.455246
 20
-0.698826
  0
VERTEX
  8
EBENE_1
 62
    39
  6
CONTINUOUS
 10
0.469804
 20
-0.703917
  0
VERTEX
  8
EBENE_1
 62
    39
  6
CONTINUOUS
 10
0.481240
 20
-0.712379
  0
VERTEX
  8
EBENE_1
 62
    39
  6
CONTINUOUS
 10
0.490635
 20
-0.723266
  0
VERTEX
  8
EBENE_1
 62
    39
  6
CONTINUOUS
 10
0.499068
 20
-0.735633
  0
VERTEX
  8
EBENE_1
 62
    39
  6
CONTINUOUS
 10
0.507617
 20
-0.748535
  0
VERTEX
  8
EBENE_1
 62
    39
  6
CONTINUOUS
 10
0.517362
 20
-0.761025
  0
SEQEND
  8
0
  0
POLYLINE
  8
EBENE_1
 62
    39
  6
CONTINUOUS
 66
     1
 40
0.003000
 41
0.003000
  0
VERTEX
  8
EBENE_1
 62
    39
  6
CONTINUOUS
 10
0.252268
 20
-0.795811
  0
VERTEX
  8
EBENE_1
 62
    39
  6
CONTINUOUS
 10
0.257951
 20
-0.794334
  0
VERTEX
  8
EBENE_1
 62
    39
  6
CONTINUOUS
 10
0.262132
 20
-0.790304
  0
VERTEX
  8
EBENE_1
 62
    39
  6
CONTINUOUS
 10
0.263760
 20
-0.784323
  0
SEQEND
  8
0
  0
POLYLINE
  8
EBENE_1
 62
    39
  6
CONTINUOUS
 66
     1
 40
0.003000
 41
0.003000
  0
VERTEX
  8
EBENE_1
 62
    39
  6
CONTINUOUS
 10
0.263760
 20
-0.784323
  0
VERTEX
  8
EBENE_1
 62
    39
  6
CONTINUOUS
 10
0.262132
 20
-0.778640
  0
VERTEX
  8
EBENE_1
 62
    39
  6
CONTINUOUS
 10
0.257951
 20
-0.774458
  0
VERTEX
  8
EBENE_1
 62
    39
  6
CONTINUOUS
 10
0.252268
 20
-0.772831
  0
SEQEND
  8
0
  0
POLYLINE
  8
EBENE_1
 62
    39
  6
CONTINUOUS
 66
     1
 40
0.003000
 41
0.003000
  0
VERTEX
  8
EBENE_1
 62
    39
  6
CONTINUOUS
 10
0.252268
 20
-0.772831
  0
VERTEX
  8
EBENE_1
 62
    39
  6
CONTINUOUS
 10
0.246585
 20
-0.774458
  0
VERTEX
  8
EBENE_1
 62
    39
  6
CONTINUOUS
 10
0.242403
 20
-0.778640
  0
VERTEX
  8
EBENE_1
 62
    39
  6
CONTINUOUS
 10
0.240776
 20
-0.784323
  0
SEQEND
  8
0
  0
POLYLINE
  8
EBENE_1
 62
    39
  6
CONTINUOUS
 66
     1
 40
0.003000
 41
0.003000
  0
VERTEX
  8
EBENE_1
 62
    39
  6
CONTINUOUS
 10
0.240776
 20
-0.784323
  0
VERTEX
  8
EBENE_1
 62
    39
  6
CONTINUOUS
 10
0.242403
 20
-0.790304
  0
VERTEX
  8
EBENE_1
 62
    39
  6
CONTINUOUS
 10
0.246585
 20
-0.794334
  0
VERTEX
  8
EBENE_1
 62
    39
  6
CONTINUOUS
 10
0.252268
 20
-0.795811
  0
SEQEND
  8
0
  0
POLYLINE
  8
EBENE_1
 62
    39
  6
CONTINUOUS
 66
     1
 40
0.003000
 41
0.003000
  0
VERTEX
  8
EBENE_1
 62
    39
  6
CONTINUOUS
 10
0.373929
 20
-0.770126
  0
VERTEX
  8
EBENE_1
 62
    39
  6
CONTINUOUS
 10
0.379611
 20
-0.768499
  0
VERTEX
  8
EBENE_1
 62
    39
  6
CONTINUOUS
 10
0.383791
 20
-0.764320
  0
VERTEX
  8
EBENE_1
 62
    39
  6
CONTINUOUS
 10
0.385417
 20
-0.758638
  0
SEQEND
  8
0
  0
POLYLINE
  8
EBENE_1
 62
    39
  6
CONTINUOUS
 66
     1
 40
0.003000
 41
0.003000
  0
VERTEX
  8
EBENE_1
 62
    39
  6
CONTINUOUS
 10
0.385417
 20
-0.758638
  0
VERTEX
  8
EBENE_1
 62
    39
  6
CONTINUOUS
 10
0.383791
 20
-0.752654
  0
VERTEX
  8
EBENE_1
 62
    39
  6
CONTINUOUS
 10
0.379611
 20
-0.748623
  0
VERTEX
  8
EBENE_1
 62
    39
  6
CONTINUOUS
 10
0.373929
 20
-0.747146
  0
SEQEND
  8
0
  0
POLYLINE
  8
EBENE_1
 62
    39
  6
CONTINUOUS
 66
     1
 40
0.003000
 41
0.003000
  0
VERTEX
  8
EBENE_1
 62
    39
  6
CONTINUOUS
 10
0.373929
 20
-0.747146
  0
VERTEX
  8
EBENE_1
 62
    39
  6
CONTINUOUS
 10
0.367945
 20
-0.748623
  0
VERTEX
  8
EBENE_1
 62
    39
  6
CONTINUOUS
 10
0.363914
 20
-0.752654
  0
VERTEX
  8
EBENE_1
 62
    39
  6
CONTINUOUS
 10
0.362437
 20
-0.758638
  0
SEQEND
  8
0
  0
POLYLINE
  8
EBENE_1
 62
    39
  6
CONTINUOUS
 66
     1
 40
0.003000
 41
0.003000
  0
VERTEX
  8
EBENE_1
 62
    39
  6
CONTINUOUS
 10
0.362437
 20
-0.758638
  0
VERTEX
  8
EBENE_1
 62
    39
  6
CONTINUOUS
 10
0.363914
 20
-0.764320
  0
VERTEX
  8
EBENE_1
 62
    39
  6
CONTINUOUS
 10
0.367945
 20
-0.768499
  0
VERTEX
  8
EBENE_1
 62
    39
  6
CONTINUOUS
 10
0.373929
 20
-0.770126
  0
SEQEND
  8
0
  0
POLYLINE
  8
EBENE_1
 62
    39
  6
CONTINUOUS
 66
     1
 40
0.003000
 41
0.003000
  0
VERTEX
  8
EBENE_1
 62
    39
  6
CONTINUOUS
 10
0.492209
 20
-0.815413
  0
VERTEX
  8
EBENE_1
 62
    39
  6
CONTINUOUS
 10
0.498190
 20
-0.813936
  0
VERTEX
  8
EBENE_1
 62
    39
  6
CONTINUOUS
 10
0.502220
 20
-0.809905
  0
VERTEX
  8
EBENE_1
 62
    39
  6
CONTINUOUS
 10
0.503697
 20
-0.803921
  0
SEQEND
  8
0
  0
POLYLINE
  8
EBENE_1
 62
    39
  6
CONTINUOUS
 66
     1
 40
0.003000
 41
0.003000
  0
VERTEX
  8
EBENE_1
 62
    39
  6
CONTINUOUS
 10
0.503697
 20
-0.803921
  0
VERTEX
  8
EBENE_1
 62
    39
  6
CONTINUOUS
 10
0.502220
 20
-0.798239
  0
VERTEX
  8
EBENE_1
 62
    39
  6
CONTINUOUS
 10
0.498190
 20
-0.794060
  0
VERTEX
  8
EBENE_1
 62
    39
  6
CONTINUOUS
 10
0.492209
 20
-0.792433
  0
SEQEND
  8
0
  0
POLYLINE
  8
EBENE_1
 62
    39
  6
CONTINUOUS
 66
     1
 40
0.003000
 41
0.003000
  0
VERTEX
  8
EBENE_1
 62
    39
  6
CONTINUOUS
 10
0.492209
 20
-0.792433
  0
VERTEX
  8
EBENE_1
 62
    39
  6
CONTINUOUS
 10
0.486526
 20
-0.794060
  0
VERTEX
  8
EBENE_1
 62
    39
  6
CONTINUOUS
 10
0.482344
 20
-0.798239
  0
VERTEX
  8
EBENE_1
 62
    39
  6
CONTINUOUS
 10
0.480717
 20
-0.803921
  0
SEQEND
  8
0
  0
POLYLINE
  8
EBENE_1
 62
    39
  6
CONTINUOUS
 66
     1
 40
0.003000
 41
0.003000
  0
VERTEX
  8
EBENE_1
 62
    39
  6
CONTINUOUS
 10
0.480717
 20
-0.803921
  0
VERTEX
  8
EBENE_1
 62
    39
  6
CONTINUOUS
 10
0.482344
 20
-0.809905
  0
VERTEX
  8
EBENE_1
 62
    39
  6
CONTINUOUS
 10
0.486526
 20
-0.813936
  0
VERTEX
  8
EBENE_1
 62
    39
  6
CONTINUOUS
 10
0.492209
 20
-0.815413
  0
SEQEND
  8
0
  0
POLYLINE
  8
EBENE_1
 62
    39
  6
CONTINUOUS
 66
     1
 40
0.003000
 41
0.003000
  0
VERTEX
  8
EBENE_1
 62
    39
  6
CONTINUOUS
 10
1.353287
 20
-1.481839
  0
VERTEX
  8
EBENE_1
 62
    39
  6
CONTINUOUS
 10
1.353287
 20
0.640449
  0
SEQEND
  8
0
  0
POLYLINE
  8
EBENE_1
 62
    39
  6
CONTINUOUS
 66
     1
 40
0.003000
 41
0.003000
 70
     1
  0
VERTEX
  8
EBENE_1
 62
    39
  6
CONTINUOUS
 10
0.851780
 20
-1.285831
  0
VERTEX
  8
EBENE_1
 62
    39
  6
CONTINUOUS
 10
1.172150
 20
-1.209457
  0
VERTEX
  8
EBENE_1
 62
    39
  6
CONTINUOUS
 10
1.187776
 20
-1.204956
  0
VERTEX
  8
EBENE_1
 62
    39
  6
CONTINUOUS
 10
1.204021
 20
-1.200351
  0
VERTEX
  8
EBENE_1
 62
    39
  6
CONTINUOUS
 10
1.220716
 20
-1.195533
  0
VERTEX
  8
EBENE_1
 62
    39
  6
CONTINUOUS
 10
1.237694
 20
-1.190398
  0
VERTEX
  8
EBENE_1
 62
    39
  6
CONTINUOUS
 10
1.254786
 20
-1.184840
  0
VERTEX
  8
EBENE_1
 62
    39
  6
CONTINUOUS
 10
1.271825
 20
-1.178752
  0
VERTEX
  8
EBENE_1
 62
    39
  6
CONTINUOUS
 10
1.288643
 20
-1.172030
  0
VERTEX
  8
EBENE_1
 62
    39
  6
CONTINUOUS
 10
1.305072
 20
-1.164567
  0
VERTEX
  8
EBENE_1
 62
    39
  6
CONTINUOUS
 10
1.320944
 20
-1.156257
  0
VERTEX
  8
EBENE_1
 62
    39
  6
CONTINUOUS
 10
1.336092
 20
-1.146995
  0
VERTEX
  8
EBENE_1
 62
    39
  6
CONTINUOUS
 10
1.350346
 20
-1.136674
  0
VERTEX
  8
EBENE_1
 62
    39
  6
CONTINUOUS
 10
1.363540
 20
-1.125190
  0
VERTEX
  8
EBENE_1
 62
    39
  6
CONTINUOUS
 10
1.375505
 20
-1.112435
  0
VERTEX
  8
EBENE_1
 62
    39
  6
CONTINUOUS
 10
1.386073
 20
-1.098304
  0
VERTEX
  8
EBENE_1
 62
    39
  6
CONTINUOUS
 10
1.395077
 20
-1.082692
  0
VERTEX
  8
EBENE_1
 62
    39
  6
CONTINUOUS
 10
1.402349
 20
-1.065493
  0
VERTEX
  8
EBENE_1
 62
    39
  6
CONTINUOUS
 10
1.407720
 20
-1.046600
  0
VERTEX
  8
EBENE_1
 62
    39
  6
CONTINUOUS
 10
1.411023
 20
-1.025908
  0
VERTEX
  8
EBENE_1
 62
    39
  6
CONTINUOUS
 10
1.412091
 20
-1.003311
  0
VERTEX
  8
EBENE_1
 62
    39
  6
CONTINUOUS
 10
1.412091
 20
-1.003311
  0
VERTEX
  8
EBENE_1
 62
    39
  6
CONTINUOUS
 10
1.412091
 20
-0.772831
  0
VERTEX
  8
EBENE_1
 62
    39
  6
CONTINUOUS
 10
1.339094
 20
-0.748500
  0
VERTEX
  8
EBENE_1
 62
    39
  6
CONTINUOUS
 10
1.320535
 20
-0.759371
  0
VERTEX
  8
EBENE_1
 62
    39
  6
CONTINUOUS
 10
1.302338
 20
-0.770497
  0
VERTEX
  8
EBENE_1
 62
    39
  6
CONTINUOUS
 10
1.284497
 20
-0.781876
  0
VERTEX
  8
EBENE_1
 62
    39
  6
CONTINUOUS
 10
1.267007
 20
-0.793501
  0
VERTEX
  8
EBENE_1
 62
    39
  6
CONTINUOUS
 10
1.249863
 20
-0.805369
  0
VERTEX
  8
EBENE_1
 62
    39
  6
CONTINUOUS
 10
1.233060
 20
-0.817474
  0
VERTEX
  8
EBENE_1
 62
    39
  6
CONTINUOUS
 10
1.216592
 20
-0.829813
  0
VERTEX
  8
EBENE_1
 62
    39
  6
CONTINUOUS
 10
1.200454
 20
-0.842381
  0
VERTEX
  8
EBENE_1
 62
    39
  6
CONTINUOUS
 10
1.184640
 20
-0.855172
  0
VERTEX
  8
EBENE_1
 62
    39
  6
CONTINUOUS
 10
1.169145
 20
-0.868184
  0
VERTEX
  8
EBENE_1
 62
    39
  6
CONTINUOUS
 10
1.153964
 20
-0.881410
  0
VERTEX
  8
EBENE_1
 62
    39
  6
CONTINUOUS
 10
1.139091
 20
-0.894847
  0
VERTEX
  8
EBENE_1
 62
    39
  6
CONTINUOUS
 10
1.124521
 20
-0.908490
  0
VERTEX
  8
EBENE_1
 62
    39
  6
CONTINUOUS
 10
1.110248
 20
-0.922334
  0
VERTEX
  8
EBENE_1
 62
    39
  6
CONTINUOUS
 10
1.096268
 20
-0.936375
  0
VERTEX
  8
EBENE_1
 62
    39
  6
CONTINUOUS
 10
1.082575
 20
-0.950609
  0
VERTEX
  8
EBENE_1
 62
    39
  6
CONTINUOUS
 10
1.069163
 20
-0.965030
  0
VERTEX
  8
EBENE_1
 62
    39
  6
CONTINUOUS
 10
1.056027
 20
-0.979634
  0
VERTEX
  8
EBENE_1
 62
    39
  6
CONTINUOUS
 10
1.043163
 20
-0.994416
  0
VERTEX
  8
EBENE_1
 62
    39
  6
CONTINUOUS
 10
1.030563
 20
-1.009373
  0
VERTEX
  8
EBENE_1
 62
    39
  6
CONTINUOUS
 10
1.018224
 20
-1.024499
  0
VERTEX
  8
EBENE_1
 62
    39
  6
CONTINUOUS
 10
1.006139
 20
-1.039790
  0
VERTEX
  8
EBENE_1
 62
    39
  6
CONTINUOUS
 10
0.994303
 20
-1.055241
  0
VERTEX
  8
EBENE_1
 62
    39
  6
CONTINUOUS
 10
0.982712
 20
-1.070848
  0
VERTEX
  8
EBENE_1
 62
    39
  6
CONTINUOUS
 10
0.971359
 20
-1.086606
  0
VERTEX
  8
EBENE_1
 62
    39
  6
CONTINUOUS
 10
0.960239
 20
-1.102510
  0
VERTEX
  8
EBENE_1
 62
    39
  6
CONTINUOUS
 10
0.949347
 20
-1.118557
  0
VERTEX
  8
EBENE_1
 62
    39
  6
CONTINUOUS
 10
0.938678
 20
-1.134741
  0
VERTEX
  8
EBENE_1
 62
    39
  6
CONTINUOUS
 10
0.928225
 20
-1.151058
  0
VERTEX
  8
EBENE_1
 62
    39
  6
CONTINUOUS
 10
0.917985
 20
-1.167503
  0
VERTEX
  8
EBENE_1
 62
    39
  6
CONTINUOUS
 10
0.907951
 20
-1.184072
  0
VERTEX
  8
EBENE_1
 62
    39
  6
CONTINUOUS
 10
0.898118
 20
-1.200761
  0
VERTEX
  8
EBENE_1
 62
    39
  6
CONTINUOUS
 10
0.888480
 20
-1.217564
  0
VERTEX
  8
EBENE_1
 62
    39
  6
CONTINUOUS
 10
0.879033
 20
-1.234477
  0
VERTEX
  8
EBENE_1
 62
    39
  6
CONTINUOUS
 10
0.869771
 20
-1.251495
  0
VERTEX
  8
EBENE_1
 62
    39
  6
CONTINUOUS
 10
0.860688
 20
-1.268615
  0
VERTEX
  8
EBENE_1
 62
    39
  6
CONTINUOUS
 10
0.851780
 20
-1.285831
  0
SEQEND
  8
0
  0
POLYLINE
  8
EBENE_1
 62
    39
  6
CONTINUOUS
 66
     1
 40
0.003000
 41
0.003000
 70
     1
  0
VERTEX
  8
EBENE_1
 62
    39
  6
CONTINUOUS
 10
0.859890
 20
-1.275693
  0
VERTEX
  8
EBENE_1
 62
    39
  6
CONTINUOUS
 10
1.220142
 20
-1.189854
  0
VERTEX
  8
EBENE_1
 62
    39
  6
CONTINUOUS
 10
1.239930
 20
-1.182326
  0
VERTEX
  8
EBENE_1
 62
    39
  6
CONTINUOUS
 10
1.259478
 20
-1.174689
  0
VERTEX
  8
EBENE_1
 62
    39
  6
CONTINUOUS
 10
1.278590
 20
-1.166775
  0
VERTEX
  8
EBENE_1
 62
    39
  6
CONTINUOUS
 10
1.297065
 20
-1.158413
  0
VERTEX
  8
EBENE_1
 62
    39
  6
CONTINUOUS
 10
1.314708
 20
-1.149433
  0
VERTEX
  8
EBENE_1
 62
    39
  6
CONTINUOUS
 10
1.331319
 20
-1.139666
  0
VERTEX
  8
EBENE_1
 62
    39
  6
CONTINUOUS
 10
1.346700
 20
-1.128940
  0
VERTEX
  8
EBENE_1
 62
    39
  6
CONTINUOUS
 10
1.360654
 20
-1.117088
  0
VERTEX
  8
EBENE_1
 62
    39
  6
CONTINUOUS
 10
1.372982
 20
-1.103937
  0
VERTEX
  8
EBENE_1
 62
    39
  6
CONTINUOUS
 10
1.383486
 20
-1.089319
  0
VERTEX
  8
EBENE_1
 62
    39
  6
CONTINUOUS
 10
1.391969
 20
-1.073063
  0
VERTEX
  8
EBENE_1
 62
    39
  6
CONTINUOUS
 10
1.398232
 20
-1.055000
  0
VERTEX
  8
EBENE_1
 62
    39
  6
CONTINUOUS
 10
1.402077
 20
-1.034960
  0
VERTEX
  8
EBENE_1
 62
    39
  6
CONTINUOUS
 10
1.403307
 20
-1.012772
  0
VERTEX
  8
EBENE_1
 62
    39
  6
CONTINUOUS
 10
1.403307
 20
-1.012772
  0
VERTEX
  8
EBENE_1
 62
    39
  6
CONTINUOUS
 10
1.410063
 20
-0.779591
  0
VERTEX
  8
EBENE_1
 62
    39
  6
CONTINUOUS
 10
1.337744
 20
-0.749850
  0
VERTEX
  8
EBENE_1
 62
    39
  6
CONTINUOUS
 10
1.319483
 20
-0.758042
  0
VERTEX
  8
EBENE_1
 62
    39
  6
CONTINUOUS
 10
1.301527
 20
-0.766923
  0
VERTEX
  8
EBENE_1
 62
    39
  6
CONTINUOUS
 10
1.283874
 20
-0.776463
  0
VERTEX
  8
EBENE_1
 62
    39
  6
CONTINUOUS
 10
1.266525
 20
-0.786632
  0
VERTEX
  8
EBENE_1
 62
    39
  6
CONTINUOUS
 10
1.249478
 20
-0.797398
  0
VERTEX
  8
EBENE_1
 62
    39
  6
CONTINUOUS
 10
1.232733
 20
-0.808733
  0
VERTEX
  8
EBENE_1
 62
    39
  6
CONTINUOUS
 10
1.216289
 20
-0.820604
  0
VERTEX
  8
EBENE_1
 62
    39
  6
CONTINUOUS
 10
1.200146
 20
-0.832983
  0
VERTEX
  8
EBENE_1
 62
    39
  6
CONTINUOUS
 10
1.184303
 20
-0.845838
  0
VERTEX
  8
EBENE_1
 62
    39
  6
CONTINUOUS
 10
1.168759
 20
-0.859139
  0
VERTEX
  8
EBENE_1
 62
    39
  6
CONTINUOUS
 10
1.153514
 20
-0.872855
  0
VERTEX
  8
EBENE_1
 62
    39
  6
CONTINUOUS
 10
1.138567
 20
-0.886957
  0
VERTEX
  8
EBENE_1
 62
    39
  6
CONTINUOUS
 10
1.123918
 20
-0.901414
  0
VERTEX
  8
EBENE_1
 62
    39
  6
CONTINUOUS
 10
1.109565
 20
-0.916195
  0
VERTEX
  8
EBENE_1
 62
    39
  6
CONTINUOUS
 10
1.095509
 20
-0.931269
  0
VERTEX
  8
EBENE_1
 62
    39
  6
CONTINUOUS
 10
1.081747
 20
-0.946607
  0
VERTEX
  8
EBENE_1
 62
    39
  6
CONTINUOUS
 10
1.068281
 20
-0.962179
  0
VERTEX
  8
EBENE_1
 62
    39
  6
CONTINUOUS
 10
1.055109
 20
-0.977953
  0
VERTEX
  8
EBENE_1
 62
    39
  6
CONTINUOUS
 10
1.042231
 20
-0.993899
  0
VERTEX
  8
EBENE_1
 62
    39
  6
CONTINUOUS
 10
1.029645
 20
-1.009987
  0
VERTEX
  8
EBENE_1
 62
    39
  6
CONTINUOUS
 10
1.017352
 20
-1.026186
  0
VERTEX
  8
EBENE_1
 62
    39
  6
CONTINUOUS
 10
1.005351
 20
-1.042466
  0
VERTEX
  8
EBENE_1
 62
    39
  6
CONTINUOUS
 10
0.993640
 20
-1.058797
  0
VERTEX
  8
EBENE_1
 62
    39
  6
CONTINUOUS
 10
0.982220
 20
-1.075147
  0
VERTEX
  8
EBENE_1
 62
    39
  6
CONTINUOUS
 10
0.971089
 20
-1.091488
  0
VERTEX
  8
EBENE_1
 62
    39
  6
CONTINUOUS
 10
0.960248
 20
-1.107787
  0
VERTEX
  8
EBENE_1
 62
    39
  6
CONTINUOUS
 10
0.949695
 20
-1.124016
  0
VERTEX
  8
EBENE_1
 62
    39
  6
CONTINUOUS
 10
0.939430
 20
-1.140143
  0
VERTEX
  8
EBENE_1
 62
    39
  6
CONTINUOUS
 10
0.929452
 20
-1.156138
  0
VERTEX
  8
EBENE_1
 62
    39
  6
CONTINUOUS
 10
0.919761
 20
-1.171970
  0
VERTEX
  8
EBENE_1
 62
    39
  6
CONTINUOUS
 10
0.910355
 20
-1.187610
  0
VERTEX
  8
EBENE_1
 62
    39
  6
CONTINUOUS
 10
0.901235
 20
-1.203026
  0
VERTEX
  8
EBENE_1
 62
    39
  6
CONTINUOUS
 10
0.892399
 20
-1.218188
  0
VERTEX
  8
EBENE_1
 62
    39
  6
CONTINUOUS
 10
0.883848
 20
-1.233067
  0
VERTEX
  8
EBENE_1
 62
    39
  6
CONTINUOUS
 10
0.875579
 20
-1.247631
  0
VERTEX
  8
EBENE_1
 62
    39
  6
CONTINUOUS
 10
0.867593
 20
-1.261850
  0
VERTEX
  8
EBENE_1
 62
    39
  6
CONTINUOUS
 10
0.859890
 20
-1.275693
  0
SEQEND
  8
0
  0
POLYLINE
  8
EBENE_1
 62
    39
  6
CONTINUOUS
 66
     1
 40
0.003000
 41
0.003000
 70
     1
  0
VERTEX
  8
EBENE_1
 62
    39
  6
CONTINUOUS
 10
1.412768
 20
-0.515996
  0
VERTEX
  8
EBENE_1
 62
    39
  6
CONTINUOUS
 10
1.414795
 20
-0.803921
  0
VERTEX
  8
EBENE_1
 62
    39
  6
CONTINUOUS
 10
1.414498
 20
-0.817831
  0
VERTEX
  8
EBENE_1
 62
    39
  6
CONTINUOUS
 10
1.413515
 20
-0.831732
  0
VERTEX
  8
EBENE_1
 62
    39
  6
CONTINUOUS
 10
1.411853
 20
-0.845615
  0
VERTEX
  8
EBENE_1
 62
    39
  6
CONTINUOUS
 10
1.409517
 20
-0.859472
  0
VERTEX
  8
EBENE_1
 62
    39
  6
CONTINUOUS
 10
1.406511
 20
-0.873295
  0
VERTEX
  8
EBENE_1
 62
    39
  6
CONTINUOUS
 10
1.402843
 20
-0.887074
  0
VERTEX
  8
EBENE_1
 62
    39
  6
CONTINUOUS
 10
1.398517
 20
-0.900802
  0
VERTEX
  8
EBENE_1
 62
    39
  6
CONTINUOUS
 10
1.393540
 20
-0.914468
  0
VERTEX
  8
EBENE_1
 62
    39
  6
CONTINUOUS
 10
1.387915
 20
-0.928065
  0
VERTEX
  8
EBENE_1
 62
    39
  6
CONTINUOUS
 10
1.381650
 20
-0.941585
  0
VERTEX
  8
EBENE_1
 62
    39
  6
CONTINUOUS
 10
1.374750
 20
-0.955017
  0
VERTEX
  8
EBENE_1
 62
    39
  6
CONTINUOUS
 10
1.367220
 20
-0.968354
  0
VERTEX
  8
EBENE_1
 62
    39
  6
CONTINUOUS
 10
1.359066
 20
-0.981587
  0
VERTEX
  8
EBENE_1
 62
    39
  6
CONTINUOUS
 10
1.350293
 20
-0.994707
  0
VERTEX
  8
EBENE_1
 62
    39
  6
CONTINUOUS
 10
1.340907
 20
-1.007706
  0
VERTEX
  8
EBENE_1
 62
    39
  6
CONTINUOUS
 10
1.330914
 20
-1.020575
  0
VERTEX
  8
EBENE_1
 62
    39
  6
CONTINUOUS
 10
1.320319
 20
-1.033305
  0
VERTEX
  8
EBENE_1
 62
    39
  6
CONTINUOUS
 10
1.309127
 20
-1.045888
  0
VERTEX
  8
EBENE_1
 62
    39
  6
CONTINUOUS
 10
1.297345
 20
-1.058314
  0
VERTEX
  8
EBENE_1
 62
    39
  6
CONTINUOUS
 10
1.284977
 20
-1.070576
  0
VERTEX
  8
EBENE_1
 62
    39
  6
CONTINUOUS
 10
1.272030
 20
-1.082664
  0
VERTEX
  8
EBENE_1
 62
    39
  6
CONTINUOUS
 10
1.258508
 20
-1.094571
  0
VERTEX
  8
EBENE_1
 62
    39
  6
CONTINUOUS
 10
1.244418
 20
-1.106286
  0
VERTEX
  8
EBENE_1
 62
    39
  6
CONTINUOUS
 10
1.229765
 20
-1.117802
  0
VERTEX
  8
EBENE_1
 62
    39
  6
CONTINUOUS
 10
1.214555
 20
-1.129110
  0
VERTEX
  8
EBENE_1
 62
    39
  6
CONTINUOUS
 10
1.198792
 20
-1.140201
  0
VERTEX
  8
EBENE_1
 62
    39
  6
CONTINUOUS
 10
1.182484
 20
-1.151067
  0
VERTEX
  8
EBENE_1
 62
    39
  6
CONTINUOUS
 10
1.165634
 20
-1.161698
  0
VERTEX
  8
EBENE_1
 62
    39
  6
CONTINUOUS
 10
1.148250
 20
-1.172087
  0
VERTEX
  8
EBENE_1
 62
    39
  6
CONTINUOUS
 10
1.130335
 20
-1.182225
  0
VERTEX
  8
EBENE_1
 62
    39
  6
CONTINUOUS
 10
1.111897
 20
-1.192102
  0
VERTEX
  8
EBENE_1
 62
    39
  6
CONTINUOUS
 10
1.092940
 20
-1.201710
  0
VERTEX
  8
EBENE_1
 62
    39
  6
CONTINUOUS
 10
1.073470
 20
-1.211041
  0
VERTEX
  8
EBENE_1
 62
    39
  6
CONTINUOUS
 10
1.053492
 20
-1.220086
  0
VERTEX
  8
EBENE_1
 62
    39
  6
CONTINUOUS
 10
1.033013
 20
-1.228836
  0
VERTEX
  8
EBENE_1
 62
    39
  6
CONTINUOUS
 10
1.012038
 20
-1.237282
  0
VERTEX
  8
EBENE_1
 62
    39
  6
CONTINUOUS
 10
0.990571
 20
-1.245416
  0
VERTEX
  8
EBENE_1
 62
    39
  6
CONTINUOUS
 10
0.968620
 20
-1.253230
  0
VERTEX
  8
EBENE_1
 62
    39
  6
CONTINUOUS
 10
0.946189
 20
-1.260714
  0
VERTEX
  8
EBENE_1
 62
    39
  6
CONTINUOUS
 10
0.923284
 20
-1.267860
  0
VERTEX
  8
EBENE_1
 62
    39
  6
CONTINUOUS
 10
0.899910
 20
-1.274658
  0
VERTEX
  8
EBENE_1
 62
    39
  6
CONTINUOUS
 10
0.876073
 20
-1.281102
  0
VERTEX
  8
EBENE_1
 62
    39
  6
CONTINUOUS
 10
0.851780
 20
-1.287181
  0
VERTEX
  8
EBENE_1
 62
    39
  6
CONTINUOUS
 10
0.851780
 20
-1.287181
  0
VERTEX
  8
EBENE_1
 62
    39
  6
CONTINUOUS
 10
0.842156
 20
-1.288917
  0
VERTEX
  8
EBENE_1
 62
    39
  6
CONTINUOUS
 10
0.831776
 20
-1.289966
  0
VERTEX
  8
EBENE_1
 62
    39
  6
CONTINUOUS
 10
0.820684
 20
-1.290329
  0
VERTEX
  8
EBENE_1
 62
    39
  6
CONTINUOUS
 10
0.808924
 20
-1.290011
  0
VERTEX
  8
EBENE_1
 62
    39
  6
CONTINUOUS
 10
0.796540
 20
-1.289013
  0
VERTEX
  8
EBENE_1
 62
    39
  6
CONTINUOUS
 10
0.783577
 20
-1.287339
  0
VERTEX
  8
EBENE_1
 62
    39
  6
CONTINUOUS
 10
0.770079
 20
-1.284992
  0
VERTEX
  8
EBENE_1
 62
    39
  6
CONTINUOUS
 10
0.756090
 20
-1.281975
  0
VERTEX
  8
EBENE_1
 62
    39
  6
CONTINUOUS
 10
0.741654
 20
-1.278291
  0
VERTEX
  8
EBENE_1
 62
    39
  6
CONTINUOUS
 10
0.726815
 20
-1.273942
  0
VERTEX
  8
EBENE_1
 62
    39
  6
CONTINUOUS
 10
0.711618
 20
-1.268932
  0
VERTEX
  8
EBENE_1
 62
    39
  6
CONTINUOUS
 10
0.696107
 20
-1.263264
  0
VERTEX
  8
EBENE_1
 62
    39
  6
CONTINUOUS
 10
0.680325
 20
-1.256940
  0
VERTEX
  8
EBENE_1
 62
    39
  6
CONTINUOUS
 10
0.664318
 20
-1.249964
  0
VERTEX
  8
EBENE_1
 62
    39
  6
CONTINUOUS
 10
0.648129
 20
-1.242339
  0
VERTEX
  8
EBENE_1
 62
    39
  6
CONTINUOUS
 10
0.631802
 20
-1.234067
  0
VERTEX
  8
EBENE_1
 62
    39
  6
CONTINUOUS
 10
0.615383
 20
-1.225151
  0
VERTEX
  8
EBENE_1
 62
    39
  6
CONTINUOUS
 10
0.598914
 20
-1.215595
  0
VERTEX
  8
EBENE_1
 62
    39
  6
CONTINUOUS
 10
0.582440
 20
-1.205401
  0
VERTEX
  8
EBENE_1
 62
    39
  6
CONTINUOUS
 10
0.566006
 20
-1.194572
  0
VERTEX
  8
EBENE_1
 62
    39
  6
CONTINUOUS
 10
0.549655
 20
-1.183112
  0
VERTEX
  8
EBENE_1
 62
    39
  6
CONTINUOUS
 10
0.533431
 20
-1.171022
  0
VERTEX
  8
EBENE_1
 62
    39
  6
CONTINUOUS
 10
0.517380
 20
-1.158307
  0
VERTEX
  8
EBENE_1
 62
    39
  6
CONTINUOUS
 10
0.501545
 20
-1.144969
  0
VERTEX
  8
EBENE_1
 62
    39
  6
CONTINUOUS
 10
0.485970
 20
-1.131012
  0
VERTEX
  8
EBENE_1
 62
    39
  6
CONTINUOUS
 10
0.470699
 20
-1.116437
  0
VERTEX
  8
EBENE_1
 62
    39
  6
CONTINUOUS
 10
0.455778
 20
-1.101248
  0
VERTEX
  8
EBENE_1
 62
    39
  6
CONTINUOUS
 10
0.441249
 20
-1.085448
  0
VERTEX
  8
EBENE_1
 62
    39
  6
CONTINUOUS
 10
0.427157
 20
-1.069040
  0
VERTEX
  8
EBENE_1
 62
    39
  6
CONTINUOUS
 10
0.413546
 20
-1.052027
  0
VERTEX
  8
EBENE_1
 62
    39
  6
CONTINUOUS
 10
0.400461
 20
-1.034412
  0
VERTEX
  8
EBENE_1
 62
    39
  6
CONTINUOUS
 10
0.387946
 20
-1.016197
  0
VERTEX
  8
EBENE_1
 62
    39
  6
CONTINUOUS
 10
0.376044
 20
-0.997386
  0
VERTEX
  8
EBENE_1
 62
    39
  6
CONTINUOUS
 10
0.364801
 20
-0.977982
  0
VERTEX
  8
EBENE_1
 62
    39
  6
CONTINUOUS
 10
0.354260
 20
-0.957988
  0
VERTEX
  8
EBENE_1
 62
    39
  6
CONTINUOUS
 10
0.344465
 20
-0.937406
  0
VERTEX
  8
EBENE_1
 62
    39
  6
CONTINUOUS
 10
0.335461
 20
-0.916240
  0
VERTEX
  8
EBENE_1
 62
    39
  6
CONTINUOUS
 10
0.327291
 20
-0.894492
  0
VERTEX
  8
EBENE_1
 62
    39
  6
CONTINUOUS
 10
0.327291
 20
-0.894492
  0
VERTEX
  8
EBENE_1
 62
    39
  6
CONTINUOUS
 10
0.323559
 20
-0.868822
  0
VERTEX
  8
EBENE_1
 62
    39
  6
CONTINUOUS
 10
0.322573
 20
-0.844608
  0
VERTEX
  8
EBENE_1
 62
    39
  6
CONTINUOUS
 10
0.324161
 20
-0.821966
  0
VERTEX
  8
EBENE_1
 62
    39
  6
CONTINUOUS
 10
0.328153
 20
-0.801012
  0
VERTEX
  8
EBENE_1
 62
    39
  6
CONTINUOUS
 10
0.334378
 20
-0.781862
  0
VERTEX
  8
EBENE_1
 62
    39
  6
CONTINUOUS
 10
0.342666
 20
-0.764631
  0
VERTEX
  8
EBENE_1
 62
    39
  6
CONTINUOUS
 10
0.352846
 20
-0.749436
  0
VERTEX
  8
EBENE_1
 62
    39
  6
CONTINUOUS
 10
0.364747
 20
-0.736393
  0
VERTEX
  8
EBENE_1
 62
    39
  6
CONTINUOUS
 10
0.378200
 20
-0.725616
  0
VERTEX
  8
EBENE_1
 62
    39
  6
CONTINUOUS
 10
0.393033
 20
-0.717222
  0
VERTEX
  8
EBENE_1
 62
    39
  6
CONTINUOUS
 10
0.409075
 20
-0.711327
  0
VERTEX
  8
EBENE_1
 62
    39
  6
CONTINUOUS
 10
1.341122
 20
-0.456516
  0
SEQEND
  8
0
  0
POLYLINE
  8
EBENE_1
 62
    39
  6
CONTINUOUS
 66
     1
 40
0.003000
 41
0.003000
  0
VERTEX
  8
EBENE_1
 62
    39
  6
CONTINUOUS
 10
-0.333724
 20
-0.461248
  0
VERTEX
  8
EBENE_1
 62
    39
  6
CONTINUOUS
 10
-0.016736
 20
-0.981004
  0
VERTEX
  8
EBENE_1
 62
    39
  6
CONTINUOUS
 10
-0.348591
 20
-1.067520
  0
SEQEND
  8
0
  0
POLYLINE
  8
EBENE_1
 62
    39
  6
CONTINUOUS
 66
     1
 40
0.003000
 41
0.003000
  0
VERTEX
  8
EBENE_1
 62
    39
  6
CONTINUOUS
 10
-0.348591
 20
-1.067520
  0
VERTEX
  8
EBENE_1
 62
    39
  6
CONTINUOUS
 10
-0.358380
 20
-1.069302
  0
VERTEX
  8
EBENE_1
 62
    39
  6
CONTINUOUS
 10
-0.368937
 20
-1.070383
  0
VERTEX
  8
EBENE_1
 62
    39
  6
CONTINUOUS
 10
-0.380215
 20
-1.070765
  0
VERTEX
  8
EBENE_1
 62
    39
  6
CONTINUOUS
 10
-0.392170
 20
-1.070451
  0
VERTEX
  8
EBENE_1
 62
    39
  6
CONTINUOUS
 10
-0.404758
 20
-1.069445
  0
VERTEX
  8
EBENE_1
 62
    39
  6
CONTINUOUS
 10
-0.417933
 20
-1.067749
  0
VERTEX
  8
EBENE_1
 62
    39
  6
CONTINUOUS
 10
-0.431650
 20
-1.065367
  0
VERTEX
  8
EBENE_1
 62
    39
  6
CONTINUOUS
 10
-0.445865
 20
-1.062302
  0
VERTEX
  8
EBENE_1
 62
    39
  6
CONTINUOUS
 10
-0.460533
 20
-1.058557
  0
VERTEX
  8
EBENE_1
 62
    39
  6
CONTINUOUS
 10
-0.475608
 20
-1.054135
  0
VERTEX
  8
EBENE_1
 62
    39
  6
CONTINUOUS
 10
-0.491047
 20
-1.049039
  0
VERTEX
  8
EBENE_1
 62
    39
  6
CONTINUOUS
 10
-0.506804
 20
-1.043272
  0
VERTEX
  8
EBENE_1
 62
    39
  6
CONTINUOUS
 10
-0.522834
 20
-1.036838
  0
VERTEX
  8
EBENE_1
 62
    39
  6
CONTINUOUS
 10
-0.539092
 20
-1.029739
  0
VERTEX
  8
EBENE_1
 62
    39
  6
CONTINUOUS
 10
-0.555534
 20
-1.021979
  0
VERTEX
  8
EBENE_1
 62
    39
  6
CONTINUOUS
 10
-0.572115
 20
-1.013560
  0
VERTEX
  8
EBENE_1
 62
    39
  6
CONTINUOUS
 10
-0.588790
 20
-1.004486
  0
VERTEX
  8
EBENE_1
 62
    39
  6
CONTINUOUS
 10
-0.605513
 20
-0.994760
  0
VERTEX
  8
EBENE_1
 62
    39
  6
CONTINUOUS
 10
-0.622241
 20
-0.984385
  0
VERTEX
  8
EBENE_1
 62
    39
  6
CONTINUOUS
 10
-0.638928
 20
-0.973364
  0
VERTEX
  8
EBENE_1
 62
    39
  6
CONTINUOUS
 10
-0.655530
 20
-0.961700
  0
VERTEX
  8
EBENE_1
 62
    39
  6
CONTINUOUS
 10
-0.672001
 20
-0.949396
  0
VERTEX
  8
EBENE_1
 62
    39
  6
CONTINUOUS
 10
-0.688297
 20
-0.936456
  0
VERTEX
  8
EBENE_1
 62
    39
  6
CONTINUOUS
 10
-0.704372
 20
-0.922882
  0
VERTEX
  8
EBENE_1
 62
    39
  6
CONTINUOUS
 10
-0.720183
 20
-0.908678
  0
VERTEX
  8
EBENE_1
 62
    39
  6
CONTINUOUS
 10
-0.735684
 20
-0.893847
  0
VERTEX
  8
EBENE_1
 62
    39
  6
CONTINUOUS
 10
-0.750830
 20
-0.878391
  0
VERTEX
  8
EBENE_1
 62
    39
  6
CONTINUOUS
 10
-0.765576
 20
-0.862315
  0
VERTEX
  8
EBENE_1
 62
    39
  6
CONTINUOUS
 10
-0.779878
 20
-0.845620
  0
VERTEX
  8
EBENE_1
 62
    39
  6
CONTINUOUS
 10
-0.793691
 20
-0.828310
  0
VERTEX
  8
EBENE_1
 62
    39
  6
CONTINUOUS
 10
-0.806969
 20
-0.810389
  0
VERTEX
  8
EBENE_1
 62
    39
  6
CONTINUOUS
 10
-0.819668
 20
-0.791859
  0
VERTEX
  8
EBENE_1
 62
    39
  6
CONTINUOUS
 10
-0.831744
 20
-0.772723
  0
VERTEX
  8
EBENE_1
 62
    39
  6
CONTINUOUS
 10
-0.843151
 20
-0.752985
  0
VERTEX
  8
EBENE_1
 62
    39
  6
CONTINUOUS
 10
-0.853844
 20
-0.732648
  0
VERTEX
  8
EBENE_1
 62
    39
  6
CONTINUOUS
 10
-0.863778
 20
-0.711714
  0
VERTEX
  8
EBENE_1
 62
    39
  6
CONTINUOUS
 10
-0.872910
 20
-0.690188
  0
VERTEX
  8
EBENE_1
 62
    39
  6
CONTINUOUS
 10
-0.881193
 20
-0.668071
  0
SEQEND
  8
0
  0
POLYLINE
  8
EBENE_1
 62
    39
  6
CONTINUOUS
 66
     1
 40
0.003000
 41
0.003000
  0
VERTEX
  8
EBENE_1
 62
    39
  6
CONTINUOUS
 10
-0.881193
 20
-0.668071
  0
VERTEX
  8
EBENE_1
 62
    39
  6
CONTINUOUS
 10
-0.885076
 20
-0.642033
  0
VERTEX
  8
EBENE_1
 62
    39
  6
CONTINUOUS
 10
-0.886151
 20
-0.617458
  0
VERTEX
  8
EBENE_1
 62
    39
  6
CONTINUOUS
 10
-0.884589
 20
-0.594467
  0
VERTEX
  8
EBENE_1
 62
    39
  6
CONTINUOUS
 10
-0.880566
 20
-0.573182
  0
VERTEX
  8
EBENE_1
 62
    39
  6
CONTINUOUS
 10
-0.874254
 20
-0.553726
  0
VERTEX
  8
EBENE_1
 62
    39
  6
CONTINUOUS
 10
-0.865828
 20
-0.536219
  0
VERTEX
  8
EBENE_1
 62
    39
  6
CONTINUOUS
 10
-0.855461
 20
-0.520784
  0
VERTEX
  8
EBENE_1
 62
    39
  6
CONTINUOUS
 10
-0.843327
 20
-0.507543
  0
VERTEX
  8
EBENE_1
 62
    39
  6
CONTINUOUS
 10
-0.829600
 20
-0.496618
  0
VERTEX
  8
EBENE_1
 62
    39
  6
CONTINUOUS
 10
-0.814452
 20
-0.488130
  0
VERTEX
  8
EBENE_1
 62
    39
  6
CONTINUOUS
 10
-0.798059
 20
-0.482201
  0
SEQEND
  8
0
  0
POLYLINE
  8
EBENE_1
 62
    39
  6
CONTINUOUS
 66
     1
 40
0.003000
 41
0.003000
  0
VERTEX
  8
EBENE_1
 62
    39
  6
CONTINUOUS
 10
-0.798059
 20
-0.482201
  0
VERTEX
  8
EBENE_1
 62
    39
  6
CONTINUOUS
 10
-0.452681
 20
-0.390280
  0
SEQEND
  8
0
  0
POLYLINE
  8
EBENE_1
 62
    39
  6
CONTINUOUS
 66
     1
 40
0.003000
 41
0.003000
  0
VERTEX
  8
EBENE_1
 62
    39
  6
CONTINUOUS
 10
-0.452681
 20
-0.390280
  0
VERTEX
  8
EBENE_1
 62
    39
  6
CONTINUOUS
 10
-0.428241
 20
-0.385816
  0
VERTEX
  8
EBENE_1
 62
    39
  6
CONTINUOUS
 10
-0.409164
 20
-0.386659
  0
VERTEX
  8
EBENE_1
 62
    39
  6
CONTINUOUS
 10
-0.394353
 20
-0.391857
  0
VERTEX
  8
EBENE_1
 62
    39
  6
CONTINUOUS
 10
-0.382714
 20
-0.400460
  0
VERTEX
  8
EBENE_1
 62
    39
  6
CONTINUOUS
 10
-0.373149
 20
-0.411516
  0
VERTEX
  8
EBENE_1
 62
    39
  6
CONTINUOUS
 10
-0.364564
 20
-0.424075
  0
VERTEX
  8
EBENE_1
 62
    39
  6
CONTINUOUS
 10
-0.355862
 20
-0.437183
  0
VERTEX
  8
EBENE_1
 62
    39
  6
CONTINUOUS
 10
-0.345948
 20
-0.449892
  0
VERTEX
  8
EBENE_1
 62
    39
  6
CONTINUOUS
 10
-0.333724
 20
-0.461248
  0
SEQEND
  8
0
  0
POLYLINE
  8
EBENE_1
 62
    39
  6
CONTINUOUS
 66
     1
 40
0.003000
 41
0.003000
 70
     1
  0
VERTEX
  8
EBENE_1
 62
    39
  6
CONTINUOUS
 10
-0.333724
 20
-0.463276
  0
VERTEX
  8
EBENE_1
 62
    39
  6
CONTINUOUS
 10
-0.022142
 20
-0.974921
  0
VERTEX
  8
EBENE_1
 62
    39
  6
CONTINUOUS
 10
-0.347917
 20
-1.060083
  0
VERTEX
  8
EBENE_1
 62
    39
  6
CONTINUOUS
 10
-0.357541
 20
-1.061819
  0
VERTEX
  8
EBENE_1
 62
    39
  6
CONTINUOUS
 10
-0.367922
 20
-1.062867
  0
VERTEX
  8
EBENE_1
 62
    39
  6
CONTINUOUS
 10
-0.379014
 20
-1.063230
  0
VERTEX
  8
EBENE_1
 62
    39
  6
CONTINUOUS
 10
-0.390773
 20
-1.062911
  0
VERTEX
  8
EBENE_1
 62
    39
  6
CONTINUOUS
 10
-0.403156
 20
-1.061913
  0
VERTEX
  8
EBENE_1
 62
    39
  6
CONTINUOUS
 10
-0.416118
 20
-1.060238
  0
VERTEX
  8
EBENE_1
 62
    39
  6
CONTINUOUS
 10
-0.429615
 20
-1.057890
  0
VERTEX
  8
EBENE_1
 62
    39
  6
CONTINUOUS
 10
-0.443602
 20
-1.054870
  0
VERTEX
  8
EBENE_1
 62
    39
  6
CONTINUOUS
 10
-0.458035
 20
-1.051183
  0
VERTEX
  8
EBENE_1
 62
    39
  6
CONTINUOUS
 10
-0.472871
 20
-1.046831
  0
VERTEX
  8
EBENE_1
 62
    39
  6
CONTINUOUS
 10
-0.488064
 20
-1.041817
  0
VERTEX
  8
EBENE_1
 62
    39
  6
CONTINUOUS
 10
-0.503571
 20
-1.036144
  0
VERTEX
  8
EBENE_1
 62
    39
  6
CONTINUOUS
 10
-0.519346
 20
-1.029815
  0
VERTEX
  8
EBENE_1
 62
    39
  6
CONTINUOUS
 10
-0.535347
 20
-1.022832
  0
VERTEX
  8
EBENE_1
 62
    39
  6
CONTINUOUS
 10
-0.551528
 20
-1.015199
  0
VERTEX
  8
EBENE_1
 62
    39
  6
CONTINUOUS
 10
-0.567846
 20
-1.006918
  0
VERTEX
  8
EBENE_1
 62
    39
  6
CONTINUOUS
 10
-0.584255
 20
-0.997992
  0
VERTEX
  8
EBENE_1
 62
    39
  6
CONTINUOUS
 10
-0.600713
 20
-0.988424
  0
VERTEX
  8
EBENE_1
 62
    39
  6
CONTINUOUS
 10
-0.617174
 20
-0.978218
  0
VERTEX
  8
EBENE_1
 62
    39
  6
CONTINUOUS
 10
-0.633594
 20
-0.967375
  0
VERTEX
  8
EBENE_1
 62
    39
  6
CONTINUOUS
 10
-0.649929
 20
-0.955899
  0
VERTEX
  8
EBENE_1
 62
    39
  6
CONTINUOUS
 10
-0.666135
 20
-0.943792
  0
VERTEX
  8
EBENE_1
 62
    39
  6
CONTINUOUS
 10
-0.682168
 20
-0.931059
  0
VERTEX
  8
EBENE_1
 62
    39
  6
CONTINUOUS
 10
-0.697982
 20
-0.917700
  0
VERTEX
  8
EBENE_1
 62
    39
  6
CONTINUOUS
 10
-0.713535
 20
-0.903720
  0
VERTEX
  8
EBENE_1
 62
    39
  6
CONTINUOUS
 10
-0.728781
 20
-0.889121
  0
VERTEX
  8
EBENE_1
 62
    39
  6
CONTINUOUS
 10
-0.743677
 20
-0.873907
  0
VERTEX
  8
EBENE_1
 62
    39
  6
CONTINUOUS
 10
-0.758178
 20
-0.858079
  0
VERTEX
  8
EBENE_1
 62
    39
  6
CONTINUOUS
 10
-0.772239
 20
-0.841641
  0
VERTEX
  8
EBENE_1
 62
    39
  6
CONTINUOUS
 10
-0.785818
 20
-0.824595
  0
VERTEX
  8
EBENE_1
 62
    39
  6
CONTINUOUS
 10
-0.798868
 20
-0.806946
  0
VERTEX
  8
EBENE_1
 62
    39
  6
CONTINUOUS
 10
-0.811347
 20
-0.788694
  0
VERTEX
  8
EBENE_1
 62
    39
  6
CONTINUOUS
 10
-0.823209
 20
-0.769845
  0
VERTEX
  8
EBENE_1
 62
    39
  6
CONTINUOUS
 10
-0.834411
 20
-0.750399
  0
VERTEX
  8
EBENE_1
 62
    39
  6
CONTINUOUS
 10
-0.844908
 20
-0.730360
  0
VERTEX
  8
EBENE_1
 62
    39
  6
CONTINUOUS
 10
-0.854656
 20
-0.709732
  0
VERTEX
  8
EBENE_1
 62
    39
  6
CONTINUOUS
 10
-0.863611
 20
-0.688516
  0
VERTEX
  8
EBENE_1
 62
    39
  6
CONTINUOUS
 10
-0.871728
 20
-0.666717
  0
VERTEX
  8
EBENE_1
 62
    39
  6
CONTINUOUS
 10
-0.871728
 20
-0.666717
  0
VERTEX
  8
EBENE_1
 62
    39
  6
CONTINUOUS
 10
-0.875629
 20
-0.641215
  0
VERTEX
  8
EBENE_1
 62
    39
  6
CONTINUOUS
 10
-0.876753
 20
-0.617139
  0
VERTEX
  8
EBENE_1
 62
    39
  6
CONTINUOUS
 10
-0.875276
 20
-0.594607
  0
VERTEX
  8
EBENE_1
 62
    39
  6
CONTINUOUS
 10
-0.871370
 20
-0.573740
  0
VERTEX
  8
EBENE_1
 62
    39
  6
CONTINUOUS
 10
-0.865210
 20
-0.554655
  0
VERTEX
  8
EBENE_1
 62
    39
  6
CONTINUOUS
 10
-0.856968
 20
-0.537471
  0
VERTEX
  8
EBENE_1
 62
    39
  6
CONTINUOUS
 10
-0.846819
 20
-0.522307
  0
VERTEX
  8
EBENE_1
 62
    39
  6
CONTINUOUS
 10
-0.834937
 20
-0.509282
  0
VERTEX
  8
EBENE_1
 62
    39
  6
CONTINUOUS
 10
-0.821495
 20
-0.498515
  0
VERTEX
  8
EBENE_1
 62
    39
  6
CONTINUOUS
 10
-0.806667
 20
-0.490124
  0
VERTEX
  8
EBENE_1
 62
    39
  6
CONTINUOUS
 10
-0.790626
 20
-0.484228
  0
VERTEX
  8
EBENE_1
 62
    39
  6
CONTINUOUS
 10
-0.450654
 20
-0.393657
  0
VERTEX
  8
EBENE_1
 62
    39
  6
CONTINUOUS
 10
-0.426616
 20
-0.389192
  0
VERTEX
  8
EBENE_1
 62
    39
  6
CONTINUOUS
 10
-0.407858
 20
-0.390022
  0
VERTEX
  8
EBENE_1
 62
    39
  6
CONTINUOUS
 10
-0.393301
 20
-0.395185
  0
VERTEX
  8
EBENE_1
 62
    39
  6
CONTINUOUS
 10
-0.381864
 20
-0.403720
  0
VERTEX
  8
EBENE_1
 62
    39
  6
CONTINUOUS
 10
-0.372470
 20
-0.414663
  0
VERTEX
  8
EBENE_1
 62
    39
  6
CONTINUOUS
 10
-0.364038
 20
-0.427052
  0
VERTEX
  8
EBENE_1
 62
    39
  6
CONTINUOUS
 10
-0.355489
 20
-0.439926
  0
VERTEX
  8
EBENE_1
 62
    39
  6
CONTINUOUS
 10
-0.345744
 20
-0.452321
  0
SEQEND
  8
0
  0
POLYLINE
  8
EBENE_1
 62
    39
  6
CONTINUOUS
 66
     1
 40
0.003000
 41
0.003000
  0
VERTEX
  8
EBENE_1
 62
    39
  6
CONTINUOUS
 10
-0.610839
 20
-0.486929
  0
VERTEX
  8
EBENE_1
 62
    39
  6
CONTINUOUS
 10
-0.605156
 20
-0.485453
  0
VERTEX
  8
EBENE_1
 62
    39
  6
CONTINUOUS
 10
-0.600974
 20
-0.481424
  0
VERTEX
  8
EBENE_1
 62
    39
  6
CONTINUOUS
 10
-0.599346
 20
-0.475441
  0
SEQEND
  8
0
  0
POLYLINE
  8
EBENE_1
 62
    39
  6
CONTINUOUS
 66
     1
 40
0.003000
 41
0.003000
  0
VERTEX
  8
EBENE_1
 62
    39
  6
CONTINUOUS
 10
-0.599346
 20
-0.475441
  0
VERTEX
  8
EBENE_1
 62
    39
  6
CONTINUOUS
 10
-0.600974
 20
-0.469934
  0
VERTEX
  8
EBENE_1
 62
    39
  6
CONTINUOUS
 10
-0.605156
 20
-0.466078
  0
VERTEX
  8
EBENE_1
 62
    39
  6
CONTINUOUS
 10
-0.610839
 20
-0.464626
  0
SEQEND
  8
0
  0
POLYLINE
  8
EBENE_1
 62
    39
  6
CONTINUOUS
 66
     1
 40
0.003000
 41
0.003000
  0
VERTEX
  8
EBENE_1
 62
    39
  6
CONTINUOUS
 10
-0.610839
 20
-0.464626
  0
VERTEX
  8
EBENE_1
 62
    39
  6
CONTINUOUS
 10
-0.616520
 20
-0.466078
  0
VERTEX
  8
EBENE_1
 62
    39
  6
CONTINUOUS
 10
-0.620700
 20
-0.469934
  0
VERTEX
  8
EBENE_1
 62
    39
  6
CONTINUOUS
 10
-0.622327
 20
-0.475441
  0
SEQEND
  8
0
  0
POLYLINE
  8
EBENE_1
 62
    39
  6
CONTINUOUS
 66
     1
 40
0.003000
 41
0.003000
  0
VERTEX
  8
EBENE_1
 62
    39
  6
CONTINUOUS
 10
-0.622327
 20
-0.475441
  0
VERTEX
  8
EBENE_1
 62
    39
  6
CONTINUOUS
 10
-0.620700
 20
-0.481424
  0
VERTEX
  8
EBENE_1
 62
    39
  6
CONTINUOUS
 10
-0.616520
 20
-0.485453
  0
VERTEX
  8
EBENE_1
 62
    39
  6
CONTINUOUS
 10
-0.610839
 20
-0.486929
  0
SEQEND
  8
0
  0
POLYLINE
  8
EBENE_1
 62
    39
  6
CONTINUOUS
 66
     1
 40
0.003000
 41
0.003000
  0
VERTEX
  8
EBENE_1
 62
    39
  6
CONTINUOUS
 10
-0.489177
 20
-0.461248
  0
VERTEX
  8
EBENE_1
 62
    39
  6
CONTINUOUS
 10
-0.483495
 20
-0.459620
  0
VERTEX
  8
EBENE_1
 62
    39
  6
CONTINUOUS
 10
-0.479316
 20
-0.455439
  0
VERTEX
  8
EBENE_1
 62
    39
  6
CONTINUOUS
 10
-0.477689
 20
-0.449756
  0
SEQEND
  8
0
  0
POLYLINE
  8
EBENE_1
 62
    39
  6
CONTINUOUS
 66
     1
 40
0.003000
 41
0.003000
  0
VERTEX
  8
EBENE_1
 62
    39
  6
CONTINUOUS
 10
-0.477689
 20
-0.449756
  0
VERTEX
  8
EBENE_1
 62
    39
  6
CONTINUOUS
 10
-0.479316
 20
-0.444074
  0
VERTEX
  8
EBENE_1
 62
    39
  6
CONTINUOUS
 10
-0.483495
 20
-0.439894
  0
VERTEX
  8
EBENE_1
 62
    39
  6
CONTINUOUS
 10
-0.489177
 20
-0.438268
  0
SEQEND
  8
0
  0
POLYLINE
  8
EBENE_1
 62
    39
  6
CONTINUOUS
 66
     1
 40
0.003000
 41
0.003000
  0
VERTEX
  8
EBENE_1
 62
    39
  6
CONTINUOUS
 10
-0.489177
 20
-0.438268
  0
VERTEX
  8
EBENE_1
 62
    39
  6
CONTINUOUS
 10
-0.495160
 20
-0.439894
  0
VERTEX
  8
EBENE_1
 62
    39
  6
CONTINUOUS
 10
-0.499189
 20
-0.444074
  0
VERTEX
  8
EBENE_1
 62
    39
  6
CONTINUOUS
 10
-0.500665
 20
-0.449756
  0
SEQEND
  8
0
  0
POLYLINE
  8
EBENE_1
 62
    39
  6
CONTINUOUS
 66
     1
 40
0.003000
 41
0.003000
  0
VERTEX
  8
EBENE_1
 62
    39
  6
CONTINUOUS
 10
-0.500665
 20
-0.449756
  0
VERTEX
  8
EBENE_1
 62
    39
  6
CONTINUOUS
 10
-0.499189
 20
-0.455439
  0
VERTEX
  8
EBENE_1
 62
    39
  6
CONTINUOUS
 10
-0.495160
 20
-0.459620
  0
VERTEX
  8
EBENE_1
 62
    39
  6
CONTINUOUS
 10
-0.489177
 20
-0.461248
  0
SEQEND
  8
0
  0
POLYLINE
  8
EBENE_1
 62
    39
  6
CONTINUOUS
 66
     1
 40
0.003000
 41
0.003000
  0
VERTEX
  8
EBENE_1
 62
    39
  6
CONTINUOUS
 10
-0.370898
 20
-0.506531
  0
VERTEX
  8
EBENE_1
 62
    39
  6
CONTINUOUS
 10
-0.364914
 20
-0.505054
  0
VERTEX
  8
EBENE_1
 62
    39
  6
CONTINUOUS
 10
-0.360883
 20
-0.501024
  0
VERTEX
  8
EBENE_1
 62
    39
  6
CONTINUOUS
 10
-0.359406
 20
-0.495043
  0
SEQEND
  8
0
  0
POLYLINE
  8
EBENE_1
 62
    39
  6
CONTINUOUS
 66
     1
 40
0.003000
 41
0.003000
  0
VERTEX
  8
EBENE_1
 62
    39
  6
CONTINUOUS
 10
-0.359406
 20
-0.495043
  0
VERTEX
  8
EBENE_1
 62
    39
  6
CONTINUOUS
 10
-0.360883
 20
-0.489534
  0
VERTEX
  8
EBENE_1
 62
    39
  6
CONTINUOUS
 10
-0.364914
 20
-0.485680
  0
VERTEX
  8
EBENE_1
 62
    39
  6
CONTINUOUS
 10
-0.370898
 20
-0.484228
  0
SEQEND
  8
0
  0
POLYLINE
  8
EBENE_1
 62
    39
  6
CONTINUOUS
 66
     1
 40
0.003000
 41
0.003000
  0
VERTEX
  8
EBENE_1
 62
    39
  6
CONTINUOUS
 10
-0.370898
 20
-0.484228
  0
VERTEX
  8
EBENE_1
 62
    39
  6
CONTINUOUS
 10
-0.376579
 20
-0.485680
  0
VERTEX
  8
EBENE_1
 62
    39
  6
CONTINUOUS
 10
-0.380759
 20
-0.489534
  0
VERTEX
  8
EBENE_1
 62
    39
  6
CONTINUOUS
 10
-0.382386
 20
-0.495043
  0
SEQEND
  8
0
  0
POLYLINE
  8
EBENE_1
 62
    39
  6
CONTINUOUS
 66
     1
 40
0.003000
 41
0.003000
  0
VERTEX
  8
EBENE_1
 62
    39
  6
CONTINUOUS
 10
-0.382386
 20
-0.495043
  0
VERTEX
  8
EBENE_1
 62
    39
  6
CONTINUOUS
 10
-0.380759
 20
-0.501024
  0
VERTEX
  8
EBENE_1
 62
    39
  6
CONTINUOUS
 10
-0.376579
 20
-0.505054
  0
VERTEX
  8
EBENE_1
 62
    39
  6
CONTINUOUS
 10
-0.370898
 20
-0.506531
  0
SEQEND
  8
0
  0
POLYLINE
  8
EBENE_1
 62
    39
  6
CONTINUOUS
 66
     1
 40
0.003000
 41
0.003000
 70
     1
  0
VERTEX
  8
EBENE_1
 62
    39
  6
CONTINUOUS
 10
1.403980
 20
-0.360539
  0
VERTEX
  8
EBENE_1
 62
    39
  6
CONTINUOUS
 10
1.409390
 20
-0.839744
  0
VERTEX
  8
EBENE_1
 62
    39
  6
CONTINUOUS
 10
1.406940
 20
-0.853310
  0
VERTEX
  8
EBENE_1
 62
    39
  6
CONTINUOUS
 10
1.403853
 20
-0.866861
  0
VERTEX
  8
EBENE_1
 62
    39
  6
CONTINUOUS
 10
1.400133
 20
-0.880390
  0
VERTEX
  8
EBENE_1
 62
    39
  6
CONTINUOUS
 10
1.395778
 20
-0.893888
  0
VERTEX
  8
EBENE_1
 62
    39
  6
CONTINUOUS
 10
1.390791
 20
-0.907346
  0
VERTEX
  8
EBENE_1
 62
    39
  6
CONTINUOUS
 10
1.385174
 20
-0.920756
  0
VERTEX
  8
EBENE_1
 62
    39
  6
CONTINUOUS
 10
1.378926
 20
-0.934109
  0
VERTEX
  8
EBENE_1
 62
    39
  6
CONTINUOUS
 10
1.372050
 20
-0.947396
  0
VERTEX
  8
EBENE_1
 62
    39
  6
CONTINUOUS
 10
1.364546
 20
-0.960609
  0
VERTEX
  8
EBENE_1
 62
    39
  6
CONTINUOUS
 10
1.356416
 20
-0.973739
  0
VERTEX
  8
EBENE_1
 62
    39
  6
CONTINUOUS
 10
1.347662
 20
-0.986778
  0
VERTEX
  8
EBENE_1
 62
    39
  6
CONTINUOUS
 10
1.338283
 20
-0.999716
  0
VERTEX
  8
EBENE_1
 62
    39
  6
CONTINUOUS
 10
1.328282
 20
-1.012546
  0
VERTEX
  8
EBENE_1
 62
    39
  6
CONTINUOUS
 10
1.317660
 20
-1.025259
  0
VERTEX
  8
EBENE_1
 62
    39
  6
CONTINUOUS
 10
1.306418
 20
-1.037845
  0
VERTEX
  8
EBENE_1
 62
    39
  6
CONTINUOUS
 10
1.294557
 20
-1.050297
  0
VERTEX
  8
EBENE_1
 62
    39
  6
CONTINUOUS
 10
1.282079
 20
-1.062606
  0
VERTEX
  8
EBENE_1
 62
    39
  6
CONTINUOUS
 10
1.268984
 20
-1.074764
  0
VERTEX
  8
EBENE_1
 62
    39
  6
CONTINUOUS
 10
1.255275
 20
-1.086760
  0
VERTEX
  8
EBENE_1
 62
    39
  6
CONTINUOUS
 10
1.240951
 20
-1.098588
  0
VERTEX
  8
EBENE_1
 62
    39
  6
CONTINUOUS
 10
1.226015
 20
-1.110238
  0
VERTEX
  8
EBENE_1
 62
    39
  6
CONTINUOUS
 10
1.210467
 20
-1.121702
  0
VERTEX
  8
EBENE_1
 62
    39
  6
CONTINUOUS
 10
1.194309
 20
-1.132971
  0
VERTEX
  8
EBENE_1
 62
    39
  6
CONTINUOUS
 10
1.177543
 20
-1.144037
  0
VERTEX
  8
EBENE_1
 62
    39
  6
CONTINUOUS
 10
1.160168
 20
-1.154890
  0
VERTEX
  8
EBENE_1
 62
    39
  6
CONTINUOUS
 10
1.142187
 20
-1.165523
  0
VERTEX
  8
EBENE_1
 62
    39
  6
CONTINUOUS
 10
1.123601
 20
-1.175927
  0
VERTEX
  8
EBENE_1
 62
    39
  6
CONTINUOUS
 10
1.104411
 20
-1.186093
  0
VERTEX
  8
EBENE_1
 62
    39
  6
CONTINUOUS
 10
1.084618
 20
-1.196012
  0
VERTEX
  8
EBENE_1
 62
    39
  6
CONTINUOUS
 10
1.064224
 20
-1.205676
  0
VERTEX
  8
EBENE_1
 62
    39
  6
CONTINUOUS
 10
1.043229
 20
-1.215076
  0
VERTEX
  8
EBENE_1
 62
    39
  6
CONTINUOUS
 10
1.021635
 20
-1.224204
  0
VERTEX
  8
EBENE_1
 62
    39
  6
CONTINUOUS
 10
0.999443
 20
-1.233050
  0
VERTEX
  8
EBENE_1
 62
    39
  6
CONTINUOUS
 10
0.976655
 20
-1.241608
  0
VERTEX
  8
EBENE_1
 62
    39
  6
CONTINUOUS
 10
0.953271
 20
-1.249867
  0
VERTEX
  8
EBENE_1
 62
    39
  6
CONTINUOUS
 10
0.929293
 20
-1.257819
  0
VERTEX
  8
EBENE_1
 62
    39
  6
CONTINUOUS
 10
0.904723
 20
-1.265455
  0
VERTEX
  8
EBENE_1
 62
    39
  6
CONTINUOUS
 10
0.879560
 20
-1.272768
  0
VERTEX
  8
EBENE_1
 62
    39
  6
CONTINUOUS
 10
0.853807
 20
-1.279748
  0
VERTEX
  8
EBENE_1
 62
    39
  6
CONTINUOUS
 10
0.853807
 20
-1.279748
  0
VERTEX
  8
EBENE_1
 62
    39
  6
CONTINUOUS
 10
0.843710
 20
-1.281413
  0
VERTEX
  8
EBENE_1
 62
    39
  6
CONTINUOUS
 10
0.832826
 20
-1.282357
  0
VERTEX
  8
EBENE_1
 62
    39
  6
CONTINUOUS
 10
0.821204
 20
-1.282584
  0
VERTEX
  8
EBENE_1
 62
    39
  6
CONTINUOUS
 10
0.808894
 20
-1.282097
  0
VERTEX
  8
EBENE_1
 62
    39
  6
CONTINUOUS
 10
0.795943
 20
-1.280902
  0
VERTEX
  8
EBENE_1
 62
    39
  6
CONTINUOUS
 10
0.782401
 20
-1.279003
  0
VERTEX
  8
EBENE_1
 62
    39
  6
CONTINUOUS
 10
0.768317
 20
-1.276404
  0
VERTEX
  8
EBENE_1
 62
    39
  6
CONTINUOUS
 10
0.753739
 20
-1.273109
  0
VERTEX
  8
EBENE_1
 62
    39
  6
CONTINUOUS
 10
0.738716
 20
-1.269123
  0
VERTEX
  8
EBENE_1
 62
    39
  6
CONTINUOUS
 10
0.723298
 20
-1.264451
  0
VERTEX
  8
EBENE_1
 62
    39
  6
CONTINUOUS
 10
0.707532
 20
-1.259096
  0
VERTEX
  8
EBENE_1
 62
    39
  6
CONTINUOUS
 10
0.691469
 20
-1.253062
  0
VERTEX
  8
EBENE_1
 62
    39
  6
CONTINUOUS
 10
0.675156
 20
-1.246355
  0
VERTEX
  8
EBENE_1
 62
    39
  6
CONTINUOUS
 10
0.658643
 20
-1.238979
  0
VERTEX
  8
EBENE_1
 62
    39
  6
CONTINUOUS
 10
0.641978
 20
-1.230937
  0
VERTEX
  8
EBENE_1
 62
    39
  6
CONTINUOUS
 10
0.625210
 20
-1.222235
  0
VERTEX
  8
EBENE_1
 62
    39
  6
CONTINUOUS
 10
0.608389
 20
-1.212876
  0
VERTEX
  8
EBENE_1
 62
    39
  6
CONTINUOUS
 10
0.591562
 20
-1.202865
  0
VERTEX
  8
EBENE_1
 62
    39
  6
CONTINUOUS
 10
0.574780
 20
-1.192207
  0
VERTEX
  8
EBENE_1
 62
    39
  6
CONTINUOUS
 10
0.558090
 20
-1.180905
  0
VERTEX
  8
EBENE_1
 62
    39
  6
CONTINUOUS
 10
0.541541
 20
-1.168964
  0
VERTEX
  8
EBENE_1
 62
    39
  6
CONTINUOUS
 10
0.525183
 20
-1.156388
  0
VERTEX
  8
EBENE_1
 62
    39
  6
CONTINUOUS
 10
0.509064
 20
-1.143182
  0
VERTEX
  8
EBENE_1
 62
    39
  6
CONTINUOUS
 10
0.493233
 20
-1.129350
  0
VERTEX
  8
EBENE_1
 62
    39
  6
CONTINUOUS
 10
0.477739
 20
-1.114896
  0
VERTEX
  8
EBENE_1
 62
    39
  6
CONTINUOUS
 10
0.462631
 20
-1.099825
  0
VERTEX
  8
EBENE_1
 62
    39
  6
CONTINUOUS
 10
0.447957
 20
-1.084141
  0
VERTEX
  8
EBENE_1
 62
    39
  6
CONTINUOUS
 10
0.433767
 20
-1.067848
  0
VERTEX
  8
EBENE_1
 62
    39
  6
CONTINUOUS
 10
0.420109
 20
-1.050951
  0
VERTEX
  8
EBENE_1
 62
    39
  6
CONTINUOUS
 10
0.407032
 20
-1.033454
  0
VERTEX
  8
EBENE_1
 62
    39
  6
CONTINUOUS
 10
0.394586
 20
-1.015362
  0
VERTEX
  8
EBENE_1
 62
    39
  6
CONTINUOUS
 10
0.382818
 20
-0.996678
  0
VERTEX
  8
EBENE_1
 62
    39
  6
CONTINUOUS
 10
0.371778
 20
-0.977408
  0
VERTEX
  8
EBENE_1
 62
    39
  6
CONTINUOUS
 10
0.361514
 20
-0.957555
  0
VERTEX
  8
EBENE_1
 62
    39
  6
CONTINUOUS
 10
0.352076
 20
-0.937123
  0
VERTEX
  8
EBENE_1
 62
    39
  6
CONTINUOUS
 10
0.343512
 20
-0.916118
  0
VERTEX
  8
EBENE_1
 62
    39
  6
CONTINUOUS
 10
0.343512
 20
-0.916118
  0
VERTEX
  8
EBENE_1
 62
    39
  6
CONTINUOUS
 10
0.339258
 20
-0.890665
  0
VERTEX
  8
EBENE_1
 62
    39
  6
CONTINUOUS
 10
0.337786
 20
-0.867077
  0
VERTEX
  8
EBENE_1
 62
    39
  6
CONTINUOUS
 10
0.338998
 20
-0.845435
  0
VERTEX
  8
EBENE_1
 62
    39
  6
CONTINUOUS
 10
0.342798
 20
-0.825821
  0
VERTEX
  8
EBENE_1
 62
    39
  6
CONTINUOUS
 10
0.349088
 20
-0.808315
  0
VERTEX
  8
EBENE_1
 62
    39
  6
CONTINUOUS
 10
0.357770
 20
-0.793000
  0
VERTEX
  8
EBENE_1
 62
    39
  6
CONTINUOUS
 10
0.368748
 20
-0.779955
  0
VERTEX
  8
EBENE_1
 62
    39
  6
CONTINUOUS
 10
0.381924
 20
-0.769263
  0
VERTEX
  8
EBENE_1
 62
    39
  6
CONTINUOUS
 10
0.397200
 20
-0.761004
  0
VERTEX
  8
EBENE_1
 62
    39
  6
CONTINUOUS
 10
0.414480
 20
-0.755260
  0
VERTEX
  8
EBENE_1
 62
    39
  6
CONTINUOUS
 10
1.282319
 20
-0.359862
  0
SEQEND
  8
0
  0
POLYLINE
  8
EBENE_1
 62
    39
  6
CONTINUOUS
 66
     1
 40
0.003000
 41
0.003000
  0
VERTEX
  8
EBENE_1
 62
    39
  6
CONTINUOUS
 10
-0.862268
 20
-0.072610
  0
VERTEX
  8
EBENE_1
 62
    39
  6
CONTINUOUS
 10
-0.545276
 20
-0.592370
  0
VERTEX
  8
EBENE_1
 62
    39
  6
CONTINUOUS
 10
-0.877138
 20
-0.678882
  0
SEQEND
  8
0
  0
POLYLINE
  8
EBENE_1
 62
    39
  6
CONTINUOUS
 66
     1
 40
0.003000
 41
0.003000
  0
VERTEX
  8
EBENE_1
 62
    39
  6
CONTINUOUS
 10
-0.877138
 20
-0.678882
  0
VERTEX
  8
EBENE_1
 62
    39
  6
CONTINUOUS
 10
-0.886929
 20
-0.680664
  0
VERTEX
  8
EBENE_1
 62
    39
  6
CONTINUOUS
 10
-0.897489
 20
-0.681745
  0
VERTEX
  8
EBENE_1
 62
    39
  6
CONTINUOUS
 10
-0.908774
 20
-0.682127
  0
VERTEX
  8
EBENE_1
 62
    39
  6
CONTINUOUS
 10
-0.920738
 20
-0.681813
  0
VERTEX
  8
EBENE_1
 62
    39
  6
CONTINUOUS
 10
-0.933337
 20
-0.680807
  0
VERTEX
  8
EBENE_1
 62
    39
  6
CONTINUOUS
 10
-0.946525
 20
-0.679112
  0
VERTEX
  8
EBENE_1
 62
    39
  6
CONTINUOUS
 10
-0.960258
 20
-0.676730
  0
VERTEX
  8
EBENE_1
 62
    39
  6
CONTINUOUS
 10
-0.974490
 20
-0.673665
  0
VERTEX
  8
EBENE_1
 62
    39
  6
CONTINUOUS
 10
-0.989176
 20
-0.669920
  0
VERTEX
  8
EBENE_1
 62
    39
  6
CONTINUOUS
 10
-1.004271
 20
-0.665498
  0
VERTEX
  8
EBENE_1
 62
    39
  6
CONTINUOUS
 10
-1.019731
 20
-0.660402
  0
VERTEX
  8
EBENE_1
 62
    39
  6
CONTINUOUS
 10
-1.035511
 20
-0.654635
  0
VERTEX
  8
EBENE_1
 62
    39
  6
CONTINUOUS
 10
-1.051564
 20
-0.648201
  0
VERTEX
  8
EBENE_1
 62
    39
  6
CONTINUOUS
 10
-1.067847
 20
-0.641102
  0
VERTEX
  8
EBENE_1
 62
    39
  6
CONTINUOUS
 10
-1.084314
 20
-0.633342
  0
VERTEX
  8
EBENE_1
 62
    39
  6
CONTINUOUS
 10
-1.100921
 20
-0.624923
  0
VERTEX
  8
EBENE_1
 62
    39
  6
CONTINUOUS
 10
-1.117622
 20
-0.615850
  0
VERTEX
  8
EBENE_1
 62
    39
  6
CONTINUOUS
 10
-1.134372
 20
-0.606124
  0
VERTEX
  8
EBENE_1
 62
    39
  6
CONTINUOUS
 10
-1.151126
 20
-0.595749
  0
VERTEX
  8
EBENE_1
 62
    39
  6
CONTINUOUS
 10
-1.167840
 20
-0.584728
  0
VERTEX
  8
EBENE_1
 62
    39
  6
CONTINUOUS
 10
-1.184468
 20
-0.573064
  0
VERTEX
  8
EBENE_1
 62
    39
  6
CONTINUOUS
 10
-1.200965
 20
-0.560760
  0
VERTEX
  8
EBENE_1
 62
    39
  6
CONTINUOUS
 10
-1.217287
 20
-0.547820
  0
VERTEX
  8
EBENE_1
 62
    39
  6
CONTINUOUS
 10
-1.233388
 20
-0.534246
  0
VERTEX
  8
EBENE_1
 62
    39
  6
CONTINUOUS
 10
-1.249223
 20
-0.520042
  0
VERTEX
  8
EBENE_1
 62
    39
  6
CONTINUOUS
 10
-1.264747
 20
-0.505211
  0
VERTEX
  8
EBENE_1
 62
    39
  6
CONTINUOUS
 10
-1.279915
 20
-0.489755
  0
VERTEX
  8
EBENE_1
 62
    39
  6
CONTINUOUS
 10
-1.294683
 20
-0.473678
  0
VERTEX
  8
EBENE_1
 62
    39
  6
CONTINUOUS
 10
-1.309005
 20
-0.456984
  0
VERTEX
  8
EBENE_1
 62
    39
  6
CONTINUOUS
 10
-1.322836
 20
-0.439674
  0
VERTEX
  8
EBENE_1
 62
    39
  6
CONTINUOUS
 10
-1.336131
 20
-0.421753
  0
VERTEX
  8
EBENE_1
 62
    39
  6
CONTINUOUS
 10
-1.348845
 20
-0.403223
  0
VERTEX
  8
EBENE_1
 62
    39
  6
CONTINUOUS
 10
-1.360934
 20
-0.384087
  0
VERTEX
  8
EBENE_1
 62
    39
  6
CONTINUOUS
 10
-1.372351
 20
-0.364349
  0
VERTEX
  8
EBENE_1
 62
    39
  6
CONTINUOUS
 10
-1.383053
 20
-0.344011
  0
VERTEX
  8
EBENE_1
 62
    39
  6
CONTINUOUS
 10
-1.392994
 20
-0.323077
  0
VERTEX
  8
EBENE_1
 62
    39
  6
CONTINUOUS
 10
-1.402129
 20
-0.301550
  0
VERTEX
  8
EBENE_1
 62
    39
  6
CONTINUOUS
 10
-1.410413
 20
-0.279433
  0
SEQEND
  8
0
  0
POLYLINE
  8
EBENE_1
 62
    39
  6
CONTINUOUS
 66
     1
 40
0.003000
 41
0.003000
  0
VERTEX
  8
EBENE_1
 62
    39
  6
CONTINUOUS
 10
-1.410413
 20
-0.279433
  0
VERTEX
  8
EBENE_1
 62
    39
  6
CONTINUOUS
 10
-1.414297
 20
-0.253395
  0
VERTEX
  8
EBENE_1
 62
    39
  6
CONTINUOUS
 10
-1.415371
 20
-0.228820
  0
VERTEX
  8
EBENE_1
 62
    39
  6
CONTINUOUS
 10
-1.413810
 20
-0.205829
  0
VERTEX
  8
EBENE_1
 62
    39
  6
CONTINUOUS
 10
-1.409786
 20
-0.184544
  0
VERTEX
  8
EBENE_1
 62
    39
  6
CONTINUOUS
 10
-1.403475
 20
-0.165088
  0
VERTEX
  8
EBENE_1
 62
    39
  6
CONTINUOUS
 10
-1.395049
 20
-0.147581
  0
VERTEX
  8
EBENE_1
 62
    39
  6
CONTINUOUS
 10
-1.384682
 20
-0.132146
  0
VERTEX
  8
EBENE_1
 62
    39
  6
CONTINUOUS
 10
-1.372548
 20
-0.118905
  0
VERTEX
  8
EBENE_1
 62
    39
  6
CONTINUOUS
 10
-1.358820
 20
-0.107980
  0
VERTEX
  8
EBENE_1
 62
    39
  6
CONTINUOUS
 10
-1.343673
 20
-0.099492
  0
VERTEX
  8
EBENE_1
 62
    39
  6
CONTINUOUS
 10
-1.327280
 20
-0.093563
  0
SEQEND
  8
0
  0
POLYLINE
  8
EBENE_1
 62
    39
  6
CONTINUOUS
 66
     1
 40
0.003000
 41
0.003000
  0
VERTEX
  8
EBENE_1
 62
    39
  6
CONTINUOUS
 10
-1.327280
 20
-0.093563
  0
VERTEX
  8
EBENE_1
 62
    39
  6
CONTINUOUS
 10
-0.981224
 20
-0.000969
  0
SEQEND
  8
0
  0
POLYLINE
  8
EBENE_1
 62
    39
  6
CONTINUOUS
 66
     1
 40
0.003000
 41
0.003000
  0
VERTEX
  8
EBENE_1
 62
    39
  6
CONTINUOUS
 10
-0.981224
 20
-0.000969
  0
VERTEX
  8
EBENE_1
 62
    39
  6
CONTINUOUS
 10
-0.956808
 20
0.003295
  0
VERTEX
  8
EBENE_1
 62
    39
  6
CONTINUOUS
 10
-0.937787
 20
0.002296
  0
VERTEX
  8
EBENE_1
 62
    39
  6
CONTINUOUS
 10
-0.923049
 20
-0.003020
  0
VERTEX
  8
EBENE_1
 62
    39
  6
CONTINUOUS
 10
-0.911482
 20
-0.011707
  0
VERTEX
  8
EBENE_1
 62
    39
  6
CONTINUOUS
 10
-0.901973
 20
-0.022820
  0
VERTEX
  8
EBENE_1
 62
    39
  6
CONTINUOUS
 10
-0.893409
 20
-0.035412
  0
VERTEX
  8
EBENE_1
 62
    39
  6
CONTINUOUS
 10
-0.884679
 20
-0.048538
  0
VERTEX
  8
EBENE_1
 62
    39
  6
CONTINUOUS
 10
-0.874669
 20
-0.061253
  0
VERTEX
  8
EBENE_1
 62
    39
  6
CONTINUOUS
 10
-0.862268
 20
-0.072610
  0
SEQEND
  8
0
  0
POLYLINE
  8
EBENE_1
 62
    39
  6
CONTINUOUS
 66
     1
 40
0.003000
 41
0.003000
 70
     1
  0
VERTEX
  8
EBENE_1
 62
    39
  6
CONTINUOUS
 10
-0.862268
 20
-0.074638
  0
VERTEX
  8
EBENE_1
 62
    39
  6
CONTINUOUS
 10
-0.550685
 20
-0.586287
  0
VERTEX
  8
EBENE_1
 62
    39
  6
CONTINUOUS
 10
-0.877138
 20
-0.671449
  0
VERTEX
  8
EBENE_1
 62
    39
  6
CONTINUOUS
 10
-0.886762
 20
-0.673185
  0
VERTEX
  8
EBENE_1
 62
    39
  6
CONTINUOUS
 10
-0.897142
 20
-0.674233
  0
VERTEX
  8
EBENE_1
 62
    39
  6
CONTINUOUS
 10
-0.908234
 20
-0.674596
  0
VERTEX
  8
EBENE_1
 62
    39
  6
CONTINUOUS
 10
-0.919994
 20
-0.674276
  0
VERTEX
  8
EBENE_1
 62
    39
  6
CONTINUOUS
 10
-0.932377
 20
-0.673278
  0
VERTEX
  8
EBENE_1
 62
    39
  6
CONTINUOUS
 10
-0.945339
 20
-0.671603
  0
VERTEX
  8
EBENE_1
 62
    39
  6
CONTINUOUS
 10
-0.958835
 20
-0.669254
  0
VERTEX
  8
EBENE_1
 62
    39
  6
CONTINUOUS
 10
-0.972822
 20
-0.666235
  0
VERTEX
  8
EBENE_1
 62
    39
  6
CONTINUOUS
 10
-0.987256
 20
-0.662547
  0
VERTEX
  8
EBENE_1
 62
    39
  6
CONTINUOUS
 10
-1.002091
 20
-0.658195
  0
VERTEX
  8
EBENE_1
 62
    39
  6
CONTINUOUS
 10
-1.017284
 20
-0.653181
  0
VERTEX
  8
EBENE_1
 62
    39
  6
CONTINUOUS
 10
-1.032791
 20
-0.647508
  0
VERTEX
  8
EBENE_1
 62
    39
  6
CONTINUOUS
 10
-1.048567
 20
-0.641178
  0
VERTEX
  8
EBENE_1
 62
    39
  6
CONTINUOUS
 10
-1.064567
 20
-0.634195
  0
VERTEX
  8
EBENE_1
 62
    39
  6
CONTINUOUS
 10
-1.080749
 20
-0.626562
  0
VERTEX
  8
EBENE_1
 62
    39
  6
CONTINUOUS
 10
-1.097066
 20
-0.618281
  0
VERTEX
  8
EBENE_1
 62
    39
  6
CONTINUOUS
 10
-1.113476
 20
-0.609355
  0
VERTEX
  8
EBENE_1
 62
    39
  6
CONTINUOUS
 10
-1.129933
 20
-0.599787
  0
VERTEX
  8
EBENE_1
 62
    39
  6
CONTINUOUS
 10
-1.146394
 20
-0.589581
  0
VERTEX
  8
EBENE_1
 62
    39
  6
CONTINUOUS
 10
-1.162814
 20
-0.578738
  0
VERTEX
  8
EBENE_1
 62
    39
  6
CONTINUOUS
 10
-1.179150
 20
-0.567262
  0
VERTEX
  8
EBENE_1
 62
    39
  6
CONTINUOUS
 10
-1.195356
 20
-0.555156
  0
VERTEX
  8
EBENE_1
 62
    39
  6
CONTINUOUS
 10
-1.211388
 20
-0.542422
  0
VERTEX
  8
EBENE_1
 62
    39
  6
CONTINUOUS
 10
-1.227203
 20
-0.529064
  0
VERTEX
  8
EBENE_1
 62
    39
  6
CONTINUOUS
 10
-1.242756
 20
-0.515084
  0
VERTEX
  8
EBENE_1
 62
    39
  6
CONTINUOUS
 10
-1.258002
 20
-0.500485
  0
VERTEX
  8
EBENE_1
 62
    39
  6
CONTINUOUS
 10
-1.272897
 20
-0.485270
  0
VERTEX
  8
EBENE_1
 62
    39
  6
CONTINUOUS
 10
-1.287398
 20
-0.469443
  0
VERTEX
  8
EBENE_1
 62
    39
  6
CONTINUOUS
 10
-1.301460
 20
-0.453005
  0
VERTEX
  8
EBENE_1
 62
    39
  6
CONTINUOUS
 10
-1.315038
 20
-0.435960
  0
VERTEX
  8
EBENE_1
 62
    39
  6
CONTINUOUS
 10
-1.328089
 20
-0.418310
  0
VERTEX
  8
EBENE_1
 62
    39
  6
CONTINUOUS
 10
-1.340567
 20
-0.400059
  0
VERTEX
  8
EBENE_1
 62
    39
  6
CONTINUOUS
 10
-1.352430
 20
-0.381209
  0
VERTEX
  8
EBENE_1
 62
    39
  6
CONTINUOUS
 10
-1.363632
 20
-0.361764
  0
VERTEX
  8
EBENE_1
 62
    39
  6
CONTINUOUS
 10
-1.374129
 20
-0.341726
  0
VERTEX
  8
EBENE_1
 62
    39
  6
CONTINUOUS
 10
-1.383877
 20
-0.321097
  0
VERTEX
  8
EBENE_1
 62
    39
  6
CONTINUOUS
 10
-1.392832
 20
-0.299882
  0
VERTEX
  8
EBENE_1
 62
    39
  6
CONTINUOUS
 10
-1.400949
 20
-0.278083
  0
VERTEX
  8
EBENE_1
 62
    39
  6
CONTINUOUS
 10
-1.400949
 20
-0.278083
  0
VERTEX
  8
EBENE_1
 62
    39
  6
CONTINUOUS
 10
-1.404849
 20
-0.252581
  0
VERTEX
  8
EBENE_1
 62
    39
  6
CONTINUOUS
 10
-1.405970
 20
-0.228504
  0
VERTEX
  8
EBENE_1
 62
    39
  6
CONTINUOUS
 10
-1.404483
 20
-0.205973
  0
VERTEX
  8
EBENE_1
 62
    39
  6
CONTINUOUS
 10
-1.400558
 20
-0.185105
  0
VERTEX
  8
EBENE_1
 62
    39
  6
CONTINUOUS
 10
-1.394366
 20
-0.166019
  0
VERTEX
  8
EBENE_1
 62
    39
  6
CONTINUOUS
 10
-1.386079
 20
-0.148835
  0
VERTEX
  8
EBENE_1
 62
    39
  6
CONTINUOUS
 10
-1.375865
 20
-0.133671
  0
VERTEX
  8
EBENE_1
 62
    39
  6
CONTINUOUS
 10
-1.363897
 20
-0.120645
  0
VERTEX
  8
EBENE_1
 62
    39
  6
CONTINUOUS
 10
-1.350345
 20
-0.109877
  0
VERTEX
  8
EBENE_1
 62
    39
  6
CONTINUOUS
 10
-1.335378
 20
-0.101486
  0
VERTEX
  8
EBENE_1
 62
    39
  6
CONTINUOUS
 10
-1.319169
 20
-0.095591
  0
VERTEX
  8
EBENE_1
 62
    39
  6
CONTINUOUS
 10
-0.979874
 20
-0.005024
  0
VERTEX
  8
EBENE_1
 62
    39
  6
CONTINUOUS
 10
-0.955659
 20
-0.000535
  0
VERTEX
  8
EBENE_1
 62
    39
  6
CONTINUOUS
 10
-0.936800
 20
-0.001308
  0
VERTEX
  8
EBENE_1
 62
    39
  6
CONTINUOUS
 10
-0.922197
 20
-0.006399
  0
VERTEX
  8
EBENE_1
 62
    39
  6
CONTINUOUS
 10
-0.910748
 20
-0.014861
  0
VERTEX
  8
EBENE_1
 62
    39
  6
CONTINUOUS
 10
-0.901352
 20
-0.025748
  0
VERTEX
  8
EBENE_1
 62
    39
  6
CONTINUOUS
 10
-0.892908
 20
-0.038115
  0
VERTEX
  8
EBENE_1
 62
    39
  6
CONTINUOUS
 10
-0.884313
 20
-0.051017
  0
VERTEX
  8
EBENE_1
 62
    39
  6
CONTINUOUS
 10
-0.874467
 20
-0.063506
  0
SEQEND
  8
0
  0
POLYLINE
  8
EBENE_1
 62
    39
  6
CONTINUOUS
 66
     1
 40
0.003000
 41
0.003000
  0
VERTEX
  8
EBENE_1
 62
    39
  6
CONTINUOUS
 10
-1.140059
 20
-0.098295
  0
VERTEX
  8
EBENE_1
 62
    39
  6
CONTINUOUS
 10
-1.134075
 20
-0.096818
  0
VERTEX
  8
EBENE_1
 62
    39
  6
CONTINUOUS
 10
-1.130044
 20
-0.092788
  0
VERTEX
  8
EBENE_1
 62
    39
  6
CONTINUOUS
 10
-1.128567
 20
-0.086807
  0
SEQEND
  8
0
  0
POLYLINE
  8
EBENE_1
 62
    39
  6
CONTINUOUS
 66
     1
 40
0.003000
 41
0.003000
  0
VERTEX
  8
EBENE_1
 62
    39
  6
CONTINUOUS
 10
-1.128567
 20
-0.086807
  0
VERTEX
  8
EBENE_1
 62
    39
  6
CONTINUOUS
 10
-1.130044
 20
-0.081122
  0
VERTEX
  8
EBENE_1
 62
    39
  6
CONTINUOUS
 10
-1.134075
 20
-0.076942
  0
VERTEX
  8
EBENE_1
 62
    39
  6
CONTINUOUS
 10
-1.140059
 20
-0.075315
  0
SEQEND
  8
0
  0
POLYLINE
  8
EBENE_1
 62
    39
  6
CONTINUOUS
 66
     1
 40
0.003000
 41
0.003000
  0
VERTEX
  8
EBENE_1
 62
    39
  6
CONTINUOUS
 10
-1.140059
 20
-0.075315
  0
VERTEX
  8
EBENE_1
 62
    39
  6
CONTINUOUS
 10
-1.145741
 20
-0.076942
  0
VERTEX
  8
EBENE_1
 62
    39
  6
CONTINUOUS
 10
-1.149921
 20
-0.081122
  0
VERTEX
  8
EBENE_1
 62
    39
  6
CONTINUOUS
 10
-1.151547
 20
-0.086807
  0
SEQEND
  8
0
  0
POLYLINE
  8
EBENE_1
 62
    39
  6
CONTINUOUS
 66
     1
 40
0.003000
 41
0.003000
  0
VERTEX
  8
EBENE_1
 62
    39
  6
CONTINUOUS
 10
-1.151547
 20
-0.086807
  0
VERTEX
  8
EBENE_1
 62
    39
  6
CONTINUOUS
 10
-1.149921
 20
-0.092788
  0
VERTEX
  8
EBENE_1
 62
    39
  6
CONTINUOUS
 10
-1.145741
 20
-0.096818
  0
VERTEX
  8
EBENE_1
 62
    39
  6
CONTINUOUS
 10
-1.140059
 20
-0.098295
  0
SEQEND
  8
0
  0
POLYLINE
  8
EBENE_1
 62
    39
  6
CONTINUOUS
 66
     1
 40
0.003000
 41
0.003000
  0
VERTEX
  8
EBENE_1
 62
    39
  6
CONTINUOUS
 10
-1.018398
 20
-0.072610
  0
VERTEX
  8
EBENE_1
 62
    39
  6
CONTINUOUS
 10
-1.012715
 20
-0.070984
  0
VERTEX
  8
EBENE_1
 62
    39
  6
CONTINUOUS
 10
-1.008533
 20
-0.066804
  0
VERTEX
  8
EBENE_1
 62
    39
  6
CONTINUOUS
 10
-1.006906
 20
-0.061122
  0
SEQEND
  8
0
  0
POLYLINE
  8
EBENE_1
 62
    39
  6
CONTINUOUS
 66
     1
 40
0.003000
 41
0.003000
  0
VERTEX
  8
EBENE_1
 62
    39
  6
CONTINUOUS
 10
-1.006906
 20
-0.061122
  0
VERTEX
  8
EBENE_1
 62
    39
  6
CONTINUOUS
 10
-1.008533
 20
-0.055138
  0
VERTEX
  8
EBENE_1
 62
    39
  6
CONTINUOUS
 10
-1.012715
 20
-0.051107
  0
VERTEX
  8
EBENE_1
 62
    39
  6
CONTINUOUS
 10
-1.018398
 20
-0.049630
  0
SEQEND
  8
0
  0
POLYLINE
  8
EBENE_1
 62
    39
  6
CONTINUOUS
 66
     1
 40
0.003000
 41
0.003000
  0
VERTEX
  8
EBENE_1
 62
    39
  6
CONTINUOUS
 10
-1.018398
 20
-0.049630
  0
VERTEX
  8
EBENE_1
 62
    39
  6
CONTINUOUS
 10
-1.024080
 20
-0.051107
  0
VERTEX
  8
EBENE_1
 62
    39
  6
CONTINUOUS
 10
-1.028262
 20
-0.055138
  0
VERTEX
  8
EBENE_1
 62
    39
  6
CONTINUOUS
 10
-1.029890
 20
-0.061122
  0
SEQEND
  8
0
  0
POLYLINE
  8
EBENE_1
 62
    39
  6
CONTINUOUS
 66
     1
 40
0.003000
 41
0.003000
  0
VERTEX
  8
EBENE_1
 62
    39
  6
CONTINUOUS
 10
-1.029890
 20
-0.061122
  0
VERTEX
  8
EBENE_1
 62
    39
  6
CONTINUOUS
 10
-1.028262
 20
-0.066804
  0
VERTEX
  8
EBENE_1
 62
    39
  6
CONTINUOUS
 10
-1.024080
 20
-0.070984
  0
VERTEX
  8
EBENE_1
 62
    39
  6
CONTINUOUS
 10
-1.018398
 20
-0.072610
  0
SEQEND
  8
0
  0
POLYLINE
  8
EBENE_1
 62
    39
  6
CONTINUOUS
 66
     1
 40
0.003000
 41
0.003000
  0
VERTEX
  8
EBENE_1
 62
    39
  6
CONTINUOUS
 10
-0.899441
 20
-0.117898
  0
VERTEX
  8
EBENE_1
 62
    39
  6
CONTINUOUS
 10
-0.893934
 20
-0.116420
  0
VERTEX
  8
EBENE_1
 62
    39
  6
CONTINUOUS
 10
-0.890078
 20
-0.112389
  0
VERTEX
  8
EBENE_1
 62
    39
  6
CONTINUOUS
 10
-0.888626
 20
-0.106406
  0
SEQEND
  8
0
  0
POLYLINE
  8
EBENE_1
 62
    39
  6
CONTINUOUS
 66
     1
 40
0.003000
 41
0.003000
  0
VERTEX
  8
EBENE_1
 62
    39
  6
CONTINUOUS
 10
-0.888626
 20
-0.106406
  0
VERTEX
  8
EBENE_1
 62
    39
  6
CONTINUOUS
 10
-0.890078
 20
-0.100723
  0
VERTEX
  8
EBENE_1
 62
    39
  6
CONTINUOUS
 10
-0.893934
 20
-0.096541
  0
VERTEX
  8
EBENE_1
 62
    39
  6
CONTINUOUS
 10
-0.899441
 20
-0.094913
  0
SEQEND
  8
0
  0
POLYLINE
  8
EBENE_1
 62
    39
  6
CONTINUOUS
 66
     1
 40
0.003000
 41
0.003000
  0
VERTEX
  8
EBENE_1
 62
    39
  6
CONTINUOUS
 10
-0.899441
 20
-0.094913
  0
VERTEX
  8
EBENE_1
 62
    39
  6
CONTINUOUS
 10
-0.905424
 20
-0.096541
  0
VERTEX
  8
EBENE_1
 62
    39
  6
CONTINUOUS
 10
-0.909453
 20
-0.100723
  0
VERTEX
  8
EBENE_1
 62
    39
  6
CONTINUOUS
 10
-0.910929
 20
-0.106406
  0
SEQEND
  8
0
  0
POLYLINE
  8
EBENE_1
 62
    39
  6
CONTINUOUS
 66
     1
 40
0.003000
 41
0.003000
  0
VERTEX
  8
EBENE_1
 62
    39
  6
CONTINUOUS
 10
-0.910929
 20
-0.106406
  0
VERTEX
  8
EBENE_1
 62
    39
  6
CONTINUOUS
 10
-0.909453
 20
-0.112389
  0
VERTEX
  8
EBENE_1
 62
    39
  6
CONTINUOUS
 10
-0.905424
 20
-0.116420
  0
VERTEX
  8
EBENE_1
 62
    39
  6
CONTINUOUS
 10
-0.899441
 20
-0.117898
  0
SEQEND
  8
0
  0
POLYLINE
  8
EBENE_1
 62
    39
  6
CONTINUOUS
 66
     1
 40
0.003000
 41
0.003000
  0
VERTEX
  8
EBENE_1
 62
    39
  6
CONTINUOUS
 10
0.000839
 20
-0.381492
  0
VERTEX
  8
EBENE_1
 62
    39
  6
CONTINUOUS
 10
0.317831
 20
-0.901252
  0
VERTEX
  8
EBENE_1
 62
    39
  6
CONTINUOUS
 10
-0.014031
 20
-0.987764
  0
SEQEND
  8
0
  0
POLYLINE
  8
EBENE_1
 62
    39
  6
CONTINUOUS
 66
     1
 40
0.003000
 41
0.003000
  0
VERTEX
  8
EBENE_1
 62
    39
  6
CONTINUOUS
 10
-0.014031
 20
-0.987764
  0
VERTEX
  8
EBENE_1
 62
    39
  6
CONTINUOUS
 10
-0.023821
 20
-0.989546
  0
VERTEX
  8
EBENE_1
 62
    39
  6
CONTINUOUS
 10
-0.034378
 20
-0.990627
  0
VERTEX
  8
EBENE_1
 62
    39
  6
CONTINUOUS
 10
-0.045656
 20
-0.991009
  0
VERTEX
  8
EBENE_1
 62
    39
  6
CONTINUOUS
 10
-0.057611
 20
-0.990695
  0
VERTEX
  8
EBENE_1
 62
    39
  6
CONTINUOUS
 10
-0.070199
 20
-0.989689
  0
VERTEX
  8
EBENE_1
 62
    39
  6
CONTINUOUS
 10
-0.083373
 20
-0.987994
  0
VERTEX
  8
EBENE_1
 62
    39
  6
CONTINUOUS
 10
-0.097091
 20
-0.985612
  0
VERTEX
  8
EBENE_1
 62
    39
  6
CONTINUOUS
 10
-0.111305
 20
-0.982547
  0
VERTEX
  8
EBENE_1
 62
    39
  6
CONTINUOUS
 10
-0.125973
 20
-0.978802
  0
VERTEX
  8
EBENE_1
 62
    39
  6
CONTINUOUS
 10
-0.141049
 20
-0.974380
  0
VERTEX
  8
EBENE_1
 62
    39
  6
CONTINUOUS
 10
-0.156487
 20
-0.969284
  0
VERTEX
  8
EBENE_1
 62
    39
  6
CONTINUOUS
 10
-0.172244
 20
-0.963517
  0
VERTEX
  8
EBENE_1
 62
    39
  6
CONTINUOUS
 10
-0.188273
 20
-0.957083
  0
VERTEX
  8
EBENE_1
 62
    39
  6
CONTINUOUS
 10
-0.204532
 20
-0.949984
  0
VERTEX
  8
EBENE_1
 62
    39
  6
CONTINUOUS
 10
-0.220974
 20
-0.942224
  0
VERTEX
  8
EBENE_1
 62
    39
  6
CONTINUOUS
 10
-0.237554
 20
-0.933805
  0
VERTEX
  8
EBENE_1
 62
    39
  6
CONTINUOUS
 10
-0.254229
 20
-0.924731
  0
VERTEX
  8
EBENE_1
 62
    39
  6
CONTINUOUS
 10
-0.270952
 20
-0.915005
  0
VERTEX
  8
EBENE_1
 62
    39
  6
CONTINUOUS
 10
-0.287680
 20
-0.904630
  0
VERTEX
  8
EBENE_1
 62
    39
  6
CONTINUOUS
 10
-0.304367
 20
-0.893609
  0
VERTEX
  8
EBENE_1
 62
    39
  6
CONTINUOUS
 10
-0.320968
 20
-0.881946
  0
VERTEX
  8
EBENE_1
 62
    39
  6
CONTINUOUS
 10
-0.337439
 20
-0.869642
  0
VERTEX
  8
EBENE_1
 62
    39
  6
CONTINUOUS
 10
-0.353735
 20
-0.856702
  0
VERTEX
  8
EBENE_1
 62
    39
  6
CONTINUOUS
 10
-0.369810
 20
-0.843128
  0
VERTEX
  8
EBENE_1
 62
    39
  6
CONTINUOUS
 10
-0.385621
 20
-0.828924
  0
VERTEX
  8
EBENE_1
 62
    39
  6
CONTINUOUS
 10
-0.401122
 20
-0.814093
  0
VERTEX
  8
EBENE_1
 62
    39
  6
CONTINUOUS
 10
-0.416267
 20
-0.798637
  0
VERTEX
  8
EBENE_1
 62
    39
  6
CONTINUOUS
 10
-0.431014
 20
-0.782560
  0
VERTEX
  8
EBENE_1
 62
    39
  6
CONTINUOUS
 10
-0.445315
 20
-0.765866
  0
VERTEX
  8
EBENE_1
 62
    39
  6
CONTINUOUS
 10
-0.459128
 20
-0.748556
  0
VERTEX
  8
EBENE_1
 62
    39
  6
CONTINUOUS
 10
-0.472406
 20
-0.730635
  0
VERTEX
  8
EBENE_1
 62
    39
  6
CONTINUOUS
 10
-0.485106
 20
-0.712104
  0
VERTEX
  8
EBENE_1
 62
    39
  6
CONTINUOUS
 10
-0.497181
 20
-0.692969
  0
VERTEX
  8
EBENE_1
 62
    39
  6
CONTINUOUS
 10
-0.508588
 20
-0.673231
  0
VERTEX
  8
EBENE_1
 62
    39
  6
CONTINUOUS
 10
-0.519281
 20
-0.652893
  0
VERTEX
  8
EBENE_1
 62
    39
  6
CONTINUOUS
 10
-0.529216
 20
-0.631959
  0
VERTEX
  8
EBENE_1
 62
    39
  6
CONTINUOUS
 10
-0.538347
 20
-0.610432
  0
VERTEX
  8
EBENE_1
 62
    39
  6
CONTINUOUS
 10
-0.546630
 20
-0.588315
  0
SEQEND
  8
0
  0
POLYLINE
  8
EBENE_1
 62
    39
  6
CONTINUOUS
 66
     1
 40
0.003000
 41
0.003000
  0
VERTEX
  8
EBENE_1
 62
    39
  6
CONTINUOUS
 10
-0.546630
 20
-0.588315
  0
VERTEX
  8
EBENE_1
 62
    39
  6
CONTINUOUS
 10
-0.550513
 20
-0.562277
  0
VERTEX
  8
EBENE_1
 62
    39
  6
CONTINUOUS
 10
-0.551586
 20
-0.537702
  0
VERTEX
  8
EBENE_1
 62
    39
  6
CONTINUOUS
 10
-0.550024
 20
-0.514711
  0
VERTEX
  8
EBENE_1
 62
    39
  6
CONTINUOUS
 10
-0.546001
 20
-0.493426
  0
VERTEX
  8
EBENE_1
 62
    39
  6
CONTINUOUS
 10
-0.539689
 20
-0.473970
  0
VERTEX
  8
EBENE_1
 62
    39
  6
CONTINUOUS
 10
-0.531263
 20
-0.456463
  0
VERTEX
  8
EBENE_1
 62
    39
  6
CONTINUOUS
 10
-0.520896
 20
-0.441028
  0
VERTEX
  8
EBENE_1
 62
    39
  6
CONTINUOUS
 10
-0.508762
 20
-0.427787
  0
VERTEX
  8
EBENE_1
 62
    39
  6
CONTINUOUS
 10
-0.495034
 20
-0.416862
  0
VERTEX
  8
EBENE_1
 62
    39
  6
CONTINUOUS
 10
-0.479886
 20
-0.408374
  0
VERTEX
  8
EBENE_1
 62
    39
  6
CONTINUOUS
 10
-0.463492
 20
-0.402445
  0
SEQEND
  8
0
  0
POLYLINE
  8
EBENE_1
 62
    39
  6
CONTINUOUS
 66
     1
 40
0.003000
 41
0.003000
  0
VERTEX
  8
EBENE_1
 62
    39
  6
CONTINUOUS
 10
-0.463492
 20
-0.402445
  0
VERTEX
  8
EBENE_1
 62
    39
  6
CONTINUOUS
 10
-0.118118
 20
-0.309850
  0
SEQEND
  8
0
  0
POLYLINE
  8
EBENE_1
 62
    39
  6
CONTINUOUS
 66
     1
 40
0.003000
 41
0.003000
  0
VERTEX
  8
EBENE_1
 62
    39
  6
CONTINUOUS
 10
-0.118118
 20
-0.309850
  0
VERTEX
  8
EBENE_1
 62
    39
  6
CONTINUOUS
 10
-0.093701
 20
-0.305587
  0
VERTEX
  8
EBENE_1
 62
    39
  6
CONTINUOUS
 10
-0.074680
 20
-0.306586
  0
VERTEX
  8
EBENE_1
 62
    39
  6
CONTINUOUS
 10
-0.059942
 20
-0.311902
  0
VERTEX
  8
EBENE_1
 62
    39
  6
CONTINUOUS
 10
-0.048375
 20
-0.320589
  0
VERTEX
  8
EBENE_1
 62
    39
  6
CONTINUOUS
 10
-0.038866
 20
-0.331701
  0
VERTEX
  8
EBENE_1
 62
    39
  6
CONTINUOUS
 10
-0.030303
 20
-0.344294
  0
VERTEX
  8
EBENE_1
 62
    39
  6
CONTINUOUS
 10
-0.021573
 20
-0.357420
  0
VERTEX
  8
EBENE_1
 62
    39
  6
CONTINUOUS
 10
-0.011563
 20
-0.370135
  0
VERTEX
  8
EBENE_1
 62
    39
  6
CONTINUOUS
 10
0.000839
 20
-0.381492
  0
SEQEND
  8
0
  0
POLYLINE
  8
EBENE_1
 62
    39
  6
CONTINUOUS
 66
     1
 40
0.003000
 41
0.003000
 70
     1
  0
VERTEX
  8
EBENE_1
 62
    39
  6
CONTINUOUS
 10
0.000839
 20
-0.383520
  0
VERTEX
  8
EBENE_1
 62
    39
  6
CONTINUOUS
 10
0.312421
 20
-0.895165
  0
VERTEX
  8
EBENE_1
 62
    39
  6
CONTINUOUS
 10
-0.014031
 20
-0.980331
  0
VERTEX
  8
EBENE_1
 62
    39
  6
CONTINUOUS
 10
-0.023654
 20
-0.982067
  0
VERTEX
  8
EBENE_1
 62
    39
  6
CONTINUOUS
 10
-0.034030
 20
-0.983115
  0
VERTEX
  8
EBENE_1
 62
    39
  6
CONTINUOUS
 10
-0.045116
 20
-0.983478
  0
VERTEX
  8
EBENE_1
 62
    39
  6
CONTINUOUS
 10
-0.056866
 20
-0.983158
  0
VERTEX
  8
EBENE_1
 62
    39
  6
CONTINUOUS
 10
-0.069238
 20
-0.982160
  0
VERTEX
  8
EBENE_1
 62
    39
  6
CONTINUOUS
 10
-0.082187
 20
-0.980484
  0
VERTEX
  8
EBENE_1
 62
    39
  6
CONTINUOUS
 10
-0.095668
 20
-0.978136
  0
VERTEX
  8
EBENE_1
 62
    39
  6
CONTINUOUS
 10
-0.109639
 20
-0.975116
  0
VERTEX
  8
EBENE_1
 62
    39
  6
CONTINUOUS
 10
-0.124054
 20
-0.971429
  0
VERTEX
  8
EBENE_1
 62
    39
  6
CONTINUOUS
 10
-0.138869
 20
-0.967077
  0
VERTEX
  8
EBENE_1
 62
    39
  6
CONTINUOUS
 10
-0.154041
 20
-0.962063
  0
VERTEX
  8
EBENE_1
 62
    39
  6
CONTINUOUS
 10
-0.169525
 20
-0.956390
  0
VERTEX
  8
EBENE_1
 62
    39
  6
CONTINUOUS
 10
-0.185277
 20
-0.950060
  0
VERTEX
  8
EBENE_1
 62
    39
  6
CONTINUOUS
 10
-0.201253
 20
-0.943077
  0
VERTEX
  8
EBENE_1
 62
    39
  6
CONTINUOUS
 10
-0.217409
 20
-0.935444
  0
VERTEX
  8
EBENE_1
 62
    39
  6
CONTINUOUS
 10
-0.233701
 20
-0.927162
  0
VERTEX
  8
EBENE_1
 62
    39
  6
CONTINUOUS
 10
-0.250084
 20
-0.918237
  0
VERTEX
  8
EBENE_1
 62
    39
  6
CONTINUOUS
 10
-0.266515
 20
-0.908669
  0
VERTEX
  8
EBENE_1
 62
    39
  6
CONTINUOUS
 10
-0.282949
 20
-0.898462
  0
VERTEX
  8
EBENE_1
 62
    39
  6
CONTINUOUS
 10
-0.299343
 20
-0.887619
  0
VERTEX
  8
EBENE_1
 62
    39
  6
CONTINUOUS
 10
-0.315652
 20
-0.876143
  0
VERTEX
  8
EBENE_1
 62
    39
  6
CONTINUOUS
 10
-0.331831
 20
-0.864037
  0
VERTEX
  8
EBENE_1
 62
    39
  6
CONTINUOUS
 10
-0.347838
 20
-0.851303
  0
VERTEX
  8
EBENE_1
 62
    39
  6
CONTINUOUS
 10
-0.363627
 20
-0.837945
  0
VERTEX
  8
EBENE_1
 62
    39
  6
CONTINUOUS
 10
-0.379156
 20
-0.823965
  0
VERTEX
  8
EBENE_1
 62
    39
  6
CONTINUOUS
 10
-0.394378
 20
-0.809366
  0
VERTEX
  8
EBENE_1
 62
    39
  6
CONTINUOUS
 10
-0.409251
 20
-0.794151
  0
VERTEX
  8
EBENE_1
 62
    39
  6
CONTINUOUS
 10
-0.423731
 20
-0.778323
  0
VERTEX
  8
EBENE_1
 62
    39
  6
CONTINUOUS
 10
-0.437772
 20
-0.761885
  0
VERTEX
  8
EBENE_1
 62
    39
  6
CONTINUOUS
 10
-0.451332
 20
-0.744839
  0
VERTEX
  8
EBENE_1
 62
    39
  6
CONTINUOUS
 10
-0.464366
 20
-0.727190
  0
VERTEX
  8
EBENE_1
 62
    39
  6
CONTINUOUS
 10
-0.476829
 20
-0.708939
  0
VERTEX
  8
EBENE_1
 62
    39
  6
CONTINUOUS
 10
-0.488678
 20
-0.690089
  0
VERTEX
  8
EBENE_1
 62
    39
  6
CONTINUOUS
 10
-0.499869
 20
-0.670643
  0
VERTEX
  8
EBENE_1
 62
    39
  6
CONTINUOUS
 10
-0.510357
 20
-0.650605
  0
VERTEX
  8
EBENE_1
 62
    39
  6
CONTINUOUS
 10
-0.520099
 20
-0.629976
  0
VERTEX
  8
EBENE_1
 62
    39
  6
CONTINUOUS
 10
-0.529050
 20
-0.608760
  0
VERTEX
  8
EBENE_1
 62
    39
  6
CONTINUOUS
 10
-0.537165
 20
-0.586961
  0
VERTEX
  8
EBENE_1
 62
    39
  6
CONTINUOUS
 10
-0.537165
 20
-0.586961
  0
VERTEX
  8
EBENE_1
 62
    39
  6
CONTINUOUS
 10
-0.541065
 20
-0.561443
  0
VERTEX
  8
EBENE_1
 62
    39
  6
CONTINUOUS
 10
-0.542186
 20
-0.537328
  0
VERTEX
  8
EBENE_1
 62
    39
  6
CONTINUOUS
 10
-0.540699
 20
-0.514742
  0
VERTEX
  8
EBENE_1
 62
    39
  6
CONTINUOUS
 10
-0.536774
 20
-0.493813
  0
VERTEX
  8
EBENE_1
 62
    39
  6
CONTINUOUS
 10
-0.530583
 20
-0.474670
  0
VERTEX
  8
EBENE_1
 62
    39
  6
CONTINUOUS
 10
-0.522295
 20
-0.457440
  0
VERTEX
  8
EBENE_1
 62
    39
  6
CONTINUOUS
 10
-0.512081
 20
-0.442252
  0
VERTEX
  8
EBENE_1
 62
    39
  6
CONTINUOUS
 10
-0.500112
 20
-0.429233
  0
VERTEX
  8
EBENE_1
 62
    39
  6
CONTINUOUS
 10
-0.486559
 20
-0.418512
  0
VERTEX
  8
EBENE_1
 62
    39
  6
CONTINUOUS
 10
-0.471592
 20
-0.410215
  0
VERTEX
  8
EBENE_1
 62
    39
  6
CONTINUOUS
 10
-0.455382
 20
-0.404472
  0
VERTEX
  8
EBENE_1
 62
    39
  6
CONTINUOUS
 10
-0.116768
 20
-0.313228
  0
VERTEX
  8
EBENE_1
 62
    39
  6
CONTINUOUS
 10
-0.092552
 20
-0.308941
  0
VERTEX
  8
EBENE_1
 62
    39
  6
CONTINUOUS
 10
-0.073694
 20
-0.309872
  0
VERTEX
  8
EBENE_1
 62
    39
  6
CONTINUOUS
 10
-0.059092
 20
-0.315080
  0
VERTEX
  8
EBENE_1
 62
    39
  6
CONTINUOUS
 10
-0.047643
 20
-0.323627
  0
VERTEX
  8
EBENE_1
 62
    39
  6
CONTINUOUS
 10
-0.038248
 20
-0.334571
  0
VERTEX
  8
EBENE_1
 62
    39
  6
CONTINUOUS
 10
-0.029803
 20
-0.346972
  0
VERTEX
  8
EBENE_1
 62
    39
  6
CONTINUOUS
 10
-0.021208
 20
-0.359891
  0
VERTEX
  8
EBENE_1
 62
    39
  6
CONTINUOUS
 10
-0.011362
 20
-0.372387
  0
SEQEND
  8
0
  0
POLYLINE
  8
EBENE_1
 62
    39
  6
CONTINUOUS
 66
     1
 40
0.003000
 41
0.003000
  0
VERTEX
  8
EBENE_1
 62
    39
  6
CONTINUOUS
 10
-0.276272
 20
-0.407177
  0
VERTEX
  8
EBENE_1
 62
    39
  6
CONTINUOUS
 10
-0.270291
 20
-0.405700
  0
VERTEX
  8
EBENE_1
 62
    39
  6
CONTINUOUS
 10
-0.266261
 20
-0.401669
  0
VERTEX
  8
EBENE_1
 62
    39
  6
CONTINUOUS
 10
-0.264783
 20
-0.395685
  0
SEQEND
  8
0
  0
POLYLINE
  8
EBENE_1
 62
    39
  6
CONTINUOUS
 66
     1
 40
0.003000
 41
0.003000
  0
VERTEX
  8
EBENE_1
 62
    39
  6
CONTINUOUS
 10
-0.264783
 20
-0.395685
  0
VERTEX
  8
EBENE_1
 62
    39
  6
CONTINUOUS
 10
-0.266261
 20
-0.390003
  0
VERTEX
  8
EBENE_1
 62
    39
  6
CONTINUOUS
 10
-0.270291
 20
-0.385824
  0
VERTEX
  8
EBENE_1
 62
    39
  6
CONTINUOUS
 10
-0.276272
 20
-0.384197
  0
SEQEND
  8
0
  0
POLYLINE
  8
EBENE_1
 62
    39
  6
CONTINUOUS
 66
     1
 40
0.003000
 41
0.003000
  0
VERTEX
  8
EBENE_1
 62
    39
  6
CONTINUOUS
 10
-0.276272
 20
-0.384197
  0
VERTEX
  8
EBENE_1
 62
    39
  6
CONTINUOUS
 10
-0.281955
 20
-0.385824
  0
VERTEX
  8
EBENE_1
 62
    39
  6
CONTINUOUS
 10
-0.286136
 20
-0.390003
  0
VERTEX
  8
EBENE_1
 62
    39
  6
CONTINUOUS
 10
-0.287764
 20
-0.395685
  0
SEQEND
  8
0
  0
POLYLINE
  8
EBENE_1
 62
    39
  6
CONTINUOUS
 66
     1
 40
0.003000
 41
0.003000
  0
VERTEX
  8
EBENE_1
 62
    39
  6
CONTINUOUS
 10
-0.287764
 20
-0.395685
  0
VERTEX
  8
EBENE_1
 62
    39
  6
CONTINUOUS
 10
-0.286136
 20
-0.401669
  0
VERTEX
  8
EBENE_1
 62
    39
  6
CONTINUOUS
 10
-0.281955
 20
-0.405700
  0
VERTEX
  8
EBENE_1
 62
    39
  6
CONTINUOUS
 10
-0.276272
 20
-0.407177
  0
SEQEND
  8
0
  0
POLYLINE
  8
EBENE_1
 62
    39
  6
CONTINUOUS
 66
     1
 40
0.003000
 41
0.003000
  0
VERTEX
  8
EBENE_1
 62
    39
  6
CONTINUOUS
 10
-0.154618
 20
-0.381492
  0
VERTEX
  8
EBENE_1
 62
    39
  6
CONTINUOUS
 10
-0.148935
 20
-0.379865
  0
VERTEX
  8
EBENE_1
 62
    39
  6
CONTINUOUS
 10
-0.144754
 20
-0.375686
  0
VERTEX
  8
EBENE_1
 62
    39
  6
CONTINUOUS
 10
-0.143126
 20
-0.370004
  0
SEQEND
  8
0
  0
POLYLINE
  8
EBENE_1
 62
    39
  6
CONTINUOUS
 66
     1
 40
0.003000
 41
0.003000
  0
VERTEX
  8
EBENE_1
 62
    39
  6
CONTINUOUS
 10
-0.143126
 20
-0.370004
  0
VERTEX
  8
EBENE_1
 62
    39
  6
CONTINUOUS
 10
-0.144754
 20
-0.364020
  0
VERTEX
  8
EBENE_1
 62
    39
  6
CONTINUOUS
 10
-0.148935
 20
-0.359989
  0
VERTEX
  8
EBENE_1
 62
    39
  6
CONTINUOUS
 10
-0.154618
 20
-0.358512
  0
SEQEND
  8
0
  0
POLYLINE
  8
EBENE_1
 62
    39
  6
CONTINUOUS
 66
     1
 40
0.003000
 41
0.003000
  0
VERTEX
  8
EBENE_1
 62
    39
  6
CONTINUOUS
 10
-0.154618
 20
-0.358512
  0
VERTEX
  8
EBENE_1
 62
    39
  6
CONTINUOUS
 10
-0.160300
 20
-0.359989
  0
VERTEX
  8
EBENE_1
 62
    39
  6
CONTINUOUS
 10
-0.164480
 20
-0.364020
  0
VERTEX
  8
EBENE_1
 62
    39
  6
CONTINUOUS
 10
-0.166106
 20
-0.370004
  0
SEQEND
  8
0
  0
POLYLINE
  8
EBENE_1
 62
    39
  6
CONTINUOUS
 66
     1
 40
0.003000
 41
0.003000
  0
VERTEX
  8
EBENE_1
 62
    39
  6
CONTINUOUS
 10
-0.166106
 20
-0.370004
  0
VERTEX
  8
EBENE_1
 62
    39
  6
CONTINUOUS
 10
-0.164480
 20
-0.375686
  0
VERTEX
  8
EBENE_1
 62
    39
  6
CONTINUOUS
 10
-0.160300
 20
-0.379865
  0
VERTEX
  8
EBENE_1
 62
    39
  6
CONTINUOUS
 10
-0.154618
 20
-0.381492
  0
SEQEND
  8
0
  0
POLYLINE
  8
EBENE_1
 62
    39
  6
CONTINUOUS
 66
     1
 40
0.003000
 41
0.003000
  0
VERTEX
  8
EBENE_1
 62
    39
  6
CONTINUOUS
 10
-0.036335
 20
-0.426776
  0
VERTEX
  8
EBENE_1
 62
    39
  6
CONTINUOUS
 10
-0.030828
 20
-0.425149
  0
VERTEX
  8
EBENE_1
 62
    39
  6
CONTINUOUS
 10
-0.026975
 20
-0.420969
  0
VERTEX
  8
EBENE_1
 62
    39
  6
CONTINUOUS
 10
-0.025524
 20
-0.415287
  0
SEQEND
  8
0
  0
POLYLINE
  8
EBENE_1
 62
    39
  6
CONTINUOUS
 66
     1
 40
0.003000
 41
0.003000
  0
VERTEX
  8
EBENE_1
 62
    39
  6
CONTINUOUS
 10
-0.025524
 20
-0.415287
  0
VERTEX
  8
EBENE_1
 62
    39
  6
CONTINUOUS
 10
-0.026975
 20
-0.409605
  0
VERTEX
  8
EBENE_1
 62
    39
  6
CONTINUOUS
 10
-0.030828
 20
-0.405423
  0
VERTEX
  8
EBENE_1
 62
    39
  6
CONTINUOUS
 10
-0.036335
 20
-0.403795
  0
SEQEND
  8
0
  0
POLYLINE
  8
EBENE_1
 62
    39
  6
CONTINUOUS
 66
     1
 40
0.003000
 41
0.003000
  0
VERTEX
  8
EBENE_1
 62
    39
  6
CONTINUOUS
 10
-0.036335
 20
-0.403795
  0
VERTEX
  8
EBENE_1
 62
    39
  6
CONTINUOUS
 10
-0.042318
 20
-0.405423
  0
VERTEX
  8
EBENE_1
 62
    39
  6
CONTINUOUS
 10
-0.046350
 20
-0.409605
  0
VERTEX
  8
EBENE_1
 62
    39
  6
CONTINUOUS
 10
-0.047827
 20
-0.415287
  0
SEQEND
  8
0
  0
POLYLINE
  8
EBENE_1
 62
    39
  6
CONTINUOUS
 66
     1
 40
0.003000
 41
0.003000
  0
VERTEX
  8
EBENE_1
 62
    39
  6
CONTINUOUS
 10
-0.047827
 20
-0.415287
  0
VERTEX
  8
EBENE_1
 62
    39
  6
CONTINUOUS
 10
-0.046350
 20
-0.420969
  0
VERTEX
  8
EBENE_1
 62
    39
  6
CONTINUOUS
 10
-0.042318
 20
-0.425149
  0
VERTEX
  8
EBENE_1
 62
    39
  6
CONTINUOUS
 10
-0.036335
 20
-0.426776
  0
SEQEND
  8
0
  0
POLYLINE
  8
EBENE_1
 62
    39
  6
CONTINUOUS
 66
     1
 40
0.003000
 41
0.003000
  0
VERTEX
  8
EBENE_1
 62
    39
  6
CONTINUOUS
 10
-0.527705
 20
0.007142
  0
VERTEX
  8
EBENE_1
 62
    39
  6
CONTINUOUS
 10
-0.210713
 20
-0.512614
  0
VERTEX
  8
EBENE_1
 62
    39
  6
CONTINUOUS
 10
-0.542571
 20
-0.599126
  0
SEQEND
  8
0
  0
POLYLINE
  8
EBENE_1
 62
    39
  6
CONTINUOUS
 66
     1
 40
0.003000
 41
0.003000
  0
VERTEX
  8
EBENE_1
 62
    39
  6
CONTINUOUS
 10
-0.542571
 20
-0.599126
  0
VERTEX
  8
EBENE_1
 62
    39
  6
CONTINUOUS
 10
-0.552362
 20
-0.600909
  0
VERTEX
  8
EBENE_1
 62
    39
  6
CONTINUOUS
 10
-0.562923
 20
-0.601990
  0
VERTEX
  8
EBENE_1
 62
    39
  6
CONTINUOUS
 10
-0.574208
 20
-0.602372
  0
VERTEX
  8
EBENE_1
 62
    39
  6
CONTINUOUS
 10
-0.586172
 20
-0.602058
  0
VERTEX
  8
EBENE_1
 62
    39
  6
CONTINUOUS
 10
-0.598770
 20
-0.601052
  0
VERTEX
  8
EBENE_1
 62
    39
  6
CONTINUOUS
 10
-0.611957
 20
-0.599357
  0
VERTEX
  8
EBENE_1
 62
    39
  6
CONTINUOUS
 10
-0.625688
 20
-0.596975
  0
VERTEX
  8
EBENE_1
 62
    39
  6
CONTINUOUS
 10
-0.639918
 20
-0.593911
  0
VERTEX
  8
EBENE_1
 62
    39
  6
CONTINUOUS
 10
-0.654602
 20
-0.590166
  0
VERTEX
  8
EBENE_1
 62
    39
  6
CONTINUOUS
 10
-0.669694
 20
-0.585744
  0
VERTEX
  8
EBENE_1
 62
    39
  6
CONTINUOUS
 10
-0.685150
 20
-0.580648
  0
VERTEX
  8
EBENE_1
 62
    39
  6
CONTINUOUS
 10
-0.700924
 20
-0.574881
  0
VERTEX
  8
EBENE_1
 62
    39
  6
CONTINUOUS
 10
-0.716972
 20
-0.568447
  0
VERTEX
  8
EBENE_1
 62
    39
  6
CONTINUOUS
 10
-0.733248
 20
-0.561348
  0
VERTEX
  8
EBENE_1
 62
    39
  6
CONTINUOUS
 10
-0.749708
 20
-0.553588
  0
VERTEX
  8
EBENE_1
 62
    39
  6
CONTINUOUS
 10
-0.766305
 20
-0.545169
  0
VERTEX
  8
EBENE_1
 62
    39
  6
CONTINUOUS
 10
-0.782996
 20
-0.536095
  0
VERTEX
  8
EBENE_1
 62
    39
  6
CONTINUOUS
 10
-0.799735
 20
-0.526369
  0
VERTEX
  8
EBENE_1
 62
    39
  6
CONTINUOUS
 10
-0.816477
 20
-0.515994
  0
VERTEX
  8
EBENE_1
 62
    39
  6
CONTINUOUS
 10
-0.833177
 20
-0.504973
  0
VERTEX
  8
EBENE_1
 62
    39
  6
CONTINUOUS
 10
-0.849789
 20
-0.493309
  0
VERTEX
  8
EBENE_1
 62
    39
  6
CONTINUOUS
 10
-0.866269
 20
-0.481005
  0
VERTEX
  8
EBENE_1
 62
    39
  6
CONTINUOUS
 10
-0.882572
 20
-0.468065
  0
VERTEX
  8
EBENE_1
 62
    39
  6
CONTINUOUS
 10
-0.898652
 20
-0.454491
  0
VERTEX
  8
EBENE_1
 62
    39
  6
CONTINUOUS
 10
-0.914465
 20
-0.440287
  0
VERTEX
  8
EBENE_1
 62
    39
  6
CONTINUOUS
 10
-0.929965
 20
-0.425456
  0
VERTEX
  8
EBENE_1
 62
    39
  6
CONTINUOUS
 10
-0.945107
 20
-0.410000
  0
VERTEX
  8
EBENE_1
 62
    39
  6
CONTINUOUS
 10
-0.959847
 20
-0.393923
  0
VERTEX
  8
EBENE_1
 62
    39
  6
CONTINUOUS
 10
-0.974139
 20
-0.377228
  0
VERTEX
  8
EBENE_1
 62
    39
  6
CONTINUOUS
 10
-0.987938
 20
-0.359919
  0
VERTEX
  8
EBENE_1
 62
    39
  6
CONTINUOUS
 10
-1.001199
 20
-0.341997
  0
VERTEX
  8
EBENE_1
 62
    39
  6
CONTINUOUS
 10
-1.013876
 20
-0.323467
  0
VERTEX
  8
EBENE_1
 62
    39
  6
CONTINUOUS
 10
-1.025926
 20
-0.304331
  0
VERTEX
  8
EBENE_1
 62
    39
  6
CONTINUOUS
 10
-1.037302
 20
-0.284593
  0
VERTEX
  8
EBENE_1
 62
    39
  6
CONTINUOUS
 10
-1.047960
 20
-0.264255
  0
VERTEX
  8
EBENE_1
 62
    39
  6
CONTINUOUS
 10
-1.057855
 20
-0.243321
  0
VERTEX
  8
EBENE_1
 62
    39
  6
CONTINUOUS
 10
-1.066941
 20
-0.221794
  0
VERTEX
  8
EBENE_1
 62
    39
  6
CONTINUOUS
 10
-1.075173
 20
-0.199677
  0
SEQEND
  8
0
  0
POLYLINE
  8
EBENE_1
 62
    39
  6
CONTINUOUS
 66
     1
 40
0.003000
 41
0.003000
  0
VERTEX
  8
EBENE_1
 62
    39
  6
CONTINUOUS
 10
-1.075173
 20
-0.199677
  0
VERTEX
  8
EBENE_1
 62
    39
  6
CONTINUOUS
 10
-1.079071
 20
-0.173640
  0
VERTEX
  8
EBENE_1
 62
    39
  6
CONTINUOUS
 10
-1.080184
 20
-0.149065
  0
VERTEX
  8
EBENE_1
 62
    39
  6
CONTINUOUS
 10
-1.078678
 20
-0.126074
  0
VERTEX
  8
EBENE_1
 62
    39
  6
CONTINUOUS
 10
-1.074715
 20
-0.104790
  0
VERTEX
  8
EBENE_1
 62
    39
  6
CONTINUOUS
 10
-1.068462
 20
-0.085334
  0
VERTEX
  8
EBENE_1
 62
    39
  6
CONTINUOUS
 10
-1.060082
 20
-0.067828
  0
VERTEX
  8
EBENE_1
 62
    39
  6
CONTINUOUS
 10
-1.049740
 20
-0.052393
  0
VERTEX
  8
EBENE_1
 62
    39
  6
CONTINUOUS
 10
-1.037600
 20
-0.039153
  0
VERTEX
  8
EBENE_1
 62
    39
  6
CONTINUOUS
 10
-1.023827
 20
-0.028227
  0
VERTEX
  8
EBENE_1
 62
    39
  6
CONTINUOUS
 10
-1.008585
 20
-0.019740
  0
VERTEX
  8
EBENE_1
 62
    39
  6
CONTINUOUS
 10
-0.992039
 20
-0.013811
  0
SEQEND
  8
0
  0
POLYLINE
  8
EBENE_1
 62
    39
  6
CONTINUOUS
 66
     1
 40
0.003000
 41
0.003000
  0
VERTEX
  8
EBENE_1
 62
    39
  6
CONTINUOUS
 10
-0.992039
 20
-0.013811
  0
VERTEX
  8
EBENE_1
 62
    39
  6
CONTINUOUS
 10
-0.646661
 20
0.078787
  0
SEQEND
  8
0
  0
POLYLINE
  8
EBENE_1
 62
    39
  6
CONTINUOUS
 66
     1
 40
0.003000
 41
0.003000
  0
VERTEX
  8
EBENE_1
 62
    39
  6
CONTINUOUS
 10
-0.646661
 20
0.078787
  0
VERTEX
  8
EBENE_1
 62
    39
  6
CONTINUOUS
 10
-0.622244
 20
0.083228
  0
VERTEX
  8
EBENE_1
 62
    39
  6
CONTINUOUS
 10
-0.603222
 20
0.082323
  0
VERTEX
  8
EBENE_1
 62
    39
  6
CONTINUOUS
 10
-0.588484
 20
0.077035
  0
VERTEX
  8
EBENE_1
 62
    39
  6
CONTINUOUS
 10
-0.576917
 20
0.068326
  0
VERTEX
  8
EBENE_1
 62
    39
  6
CONTINUOUS
 10
-0.567408
 20
0.057157
  0
VERTEX
  8
EBENE_1
 62
    39
  6
CONTINUOUS
 10
-0.558845
 20
0.044493
  0
VERTEX
  8
EBENE_1
 62
    39
  6
CONTINUOUS
 10
-0.550116
 20
0.031294
  0
VERTEX
  8
EBENE_1
 62
    39
  6
CONTINUOUS
 10
-0.540106
 20
0.018522
  0
VERTEX
  8
EBENE_1
 62
    39
  6
CONTINUOUS
 10
-0.527705
 20
0.007142
  0
SEQEND
  8
0
  0
POLYLINE
  8
EBENE_1
 62
    39
  6
CONTINUOUS
 66
     1
 40
0.003000
 41
0.003000
 70
     1
  0
VERTEX
  8
EBENE_1
 62
    39
  6
CONTINUOUS
 10
-0.527705
 20
0.005114
  0
VERTEX
  8
EBENE_1
 62
    39
  6
CONTINUOUS
 10
-0.216118
 20
-0.506531
  0
VERTEX
  8
EBENE_1
 62
    39
  6
CONTINUOUS
 10
-0.542571
 20
-0.591020
  0
VERTEX
  8
EBENE_1
 62
    39
  6
CONTINUOUS
 10
-0.552195
 20
-0.592807
  0
VERTEX
  8
EBENE_1
 62
    39
  6
CONTINUOUS
 10
-0.562575
 20
-0.593904
  0
VERTEX
  8
EBENE_1
 62
    39
  6
CONTINUOUS
 10
-0.573667
 20
-0.594314
  0
VERTEX
  8
EBENE_1
 62
    39
  6
CONTINUOUS
 10
-0.585427
 20
-0.594038
  0
VERTEX
  8
EBENE_1
 62
    39
  6
CONTINUOUS
 10
-0.597810
 20
-0.593081
  0
VERTEX
  8
EBENE_1
 62
    39
  6
CONTINUOUS
 10
-0.610772
 20
-0.591445
  0
VERTEX
  8
EBENE_1
 62
    39
  6
CONTINUOUS
 10
-0.624269
 20
-0.589133
  0
VERTEX
  8
EBENE_1
 62
    39
  6
CONTINUOUS
 10
-0.638256
 20
-0.586148
  0
VERTEX
  8
EBENE_1
 62
    39
  6
CONTINUOUS
 10
-0.652690
 20
-0.582493
  0
VERTEX
  8
EBENE_1
 62
    39
  6
CONTINUOUS
 10
-0.667525
 20
-0.578171
  0
VERTEX
  8
EBENE_1
 62
    39
  6
CONTINUOUS
 10
-0.682718
 20
-0.573184
  0
VERTEX
  8
EBENE_1
 62
    39
  6
CONTINUOUS
 10
-0.698225
 20
-0.567537
  0
VERTEX
  8
EBENE_1
 62
    39
  6
CONTINUOUS
 10
-0.714001
 20
-0.561232
  0
VERTEX
  8
EBENE_1
 62
    39
  6
CONTINUOUS
 10
-0.730002
 20
-0.554271
  0
VERTEX
  8
EBENE_1
 62
    39
  6
CONTINUOUS
 10
-0.746183
 20
-0.546658
  0
VERTEX
  8
EBENE_1
 62
    39
  6
CONTINUOUS
 10
-0.762501
 20
-0.538396
  0
VERTEX
  8
EBENE_1
 62
    39
  6
CONTINUOUS
 10
-0.778910
 20
-0.529487
  0
VERTEX
  8
EBENE_1
 62
    39
  6
CONTINUOUS
 10
-0.795368
 20
-0.519935
  0
VERTEX
  8
EBENE_1
 62
    39
  6
CONTINUOUS
 10
-0.811829
 20
-0.509742
  0
VERTEX
  8
EBENE_1
 62
    39
  6
CONTINUOUS
 10
-0.828250
 20
-0.498912
  0
VERTEX
  8
EBENE_1
 62
    39
  6
CONTINUOUS
 10
-0.844585
 20
-0.487447
  0
VERTEX
  8
EBENE_1
 62
    39
  6
CONTINUOUS
 10
-0.860791
 20
-0.475351
  0
VERTEX
  8
EBENE_1
 62
    39
  6
CONTINUOUS
 10
-0.876824
 20
-0.462626
  0
VERTEX
  8
EBENE_1
 62
    39
  6
CONTINUOUS
 10
-0.892639
 20
-0.449276
  0
VERTEX
  8
EBENE_1
 62
    39
  6
CONTINUOUS
 10
-0.908191
 20
-0.435303
  0
VERTEX
  8
EBENE_1
 62
    39
  6
CONTINUOUS
 10
-0.923438
 20
-0.420710
  0
VERTEX
  8
EBENE_1
 62
    39
  6
CONTINUOUS
 10
-0.938334
 20
-0.405500
  0
VERTEX
  8
EBENE_1
 62
    39
  6
CONTINUOUS
 10
-0.952835
 20
-0.389676
  0
VERTEX
  8
EBENE_1
 62
    39
  6
CONTINUOUS
 10
-0.966896
 20
-0.373241
  0
VERTEX
  8
EBENE_1
 62
    39
  6
CONTINUOUS
 10
-0.980475
 20
-0.356199
  0
VERTEX
  8
EBENE_1
 62
    39
  6
CONTINUOUS
 10
-0.993525
 20
-0.338551
  0
VERTEX
  8
EBENE_1
 62
    39
  6
CONTINUOUS
 10
-1.006004
 20
-0.320302
  0
VERTEX
  8
EBENE_1
 62
    39
  6
CONTINUOUS
 10
-1.017867
 20
-0.301453
  0
VERTEX
  8
EBENE_1
 62
    39
  6
CONTINUOUS
 10
-1.029068
 20
-0.282008
  0
VERTEX
  8
EBENE_1
 62
    39
  6
CONTINUOUS
 10
-1.039566
 20
-0.261970
  0
VERTEX
  8
EBENE_1
 62
    39
  6
CONTINUOUS
 10
-1.049314
 20
-0.241342
  0
VERTEX
  8
EBENE_1
 62
    39
  6
CONTINUOUS
 10
-1.058269
 20
-0.220127
  0
VERTEX
  8
EBENE_1
 62
    39
  6
CONTINUOUS
 10
-1.066386
 20
-0.198327
  0
VERTEX
  8
EBENE_1
 62
    39
  6
CONTINUOUS
 10
-1.066386
 20
-0.198327
  0
VERTEX
  8
EBENE_1
 62
    39
  6
CONTINUOUS
 10
-1.070286
 20
-0.172810
  0
VERTEX
  8
EBENE_1
 62
    39
  6
CONTINUOUS
 10
-1.071407
 20
-0.148694
  0
VERTEX
  8
EBENE_1
 62
    39
  6
CONTINUOUS
 10
-1.069919
 20
-0.126108
  0
VERTEX
  8
EBENE_1
 62
    39
  6
CONTINUOUS
 10
-1.065995
 20
-0.105179
  0
VERTEX
  8
EBENE_1
 62
    39
  6
CONTINUOUS
 10
-1.059803
 20
-0.086036
  0
VERTEX
  8
EBENE_1
 62
    39
  6
CONTINUOUS
 10
-1.051515
 20
-0.068807
  0
VERTEX
  8
EBENE_1
 62
    39
  6
CONTINUOUS
 10
-1.041301
 20
-0.053618
  0
VERTEX
  8
EBENE_1
 62
    39
  6
CONTINUOUS
 10
-1.029333
 20
-0.040599
  0
VERTEX
  8
EBENE_1
 62
    39
  6
CONTINUOUS
 10
-1.015779
 20
-0.029878
  0
VERTEX
  8
EBENE_1
 62
    39
  6
CONTINUOUS
 10
-1.000813
 20
-0.021582
  0
VERTEX
  8
EBENE_1
 62
    39
  6
CONTINUOUS
 10
-0.984602
 20
-0.015839
  0
VERTEX
  8
EBENE_1
 62
    39
  6
CONTINUOUS
 10
-0.644634
 20
0.075409
  0
VERTEX
  8
EBENE_1
 62
    39
  6
CONTINUOUS
 10
-0.620619
 20
0.079696
  0
VERTEX
  8
EBENE_1
 62
    39
  6
CONTINUOUS
 10
-0.601917
 20
0.078765
  0
VERTEX
  8
EBENE_1
 62
    39
  6
CONTINUOUS
 10
-0.587432
 20
0.073556
  0
VERTEX
  8
EBENE_1
 62
    39
  6
CONTINUOUS
 10
-0.576068
 20
0.065009
  0
VERTEX
  8
EBENE_1
 62
    39
  6
CONTINUOUS
 10
-0.566729
 20
0.054065
  0
VERTEX
  8
EBENE_1
 62
    39
  6
CONTINUOUS
 10
-0.558319
 20
0.041663
  0
VERTEX
  8
EBENE_1
 62
    39
  6
CONTINUOUS
 10
-0.549742
 20
0.028744
  0
VERTEX
  8
EBENE_1
 62
    39
  6
CONTINUOUS
 10
-0.539903
 20
0.016248
  0
SEQEND
  8
0
  0
POLYLINE
  8
EBENE_1
 62
    39
  6
CONTINUOUS
 66
     1
 40
0.003000
 41
0.003000
  0
VERTEX
  8
EBENE_1
 62
    39
  6
CONTINUOUS
 10
-0.805492
 20
-0.018539
  0
VERTEX
  8
EBENE_1
 62
    39
  6
CONTINUOUS
 10
-0.799509
 20
-0.016913
  0
VERTEX
  8
EBENE_1
 62
    39
  6
CONTINUOUS
 10
-0.795480
 20
-0.012733
  0
VERTEX
  8
EBENE_1
 62
    39
  6
CONTINUOUS
 10
-0.794004
 20
-0.007051
  0
SEQEND
  8
0
  0
POLYLINE
  8
EBENE_1
 62
    39
  6
CONTINUOUS
 66
     1
 40
0.003000
 41
0.003000
  0
VERTEX
  8
EBENE_1
 62
    39
  6
CONTINUOUS
 10
-0.794004
 20
-0.007051
  0
VERTEX
  8
EBENE_1
 62
    39
  6
CONTINUOUS
 10
-0.795480
 20
-0.001368
  0
VERTEX
  8
EBENE_1
 62
    39
  6
CONTINUOUS
 10
-0.799509
 20
0.002813
  0
VERTEX
  8
EBENE_1
 62
    39
  6
CONTINUOUS
 10
-0.805492
 20
0.004441
  0
SEQEND
  8
0
  0
POLYLINE
  8
EBENE_1
 62
    39
  6
CONTINUOUS
 66
     1
 40
0.003000
 41
0.003000
  0
VERTEX
  8
EBENE_1
 62
    39
  6
CONTINUOUS
 10
-0.805492
 20
0.004441
  0
VERTEX
  8
EBENE_1
 62
    39
  6
CONTINUOUS
 10
-0.810999
 20
0.002813
  0
VERTEX
  8
EBENE_1
 62
    39
  6
CONTINUOUS
 10
-0.814855
 20
-0.001368
  0
VERTEX
  8
EBENE_1
 62
    39
  6
CONTINUOUS
 10
-0.816307
 20
-0.007051
  0
SEQEND
  8
0
  0
POLYLINE
  8
EBENE_1
 62
    39
  6
CONTINUOUS
 66
     1
 40
0.003000
 41
0.003000
  0
VERTEX
  8
EBENE_1
 62
    39
  6
CONTINUOUS
 10
-0.816307
 20
-0.007051
  0
VERTEX
  8
EBENE_1
 62
    39
  6
CONTINUOUS
 10
-0.814855
 20
-0.012733
  0
VERTEX
  8
EBENE_1
 62
    39
  6
CONTINUOUS
 10
-0.810999
 20
-0.016913
  0
VERTEX
  8
EBENE_1
 62
    39
  6
CONTINUOUS
 10
-0.805492
 20
-0.018539
  0
SEQEND
  8
0
  0
POLYLINE
  8
EBENE_1
 62
    39
  6
CONTINUOUS
 66
     1
 40
0.003000
 41
0.003000
  0
VERTEX
  8
EBENE_1
 62
    39
  6
CONTINUOUS
 10
-0.683835
 20
0.007819
  0
VERTEX
  8
EBENE_1
 62
    39
  6
CONTINUOUS
 10
-0.678152
 20
0.009271
  0
VERTEX
  8
EBENE_1
 62
    39
  6
CONTINUOUS
 10
-0.673970
 20
0.013127
  0
VERTEX
  8
EBENE_1
 62
    39
  6
CONTINUOUS
 10
-0.672343
 20
0.018634
  0
SEQEND
  8
0
  0
POLYLINE
  8
EBENE_1
 62
    39
  6
CONTINUOUS
 66
     1
 40
0.003000
 41
0.003000
  0
VERTEX
  8
EBENE_1
 62
    39
  6
CONTINUOUS
 10
-0.672343
 20
0.018634
  0
VERTEX
  8
EBENE_1
 62
    39
  6
CONTINUOUS
 10
-0.673970
 20
0.024615
  0
VERTEX
  8
EBENE_1
 62
    39
  6
CONTINUOUS
 10
-0.678152
 20
0.028645
  0
VERTEX
  8
EBENE_1
 62
    39
  6
CONTINUOUS
 10
-0.683835
 20
0.030122
  0
SEQEND
  8
0
  0
POLYLINE
  8
EBENE_1
 62
    39
  6
CONTINUOUS
 66
     1
 40
0.003000
 41
0.003000
  0
VERTEX
  8
EBENE_1
 62
    39
  6
CONTINUOUS
 10
-0.683835
 20
0.030122
  0
VERTEX
  8
EBENE_1
 62
    39
  6
CONTINUOUS
 10
-0.689516
 20
0.028645
  0
VERTEX
  8
EBENE_1
 62
    39
  6
CONTINUOUS
 10
-0.693696
 20
0.024615
  0
VERTEX
  8
EBENE_1
 62
    39
  6
CONTINUOUS
 10
-0.695323
 20
0.018634
  0
SEQEND
  8
0
  0
POLYLINE
  8
EBENE_1
 62
    39
  6
CONTINUOUS
 66
     1
 40
0.003000
 41
0.003000
  0
VERTEX
  8
EBENE_1
 62
    39
  6
CONTINUOUS
 10
-0.695323
 20
0.018634
  0
VERTEX
  8
EBENE_1
 62
    39
  6
CONTINUOUS
 10
-0.693696
 20
0.013127
  0
VERTEX
  8
EBENE_1
 62
    39
  6
CONTINUOUS
 10
-0.689516
 20
0.009271
  0
VERTEX
  8
EBENE_1
 62
    39
  6
CONTINUOUS
 10
-0.683835
 20
0.007819
  0
SEQEND
  8
0
  0
POLYLINE
  8
EBENE_1
 62
    39
  6
CONTINUOUS
 66
     1
 40
0.003000
 41
0.003000
  0
VERTEX
  8
EBENE_1
 62
    39
  6
CONTINUOUS
 10
-0.564878
 20
-0.038142
  0
VERTEX
  8
EBENE_1
 62
    39
  6
CONTINUOUS
 10
-0.559195
 20
-0.036515
  0
VERTEX
  8
EBENE_1
 62
    39
  6
CONTINUOUS
 10
-0.555014
 20
-0.032334
  0
VERTEX
  8
EBENE_1
 62
    39
  6
CONTINUOUS
 10
-0.553386
 20
-0.026650
  0
SEQEND
  8
0
  0
POLYLINE
  8
EBENE_1
 62
    39
  6
CONTINUOUS
 66
     1
 40
0.003000
 41
0.003000
  0
VERTEX
  8
EBENE_1
 62
    39
  6
CONTINUOUS
 10
-0.553386
 20
-0.026650
  0
VERTEX
  8
EBENE_1
 62
    39
  6
CONTINUOUS
 10
-0.555014
 20
-0.020968
  0
VERTEX
  8
EBENE_1
 62
    39
  6
CONTINUOUS
 10
-0.559195
 20
-0.016788
  0
VERTEX
  8
EBENE_1
 62
    39
  6
CONTINUOUS
 10
-0.564878
 20
-0.015161
  0
SEQEND
  8
0
  0
POLYLINE
  8
EBENE_1
 62
    39
  6
CONTINUOUS
 66
     1
 40
0.003000
 41
0.003000
  0
VERTEX
  8
EBENE_1
 62
    39
  6
CONTINUOUS
 10
-0.564878
 20
-0.015161
  0
VERTEX
  8
EBENE_1
 62
    39
  6
CONTINUOUS
 10
-0.570560
 20
-0.016788
  0
VERTEX
  8
EBENE_1
 62
    39
  6
CONTINUOUS
 10
-0.574739
 20
-0.020968
  0
VERTEX
  8
EBENE_1
 62
    39
  6
CONTINUOUS
 10
-0.576366
 20
-0.026650
  0
SEQEND
  8
0
  0
POLYLINE
  8
EBENE_1
 62
    39
  6
CONTINUOUS
 66
     1
 40
0.003000
 41
0.003000
  0
VERTEX
  8
EBENE_1
 62
    39
  6
CONTINUOUS
 10
-0.576366
 20
-0.026650
  0
VERTEX
  8
EBENE_1
 62
    39
  6
CONTINUOUS
 10
-0.574739
 20
-0.032334
  0
VERTEX
  8
EBENE_1
 62
    39
  6
CONTINUOUS
 10
-0.570560
 20
-0.036515
  0
VERTEX
  8
EBENE_1
 62
    39
  6
CONTINUOUS
 10
-0.564878
 20
-0.038142
  0
SEQEND
  8
0
  0
POLYLINE
  8
EBENE_1
 62
    39
  6
CONTINUOUS
 66
     1
 40
0.003000
 41
0.003000
  0
VERTEX
  8
EBENE_1
 62
    39
  6
CONTINUOUS
 10
0.335402
 20
-0.301736
  0
VERTEX
  8
EBENE_1
 62
    39
  6
CONTINUOUS
 10
0.652394
 20
-0.821496
  0
VERTEX
  8
EBENE_1
 62
    39
  6
CONTINUOUS
 10
0.320531
 20
-0.908008
  0
SEQEND
  8
0
  0
POLYLINE
  8
EBENE_1
 62
    39
  6
CONTINUOUS
 66
     1
 40
0.003000
 41
0.003000
  0
VERTEX
  8
EBENE_1
 62
    39
  6
CONTINUOUS
 10
0.320531
 20
-0.908008
  0
VERTEX
  8
EBENE_1
 62
    39
  6
CONTINUOUS
 10
0.310740
 20
-0.909790
  0
VERTEX
  8
EBENE_1
 62
    39
  6
CONTINUOUS
 10
0.300180
 20
-0.910871
  0
VERTEX
  8
EBENE_1
 62
    39
  6
CONTINUOUS
 10
0.288896
 20
-0.911253
  0
VERTEX
  8
EBENE_1
 62
    39
  6
CONTINUOUS
 10
0.276933
 20
-0.910939
  0
VERTEX
  8
EBENE_1
 62
    39
  6
CONTINUOUS
 10
0.264335
 20
-0.909933
  0
VERTEX
  8
EBENE_1
 62
    39
  6
CONTINUOUS
 10
0.251150
 20
-0.908238
  0
VERTEX
  8
EBENE_1
 62
    39
  6
CONTINUOUS
 10
0.237420
 20
-0.905856
  0
VERTEX
  8
EBENE_1
 62
    39
  6
CONTINUOUS
 10
0.223193
 20
-0.902791
  0
VERTEX
  8
EBENE_1
 62
    39
  6
CONTINUOUS
 10
0.208512
 20
-0.899046
  0
VERTEX
  8
EBENE_1
 62
    39
  6
CONTINUOUS
 10
0.193423
 20
-0.894624
  0
VERTEX
  8
EBENE_1
 62
    39
  6
CONTINUOUS
 10
0.177972
 20
-0.889528
  0
VERTEX
  8
EBENE_1
 62
    39
  6
CONTINUOUS
 10
0.162202
 20
-0.883761
  0
VERTEX
  8
EBENE_1
 62
    39
  6
CONTINUOUS
 10
0.146160
 20
-0.877327
  0
VERTEX
  8
EBENE_1
 62
    39
  6
CONTINUOUS
 10
0.129891
 20
-0.870228
  0
VERTEX
  8
EBENE_1
 62
    39
  6
CONTINUOUS
 10
0.113439
 20
-0.862468
  0
VERTEX
  8
EBENE_1
 62
    39
  6
CONTINUOUS
 10
0.096851
 20
-0.854049
  0
VERTEX
  8
EBENE_1
 62
    39
  6
CONTINUOUS
 10
0.080170
 20
-0.844976
  0
VERTEX
  8
EBENE_1
 62
    39
  6
CONTINUOUS
 10
0.063443
 20
-0.835250
  0
VERTEX
  8
EBENE_1
 62
    39
  6
CONTINUOUS
 10
0.046714
 20
-0.824875
  0
VERTEX
  8
EBENE_1
 62
    39
  6
CONTINUOUS
 10
0.030028
 20
-0.813854
  0
VERTEX
  8
EBENE_1
 62
    39
  6
CONTINUOUS
 10
0.013431
 20
-0.802190
  0
VERTEX
  8
EBENE_1
 62
    39
  6
CONTINUOUS
 10
-0.003032
 20
-0.789886
  0
VERTEX
  8
EBENE_1
 62
    39
  6
CONTINUOUS
 10
-0.019316
 20
-0.776946
  0
VERTEX
  8
EBENE_1
 62
    39
  6
CONTINUOUS
 10
-0.035375
 20
-0.763372
  0
VERTEX
  8
EBENE_1
 62
    39
  6
CONTINUOUS
 10
-0.051166
 20
-0.749168
  0
VERTEX
  8
EBENE_1
 62
    39
  6
CONTINUOUS
 10
-0.066642
 20
-0.734337
  0
VERTEX
  8
EBENE_1
 62
    39
  6
CONTINUOUS
 10
-0.081758
 20
-0.718881
  0
VERTEX
  8
EBENE_1
 62
    39
  6
CONTINUOUS
 10
-0.096470
 20
-0.702804
  0
VERTEX
  8
EBENE_1
 62
    39
  6
CONTINUOUS
 10
-0.110732
 20
-0.686110
  0
VERTEX
  8
EBENE_1
 62
    39
  6
CONTINUOUS
 10
-0.124498
 20
-0.668800
  0
VERTEX
  8
EBENE_1
 62
    39
  6
CONTINUOUS
 10
-0.137725
 20
-0.650879
  0
VERTEX
  8
EBENE_1
 62
    39
  6
CONTINUOUS
 10
-0.150366
 20
-0.632349
  0
VERTEX
  8
EBENE_1
 62
    39
  6
CONTINUOUS
 10
-0.162376
 20
-0.613213
  0
VERTEX
  8
EBENE_1
 62
    39
  6
CONTINUOUS
 10
-0.173711
 20
-0.593475
  0
VERTEX
  8
EBENE_1
 62
    39
  6
CONTINUOUS
 10
-0.184325
 20
-0.573137
  0
VERTEX
  8
EBENE_1
 62
    39
  6
CONTINUOUS
 10
-0.194173
 20
-0.552203
  0
VERTEX
  8
EBENE_1
 62
    39
  6
CONTINUOUS
 10
-0.203209
 20
-0.530676
  0
VERTEX
  8
EBENE_1
 62
    39
  6
CONTINUOUS
 10
-0.211390
 20
-0.508559
  0
SEQEND
  8
0
  0
POLYLINE
  8
EBENE_1
 62
    39
  6
CONTINUOUS
 66
     1
 40
0.003000
 41
0.003000
  0
VERTEX
  8
EBENE_1
 62
    39
  6
CONTINUOUS
 10
-0.211390
 20
-0.508559
  0
VERTEX
  8
EBENE_1
 62
    39
  6
CONTINUOUS
 10
-0.215288
 20
-0.482521
  0
VERTEX
  8
EBENE_1
 62
    39
  6
CONTINUOUS
 10
-0.216405
 20
-0.457946
  0
VERTEX
  8
EBENE_1
 62
    39
  6
CONTINUOUS
 10
-0.214907
 20
-0.434955
  0
VERTEX
  8
EBENE_1
 62
    39
  6
CONTINUOUS
 10
-0.210964
 20
-0.413670
  0
VERTEX
  8
EBENE_1
 62
    39
  6
CONTINUOUS
 10
-0.204741
 20
-0.394214
  0
VERTEX
  8
EBENE_1
 62
    39
  6
CONTINUOUS
 10
-0.196407
 20
-0.376707
  0
VERTEX
  8
EBENE_1
 62
    39
  6
CONTINUOUS
 10
-0.186129
 20
-0.361272
  0
VERTEX
  8
EBENE_1
 62
    39
  6
CONTINUOUS
 10
-0.174075
 20
-0.348031
  0
VERTEX
  8
EBENE_1
 62
    39
  6
CONTINUOUS
 10
-0.160413
 20
-0.337106
  0
VERTEX
  8
EBENE_1
 62
    39
  6
CONTINUOUS
 10
-0.145310
 20
-0.328618
  0
VERTEX
  8
EBENE_1
 62
    39
  6
CONTINUOUS
 10
-0.128933
 20
-0.322689
  0
SEQEND
  8
0
  0
POLYLINE
  8
EBENE_1
 62
    39
  6
CONTINUOUS
 66
     1
 40
0.003000
 41
0.003000
  0
VERTEX
  8
EBENE_1
 62
    39
  6
CONTINUOUS
 10
-0.128933
 20
-0.322689
  0
VERTEX
  8
EBENE_1
 62
    39
  6
CONTINUOUS
 10
0.216445
 20
-0.230094
  0
SEQEND
  8
0
  0
POLYLINE
  8
EBENE_1
 62
    39
  6
CONTINUOUS
 66
     1
 40
0.003000
 41
0.003000
  0
VERTEX
  8
EBENE_1
 62
    39
  6
CONTINUOUS
 10
0.216445
 20
-0.230094
  0
VERTEX
  8
EBENE_1
 62
    39
  6
CONTINUOUS
 10
0.240863
 20
-0.225653
  0
VERTEX
  8
EBENE_1
 62
    39
  6
CONTINUOUS
 10
0.259884
 20
-0.226557
  0
VERTEX
  8
EBENE_1
 62
    39
  6
CONTINUOUS
 10
0.274622
 20
-0.231845
  0
VERTEX
  8
EBENE_1
 62
    39
  6
CONTINUOUS
 10
0.286189
 20
-0.240554
  0
VERTEX
  8
EBENE_1
 62
    39
  6
CONTINUOUS
 10
0.295698
 20
-0.251723
  0
VERTEX
  8
EBENE_1
 62
    39
  6
CONTINUOUS
 10
0.304261
 20
-0.264387
  0
VERTEX
  8
EBENE_1
 62
    39
  6
CONTINUOUS
 10
0.312991
 20
-0.277586
  0
VERTEX
  8
EBENE_1
 62
    39
  6
CONTINUOUS
 10
0.323000
 20
-0.290357
  0
VERTEX
  8
EBENE_1
 62
    39
  6
CONTINUOUS
 10
0.335402
 20
-0.301736
  0
SEQEND
  8
0
  0
POLYLINE
  8
EBENE_1
 62
    39
  6
CONTINUOUS
 66
     1
 40
0.003000
 41
0.003000
 70
     1
  0
VERTEX
  8
EBENE_1
 62
    39
  6
CONTINUOUS
 10
0.335402
 20
-0.303764
  0
VERTEX
  8
EBENE_1
 62
    39
  6
CONTINUOUS
 10
0.646984
 20
-0.815413
  0
VERTEX
  8
EBENE_1
 62
    39
  6
CONTINUOUS
 10
0.320531
 20
-0.899898
  0
VERTEX
  8
EBENE_1
 62
    39
  6
CONTINUOUS
 10
0.310907
 20
-0.901684
  0
VERTEX
  8
EBENE_1
 62
    39
  6
CONTINUOUS
 10
0.300527
 20
-0.902778
  0
VERTEX
  8
EBENE_1
 62
    39
  6
CONTINUOUS
 10
0.289436
 20
-0.903181
  0
VERTEX
  8
EBENE_1
 62
    39
  6
CONTINUOUS
 10
0.277676
 20
-0.902897
  0
VERTEX
  8
EBENE_1
 62
    39
  6
CONTINUOUS
 10
0.265294
 20
-0.901930
  0
VERTEX
  8
EBENE_1
 62
    39
  6
CONTINUOUS
 10
0.252333
 20
-0.900282
  0
VERTEX
  8
EBENE_1
 62
    39
  6
CONTINUOUS
 10
0.238838
 20
-0.897956
  0
VERTEX
  8
EBENE_1
 62
    39
  6
CONTINUOUS
 10
0.224853
 20
-0.894957
  0
VERTEX
  8
EBENE_1
 62
    39
  6
CONTINUOUS
 10
0.210422
 20
-0.891286
  0
VERTEX
  8
EBENE_1
 62
    39
  6
CONTINUOUS
 10
0.195590
 20
-0.886947
  0
VERTEX
  8
EBENE_1
 62
    39
  6
CONTINUOUS
 10
0.180401
 20
-0.881944
  0
VERTEX
  8
EBENE_1
 62
    39
  6
CONTINUOUS
 10
0.164900
 20
-0.876279
  0
VERTEX
  8
EBENE_1
 62
    39
  6
CONTINUOUS
 10
0.149130
 20
-0.869956
  0
VERTEX
  8
EBENE_1
 62
    39
  6
CONTINUOUS
 10
0.133136
 20
-0.862978
  0
VERTEX
  8
EBENE_1
 62
    39
  6
CONTINUOUS
 10
0.116962
 20
-0.855347
  0
VERTEX
  8
EBENE_1
 62
    39
  6
CONTINUOUS
 10
0.100654
 20
-0.847068
  0
VERTEX
  8
EBENE_1
 62
    39
  6
CONTINUOUS
 10
0.084254
 20
-0.838143
  0
VERTEX
  8
EBENE_1
 62
    39
  6
CONTINUOUS
 10
0.067808
 20
-0.828576
  0
VERTEX
  8
EBENE_1
 62
    39
  6
CONTINUOUS
 10
0.051360
 20
-0.818370
  0
VERTEX
  8
EBENE_1
 62
    39
  6
CONTINUOUS
 10
0.034954
 20
-0.807527
  0
VERTEX
  8
EBENE_1
 62
    39
  6
CONTINUOUS
 10
0.018634
 20
-0.796051
  0
VERTEX
  8
EBENE_1
 62
    39
  6
CONTINUOUS
 10
0.002445
 20
-0.783946
  0
VERTEX
  8
EBENE_1
 62
    39
  6
CONTINUOUS
 10
-0.013569
 20
-0.771214
  0
VERTEX
  8
EBENE_1
 62
    39
  6
CONTINUOUS
 10
-0.029363
 20
-0.757859
  0
VERTEX
  8
EBENE_1
 62
    39
  6
CONTINUOUS
 10
-0.044893
 20
-0.743884
  0
VERTEX
  8
EBENE_1
 62
    39
  6
CONTINUOUS
 10
-0.060116
 20
-0.729291
  0
VERTEX
  8
EBENE_1
 62
    39
  6
CONTINUOUS
 10
-0.074985
 20
-0.714085
  0
VERTEX
  8
EBENE_1
 62
    39
  6
CONTINUOUS
 10
-0.089458
 20
-0.698268
  0
VERTEX
  8
EBENE_1
 62
    39
  6
CONTINUOUS
 10
-0.103490
 20
-0.681843
  0
VERTEX
  8
EBENE_1
 62
    39
  6
CONTINUOUS
 10
-0.117036
 20
-0.664814
  0
VERTEX
  8
EBENE_1
 62
    39
  6
CONTINUOUS
 10
-0.130052
 20
-0.647184
  0
VERTEX
  8
EBENE_1
 62
    39
  6
CONTINUOUS
 10
-0.142494
 20
-0.628956
  0
VERTEX
  8
EBENE_1
 62
    39
  6
CONTINUOUS
 10
-0.154317
 20
-0.610133
  0
VERTEX
  8
EBENE_1
 62
    39
  6
CONTINUOUS
 10
-0.165477
 20
-0.590719
  0
VERTEX
  8
EBENE_1
 62
    39
  6
CONTINUOUS
 10
-0.175930
 20
-0.570716
  0
VERTEX
  8
EBENE_1
 62
    39
  6
CONTINUOUS
 10
-0.185632
 20
-0.550128
  0
VERTEX
  8
EBENE_1
 62
    39
  6
CONTINUOUS
 10
-0.194537
 20
-0.528958
  0
VERTEX
  8
EBENE_1
 62
    39
  6
CONTINUOUS
 10
-0.202602
 20
-0.507209
  0
VERTEX
  8
EBENE_1
 62
    39
  6
CONTINUOUS
 10
-0.202602
 20
-0.507209
  0
VERTEX
  8
EBENE_1
 62
    39
  6
CONTINUOUS
 10
-0.206349
 20
-0.481539
  0
VERTEX
  8
EBENE_1
 62
    39
  6
CONTINUOUS
 10
-0.207378
 20
-0.457328
  0
VERTEX
  8
EBENE_1
 62
    39
  6
CONTINUOUS
 10
-0.205854
 20
-0.434696
  0
VERTEX
  8
EBENE_1
 62
    39
  6
CONTINUOUS
 10
-0.201942
 20
-0.413761
  0
VERTEX
  8
EBENE_1
 62
    39
  6
CONTINUOUS
 10
-0.195806
 20
-0.394642
  0
VERTEX
  8
EBENE_1
 62
    39
  6
CONTINUOUS
 10
-0.187610
 20
-0.377457
  0
VERTEX
  8
EBENE_1
 62
    39
  6
CONTINUOUS
 10
-0.177520
 20
-0.362327
  0
VERTEX
  8
EBENE_1
 62
    39
  6
CONTINUOUS
 10
-0.165699
 20
-0.349368
  0
VERTEX
  8
EBENE_1
 62
    39
  6
CONTINUOUS
 10
-0.152312
 20
-0.338701
  0
VERTEX
  8
EBENE_1
 62
    39
  6
CONTINUOUS
 10
-0.137525
 20
-0.330444
  0
VERTEX
  8
EBENE_1
 62
    39
  6
CONTINUOUS
 10
-0.121500
 20
-0.324717
  0
VERTEX
  8
EBENE_1
 62
    39
  6
CONTINUOUS
 10
0.218472
 20
-0.233472
  0
VERTEX
  8
EBENE_1
 62
    39
  6
CONTINUOUS
 10
0.242486
 20
-0.229185
  0
VERTEX
  8
EBENE_1
 62
    39
  6
CONTINUOUS
 10
0.261188
 20
-0.230116
  0
VERTEX
  8
EBENE_1
 62
    39
  6
CONTINUOUS
 10
0.275673
 20
-0.235324
  0
VERTEX
  8
EBENE_1
 62
    39
  6
CONTINUOUS
 10
0.287037
 20
-0.243871
  0
VERTEX
  8
EBENE_1
 62
    39
  6
CONTINUOUS
 10
0.296376
 20
-0.254815
  0
VERTEX
  8
EBENE_1
 62
    39
  6
CONTINUOUS
 10
0.304787
 20
-0.267216
  0
VERTEX
  8
EBENE_1
 62
    39
  6
CONTINUOUS
 10
0.313364
 20
-0.280135
  0
VERTEX
  8
EBENE_1
 62
    39
  6
CONTINUOUS
 10
0.323203
 20
-0.292631
  0
SEQEND
  8
0
  0
POLYLINE
  8
EBENE_1
 62
    39
  6
CONTINUOUS
 66
     1
 40
0.003000
 41
0.003000
  0
VERTEX
  8
EBENE_1
 62
    39
  6
CONTINUOUS
 10
0.057614
 20
-0.327421
  0
VERTEX
  8
EBENE_1
 62
    39
  6
CONTINUOUS
 10
0.063595
 20
-0.325794
  0
VERTEX
  8
EBENE_1
 62
    39
  6
CONTINUOUS
 10
0.067625
 20
-0.321614
  0
VERTEX
  8
EBENE_1
 62
    39
  6
CONTINUOUS
 10
0.069102
 20
-0.315929
  0
SEQEND
  8
0
  0
POLYLINE
  8
EBENE_1
 62
    39
  6
CONTINUOUS
 66
     1
 40
0.003000
 41
0.003000
  0
VERTEX
  8
EBENE_1
 62
    39
  6
CONTINUOUS
 10
0.069102
 20
-0.315929
  0
VERTEX
  8
EBENE_1
 62
    39
  6
CONTINUOUS
 10
0.067625
 20
-0.310249
  0
VERTEX
  8
EBENE_1
 62
    39
  6
CONTINUOUS
 10
0.063595
 20
-0.306069
  0
VERTEX
  8
EBENE_1
 62
    39
  6
CONTINUOUS
 10
0.057614
 20
-0.304441
  0
SEQEND
  8
0
  0
POLYLINE
  8
EBENE_1
 62
    39
  6
CONTINUOUS
 66
     1
 40
0.003000
 41
0.003000
  0
VERTEX
  8
EBENE_1
 62
    39
  6
CONTINUOUS
 10
0.057614
 20
-0.304441
  0
VERTEX
  8
EBENE_1
 62
    39
  6
CONTINUOUS
 10
0.052104
 20
-0.306069
  0
VERTEX
  8
EBENE_1
 62
    39
  6
CONTINUOUS
 10
0.048248
 20
-0.310249
  0
VERTEX
  8
EBENE_1
 62
    39
  6
CONTINUOUS
 10
0.046795
 20
-0.315929
  0
SEQEND
  8
0
  0
POLYLINE
  8
EBENE_1
 62
    39
  6
CONTINUOUS
 66
     1
 40
0.003000
 41
0.003000
  0
VERTEX
  8
EBENE_1
 62
    39
  6
CONTINUOUS
 10
0.046795
 20
-0.315929
  0
VERTEX
  8
EBENE_1
 62
    39
  6
CONTINUOUS
 10
0.048248
 20
-0.321614
  0
VERTEX
  8
EBENE_1
 62
    39
  6
CONTINUOUS
 10
0.052104
 20
-0.325794
  0
VERTEX
  8
EBENE_1
 62
    39
  6
CONTINUOUS
 10
0.057614
 20
-0.327421
  0
SEQEND
  8
0
  0
POLYLINE
  8
EBENE_1
 62
    39
  6
CONTINUOUS
 66
     1
 40
0.003000
 41
0.003000
  0
VERTEX
  8
EBENE_1
 62
    39
  6
CONTINUOUS
 10
0.179272
 20
-0.301063
  0
VERTEX
  8
EBENE_1
 62
    39
  6
CONTINUOUS
 10
0.184955
 20
-0.299586
  0
VERTEX
  8
EBENE_1
 62
    39
  6
CONTINUOUS
 10
0.189136
 20
-0.295555
  0
VERTEX
  8
EBENE_1
 62
    39
  6
CONTINUOUS
 10
0.190764
 20
-0.289571
  0
SEQEND
  8
0
  0
POLYLINE
  8
EBENE_1
 62
    39
  6
CONTINUOUS
 66
     1
 40
0.003000
 41
0.003000
  0
VERTEX
  8
EBENE_1
 62
    39
  6
CONTINUOUS
 10
0.190764
 20
-0.289571
  0
VERTEX
  8
EBENE_1
 62
    39
  6
CONTINUOUS
 10
0.189136
 20
-0.284064
  0
VERTEX
  8
EBENE_1
 62
    39
  6
CONTINUOUS
 10
0.184955
 20
-0.280208
  0
VERTEX
  8
EBENE_1
 62
    39
  6
CONTINUOUS
 10
0.179272
 20
-0.278756
  0
SEQEND
  8
0
  0
POLYLINE
  8
EBENE_1
 62
    39
  6
CONTINUOUS
 66
     1
 40
0.003000
 41
0.003000
  0
VERTEX
  8
EBENE_1
 62
    39
  6
CONTINUOUS
 10
0.179272
 20
-0.278756
  0
VERTEX
  8
EBENE_1
 62
    39
  6
CONTINUOUS
 10
0.173590
 20
-0.280208
  0
VERTEX
  8
EBENE_1
 62
    39
  6
CONTINUOUS
 10
0.169410
 20
-0.284064
  0
VERTEX
  8
EBENE_1
 62
    39
  6
CONTINUOUS
 10
0.167783
 20
-0.289571
  0
SEQEND
  8
0
  0
POLYLINE
  8
EBENE_1
 62
    39
  6
CONTINUOUS
 66
     1
 40
0.003000
 41
0.003000
  0
VERTEX
  8
EBENE_1
 62
    39
  6
CONTINUOUS
 10
0.167783
 20
-0.289571
  0
VERTEX
  8
EBENE_1
 62
    39
  6
CONTINUOUS
 10
0.169410
 20
-0.295555
  0
VERTEX
  8
EBENE_1
 62
    39
  6
CONTINUOUS
 10
0.173590
 20
-0.299586
  0
VERTEX
  8
EBENE_1
 62
    39
  6
CONTINUOUS
 10
0.179272
 20
-0.301063
  0
SEQEND
  8
0
  0
POLYLINE
  8
EBENE_1
 62
    39
  6
CONTINUOUS
 66
     1
 40
0.003000
 41
0.003000
  0
VERTEX
  8
EBENE_1
 62
    39
  6
CONTINUOUS
 10
0.298228
 20
-0.347024
  0
VERTEX
  8
EBENE_1
 62
    39
  6
CONTINUOUS
 10
0.303910
 20
-0.345396
  0
VERTEX
  8
EBENE_1
 62
    39
  6
CONTINUOUS
 10
0.308090
 20
-0.341214
  0
VERTEX
  8
EBENE_1
 62
    39
  6
CONTINUOUS
 10
0.309717
 20
-0.335531
  0
SEQEND
  8
0
  0
POLYLINE
  8
EBENE_1
 62
    39
  6
CONTINUOUS
 66
     1
 40
0.003000
 41
0.003000
  0
VERTEX
  8
EBENE_1
 62
    39
  6
CONTINUOUS
 10
0.309717
 20
-0.335531
  0
VERTEX
  8
EBENE_1
 62
    39
  6
CONTINUOUS
 10
0.308090
 20
-0.329850
  0
VERTEX
  8
EBENE_1
 62
    39
  6
CONTINUOUS
 10
0.303910
 20
-0.325670
  0
VERTEX
  8
EBENE_1
 62
    39
  6
CONTINUOUS
 10
0.298228
 20
-0.324043
  0
SEQEND
  8
0
  0
POLYLINE
  8
EBENE_1
 62
    39
  6
CONTINUOUS
 66
     1
 40
0.003000
 41
0.003000
  0
VERTEX
  8
EBENE_1
 62
    39
  6
CONTINUOUS
 10
0.298228
 20
-0.324043
  0
VERTEX
  8
EBENE_1
 62
    39
  6
CONTINUOUS
 10
0.292547
 20
-0.325670
  0
VERTEX
  8
EBENE_1
 62
    39
  6
CONTINUOUS
 10
0.288367
 20
-0.329850
  0
VERTEX
  8
EBENE_1
 62
    39
  6
CONTINUOUS
 10
0.286740
 20
-0.335531
  0
SEQEND
  8
0
  0
POLYLINE
  8
EBENE_1
 62
    39
  6
CONTINUOUS
 66
     1
 40
0.003000
 41
0.003000
  0
VERTEX
  8
EBENE_1
 62
    39
  6
CONTINUOUS
 10
0.286740
 20
-0.335531
  0
VERTEX
  8
EBENE_1
 62
    39
  6
CONTINUOUS
 10
0.288367
 20
-0.341214
  0
VERTEX
  8
EBENE_1
 62
    39
  6
CONTINUOUS
 10
0.292547
 20
-0.345396
  0
VERTEX
  8
EBENE_1
 62
    39
  6
CONTINUOUS
 10
0.298228
 20
-0.347024
  0
SEQEND
  8
0
  0
POLYLINE
  8
EBENE_1
 62
    39
  6
CONTINUOUS
 66
     1
 40
0.003000
 41
0.003000
  0
VERTEX
  8
EBENE_1
 62
    39
  6
CONTINUOUS
 10
-0.193138
 20
0.086898
  0
VERTEX
  8
EBENE_1
 62
    39
  6
CONTINUOUS
 10
0.123173
 20
-0.432858
  0
VERTEX
  8
EBENE_1
 62
    39
  6
CONTINUOUS
 10
-0.208008
 20
-0.519374
  0
SEQEND
  8
0
  0
POLYLINE
  8
EBENE_1
 62
    39
  6
CONTINUOUS
 66
     1
 40
0.003000
 41
0.003000
  0
VERTEX
  8
EBENE_1
 62
    39
  6
CONTINUOUS
 10
-0.208008
 20
-0.519374
  0
VERTEX
  8
EBENE_1
 62
    39
  6
CONTINUOUS
 10
-0.217799
 20
-0.521156
  0
VERTEX
  8
EBENE_1
 62
    39
  6
CONTINUOUS
 10
-0.228359
 20
-0.522237
  0
VERTEX
  8
EBENE_1
 62
    39
  6
CONTINUOUS
 10
-0.239644
 20
-0.522619
  0
VERTEX
  8
EBENE_1
 62
    39
  6
CONTINUOUS
 10
-0.251608
 20
-0.522305
  0
VERTEX
  8
EBENE_1
 62
    39
  6
CONTINUOUS
 10
-0.264206
 20
-0.521299
  0
VERTEX
  8
EBENE_1
 62
    39
  6
CONTINUOUS
 10
-0.277393
 20
-0.519604
  0
VERTEX
  8
EBENE_1
 62
    39
  6
CONTINUOUS
 10
-0.291124
 20
-0.517222
  0
VERTEX
  8
EBENE_1
 62
    39
  6
CONTINUOUS
 10
-0.305353
 20
-0.514157
  0
VERTEX
  8
EBENE_1
 62
    39
  6
CONTINUOUS
 10
-0.320037
 20
-0.510412
  0
VERTEX
  8
EBENE_1
 62
    39
  6
CONTINUOUS
 10
-0.335129
 20
-0.505989
  0
VERTEX
  8
EBENE_1
 62
    39
  6
CONTINUOUS
 10
-0.350585
 20
-0.500894
  0
VERTEX
  8
EBENE_1
 62
    39
  6
CONTINUOUS
 10
-0.366359
 20
-0.495127
  0
VERTEX
  8
EBENE_1
 62
    39
  6
CONTINUOUS
 10
-0.382407
 20
-0.488692
  0
VERTEX
  8
EBENE_1
 62
    39
  6
CONTINUOUS
 10
-0.398683
 20
-0.481593
  0
VERTEX
  8
EBENE_1
 62
    39
  6
CONTINUOUS
 10
-0.415143
 20
-0.473833
  0
VERTEX
  8
EBENE_1
 62
    39
  6
CONTINUOUS
 10
-0.431741
 20
-0.465414
  0
VERTEX
  8
EBENE_1
 62
    39
  6
CONTINUOUS
 10
-0.448431
 20
-0.456340
  0
VERTEX
  8
EBENE_1
 62
    39
  6
CONTINUOUS
 10
-0.465170
 20
-0.446614
  0
VERTEX
  8
EBENE_1
 62
    39
  6
CONTINUOUS
 10
-0.481912
 20
-0.436239
  0
VERTEX
  8
EBENE_1
 62
    39
  6
CONTINUOUS
 10
-0.498612
 20
-0.425218
  0
VERTEX
  8
EBENE_1
 62
    39
  6
CONTINUOUS
 10
-0.515224
 20
-0.413554
  0
VERTEX
  8
EBENE_1
 62
    39
  6
CONTINUOUS
 10
-0.531704
 20
-0.401251
  0
VERTEX
  8
EBENE_1
 62
    39
  6
CONTINUOUS
 10
-0.548007
 20
-0.388310
  0
VERTEX
  8
EBENE_1
 62
    39
  6
CONTINUOUS
 10
-0.564087
 20
-0.374737
  0
VERTEX
  8
EBENE_1
 62
    39
  6
CONTINUOUS
 10
-0.579900
 20
-0.360533
  0
VERTEX
  8
EBENE_1
 62
    39
  6
CONTINUOUS
 10
-0.595400
 20
-0.345701
  0
VERTEX
  8
EBENE_1
 62
    39
  6
CONTINUOUS
 10
-0.610542
 20
-0.330246
  0
VERTEX
  8
EBENE_1
 62
    39
  6
CONTINUOUS
 10
-0.625282
 20
-0.314169
  0
VERTEX
  8
EBENE_1
 62
    39
  6
CONTINUOUS
 10
-0.639574
 20
-0.297474
  0
VERTEX
  8
EBENE_1
 62
    39
  6
CONTINUOUS
 10
-0.653372
 20
-0.280165
  0
VERTEX
  8
EBENE_1
 62
    39
  6
CONTINUOUS
 10
-0.666633
 20
-0.262243
  0
VERTEX
  8
EBENE_1
 62
    39
  6
CONTINUOUS
 10
-0.679311
 20
-0.243713
  0
VERTEX
  8
EBENE_1
 62
    39
  6
CONTINUOUS
 10
-0.691360
 20
-0.224578
  0
VERTEX
  8
EBENE_1
 62
    39
  6
CONTINUOUS
 10
-0.702736
 20
-0.204840
  0
VERTEX
  8
EBENE_1
 62
    39
  6
CONTINUOUS
 10
-0.713394
 20
-0.184502
  0
VERTEX
  8
EBENE_1
 62
    39
  6
CONTINUOUS
 10
-0.723288
 20
-0.163569
  0
VERTEX
  8
EBENE_1
 62
    39
  6
CONTINUOUS
 10
-0.732374
 20
-0.142042
  0
VERTEX
  8
EBENE_1
 62
    39
  6
CONTINUOUS
 10
-0.740606
 20
-0.119925
  0
SEQEND
  8
0
  0
POLYLINE
  8
EBENE_1
 62
    39
  6
CONTINUOUS
 66
     1
 40
0.003000
 41
0.003000
  0
VERTEX
  8
EBENE_1
 62
    39
  6
CONTINUOUS
 10
-0.740606
 20
-0.119925
  0
VERTEX
  8
EBENE_1
 62
    39
  6
CONTINUOUS
 10
-0.744490
 20
-0.093887
  0
VERTEX
  8
EBENE_1
 62
    39
  6
CONTINUOUS
 10
-0.745564
 20
-0.069312
  0
VERTEX
  8
EBENE_1
 62
    39
  6
CONTINUOUS
 10
-0.744003
 20
-0.046321
  0
VERTEX
  8
EBENE_1
 62
    39
  6
CONTINUOUS
 10
-0.739980
 20
-0.025037
  0
VERTEX
  8
EBENE_1
 62
    39
  6
CONTINUOUS
 10
-0.733669
 20
-0.005580
  0
VERTEX
  8
EBENE_1
 62
    39
  6
CONTINUOUS
 10
-0.725243
 20
0.011927
  0
VERTEX
  8
EBENE_1
 62
    39
  6
CONTINUOUS
 10
-0.714876
 20
0.027361
  0
VERTEX
  8
EBENE_1
 62
    39
  6
CONTINUOUS
 10
-0.702742
 20
0.040603
  0
VERTEX
  8
EBENE_1
 62
    39
  6
CONTINUOUS
 10
-0.689015
 20
0.051528
  0
VERTEX
  8
EBENE_1
 62
    39
  6
CONTINUOUS
 10
-0.673867
 20
0.060016
  0
VERTEX
  8
EBENE_1
 62
    39
  6
CONTINUOUS
 10
-0.657472
 20
0.065945
  0
SEQEND
  8
0
  0
POLYLINE
  8
EBENE_1
 62
    39
  6
CONTINUOUS
 66
     1
 40
0.003000
 41
0.003000
  0
VERTEX
  8
EBENE_1
 62
    39
  6
CONTINUOUS
 10
-0.657472
 20
0.065945
  0
VERTEX
  8
EBENE_1
 62
    39
  6
CONTINUOUS
 10
-0.312094
 20
0.158543
  0
SEQEND
  8
0
  0
POLYLINE
  8
EBENE_1
 62
    39
  6
CONTINUOUS
 66
     1
 40
0.003000
 41
0.003000
  0
VERTEX
  8
EBENE_1
 62
    39
  6
CONTINUOUS
 10
-0.312094
 20
0.158543
  0
VERTEX
  8
EBENE_1
 62
    39
  6
CONTINUOUS
 10
-0.287678
 20
0.162984
  0
VERTEX
  8
EBENE_1
 62
    39
  6
CONTINUOUS
 10
-0.268657
 20
0.162079
  0
VERTEX
  8
EBENE_1
 62
    39
  6
CONTINUOUS
 10
-0.253919
 20
0.156790
  0
VERTEX
  8
EBENE_1
 62
    39
  6
CONTINUOUS
 10
-0.242352
 20
0.148080
  0
VERTEX
  8
EBENE_1
 62
    39
  6
CONTINUOUS
 10
-0.232843
 20
0.136912
  0
VERTEX
  8
EBENE_1
 62
    39
  6
CONTINUOUS
 10
-0.224279
 20
0.124247
  0
VERTEX
  8
EBENE_1
 62
    39
  6
CONTINUOUS
 10
-0.215549
 20
0.111048
  0
VERTEX
  8
EBENE_1
 62
    39
  6
CONTINUOUS
 10
-0.205539
 20
0.098277
  0
VERTEX
  8
EBENE_1
 62
    39
  6
CONTINUOUS
 10
-0.193138
 20
0.086898
  0
SEQEND
  8
0
  0
POLYLINE
  8
EBENE_1
 62
    39
  6
CONTINUOUS
 66
     1
 40
0.003000
 41
0.003000
 70
     1
  0
VERTEX
  8
EBENE_1
 62
    39
  6
CONTINUOUS
 10
-0.193138
 20
0.084870
  0
VERTEX
  8
EBENE_1
 62
    39
  6
CONTINUOUS
 10
0.118441
 20
-0.426102
  0
VERTEX
  8
EBENE_1
 62
    39
  6
CONTINUOUS
 10
-0.208008
 20
-0.511264
  0
VERTEX
  8
EBENE_1
 62
    39
  6
CONTINUOUS
 10
-0.217632
 20
-0.513050
  0
VERTEX
  8
EBENE_1
 62
    39
  6
CONTINUOUS
 10
-0.228012
 20
-0.514144
  0
VERTEX
  8
EBENE_1
 62
    39
  6
CONTINUOUS
 10
-0.239104
 20
-0.514547
  0
VERTEX
  8
EBENE_1
 62
    39
  6
CONTINUOUS
 10
-0.250864
 20
-0.514263
  0
VERTEX
  8
EBENE_1
 62
    39
  6
CONTINUOUS
 10
-0.263247
 20
-0.513296
  0
VERTEX
  8
EBENE_1
 62
    39
  6
CONTINUOUS
 10
-0.276209
 20
-0.511648
  0
VERTEX
  8
EBENE_1
 62
    39
  6
CONTINUOUS
 10
-0.289705
 20
-0.509322
  0
VERTEX
  8
EBENE_1
 62
    39
  6
CONTINUOUS
 10
-0.303693
 20
-0.506322
  0
VERTEX
  8
EBENE_1
 62
    39
  6
CONTINUOUS
 10
-0.318126
 20
-0.502651
  0
VERTEX
  8
EBENE_1
 62
    39
  6
CONTINUOUS
 10
-0.332962
 20
-0.498313
  0
VERTEX
  8
EBENE_1
 62
    39
  6
CONTINUOUS
 10
-0.348155
 20
-0.493309
  0
VERTEX
  8
EBENE_1
 62
    39
  6
CONTINUOUS
 10
-0.363661
 20
-0.487644
  0
VERTEX
  8
EBENE_1
 62
    39
  6
CONTINUOUS
 10
-0.379437
 20
-0.481321
  0
VERTEX
  8
EBENE_1
 62
    39
  6
CONTINUOUS
 10
-0.395438
 20
-0.474343
  0
VERTEX
  8
EBENE_1
 62
    39
  6
CONTINUOUS
 10
-0.411619
 20
-0.466712
  0
VERTEX
  8
EBENE_1
 62
    39
  6
CONTINUOUS
 10
-0.427936
 20
-0.458433
  0
VERTEX
  8
EBENE_1
 62
    39
  6
CONTINUOUS
 10
-0.444346
 20
-0.449508
  0
VERTEX
  8
EBENE_1
 62
    39
  6
CONTINUOUS
 10
-0.460804
 20
-0.439940
  0
VERTEX
  8
EBENE_1
 62
    39
  6
CONTINUOUS
 10
-0.477265
 20
-0.429734
  0
VERTEX
  8
EBENE_1
 62
    39
  6
CONTINUOUS
 10
-0.493685
 20
-0.418891
  0
VERTEX
  8
EBENE_1
 62
    39
  6
CONTINUOUS
 10
-0.510020
 20
-0.407415
  0
VERTEX
  8
EBENE_1
 62
    39
  6
CONTINUOUS
 10
-0.526227
 20
-0.395310
  0
VERTEX
  8
EBENE_1
 62
    39
  6
CONTINUOUS
 10
-0.542259
 20
-0.382578
  0
VERTEX
  8
EBENE_1
 62
    39
  6
CONTINUOUS
 10
-0.558074
 20
-0.369222
  0
VERTEX
  8
EBENE_1
 62
    39
  6
CONTINUOUS
 10
-0.573627
 20
-0.355247
  0
VERTEX
  8
EBENE_1
 62
    39
  6
CONTINUOUS
 10
-0.588873
 20
-0.340654
  0
VERTEX
  8
EBENE_1
 62
    39
  6
CONTINUOUS
 10
-0.603769
 20
-0.325448
  0
VERTEX
  8
EBENE_1
 62
    39
  6
CONTINUOUS
 10
-0.618270
 20
-0.309631
  0
VERTEX
  8
EBENE_1
 62
    39
  6
CONTINUOUS
 10
-0.632332
 20
-0.293206
  0
VERTEX
  8
EBENE_1
 62
    39
  6
CONTINUOUS
 10
-0.645910
 20
-0.276177
  0
VERTEX
  8
EBENE_1
 62
    39
  6
CONTINUOUS
 10
-0.658961
 20
-0.258547
  0
VERTEX
  8
EBENE_1
 62
    39
  6
CONTINUOUS
 10
-0.671440
 20
-0.240319
  0
VERTEX
  8
EBENE_1
 62
    39
  6
CONTINUOUS
 10
-0.683302
 20
-0.221496
  0
VERTEX
  8
EBENE_1
 62
    39
  6
CONTINUOUS
 10
-0.694504
 20
-0.202081
  0
VERTEX
  8
EBENE_1
 62
    39
  6
CONTINUOUS
 10
-0.705002
 20
-0.182078
  0
VERTEX
  8
EBENE_1
 62
    39
  6
CONTINUOUS
 10
-0.714750
 20
-0.161490
  0
VERTEX
  8
EBENE_1
 62
    39
  6
CONTINUOUS
 10
-0.723705
 20
-0.140320
  0
VERTEX
  8
EBENE_1
 62
    39
  6
CONTINUOUS
 10
-0.731823
 20
-0.118571
  0
VERTEX
  8
EBENE_1
 62
    39
  6
CONTINUOUS
 10
-0.731823
 20
-0.118571
  0
VERTEX
  8
EBENE_1
 62
    39
  6
CONTINUOUS
 10
-0.735570
 20
-0.092902
  0
VERTEX
  8
EBENE_1
 62
    39
  6
CONTINUOUS
 10
-0.736596
 20
-0.068692
  0
VERTEX
  8
EBENE_1
 62
    39
  6
CONTINUOUS
 10
-0.735063
 20
-0.046061
  0
VERTEX
  8
EBENE_1
 62
    39
  6
CONTINUOUS
 10
-0.731132
 20
-0.025126
  0
VERTEX
  8
EBENE_1
 62
    39
  6
CONTINUOUS
 10
-0.724964
 20
-0.006007
  0
VERTEX
  8
EBENE_1
 62
    39
  6
CONTINUOUS
 10
-0.716722
 20
0.011177
  0
VERTEX
  8
EBENE_1
 62
    39
  6
CONTINUOUS
 10
-0.706566
 20
0.026308
  0
VERTEX
  8
EBENE_1
 62
    39
  6
CONTINUOUS
 10
-0.694658
 20
0.039266
  0
VERTEX
  8
EBENE_1
 62
    39
  6
CONTINUOUS
 10
-0.681160
 20
0.049933
  0
VERTEX
  8
EBENE_1
 62
    39
  6
CONTINUOUS
 10
-0.666233
 20
0.058189
  0
VERTEX
  8
EBENE_1
 62
    39
  6
CONTINUOUS
 10
-0.650039
 20
0.063917
  0
VERTEX
  8
EBENE_1
 62
    39
  6
CONTINUOUS
 10
-0.310067
 20
0.155161
  0
VERTEX
  8
EBENE_1
 62
    39
  6
CONTINUOUS
 10
-0.286053
 20
0.159449
  0
VERTEX
  8
EBENE_1
 62
    39
  6
CONTINUOUS
 10
-0.267352
 20
0.158519
  0
VERTEX
  8
EBENE_1
 62
    39
  6
CONTINUOUS
 10
-0.252867
 20
0.153310
  0
VERTEX
  8
EBENE_1
 62
    39
  6
CONTINUOUS
 10
-0.241504
 20
0.144764
  0
VERTEX
  8
EBENE_1
 62
    39
  6
CONTINUOUS
 10
-0.232165
 20
0.133821
  0
VERTEX
  8
EBENE_1
 62
    39
  6
CONTINUOUS
 10
-0.223755
 20
0.121419
  0
VERTEX
  8
EBENE_1
 62
    39
  6
CONTINUOUS
 10
-0.215177
 20
0.108500
  0
VERTEX
  8
EBENE_1
 62
    39
  6
CONTINUOUS
 10
-0.205337
 20
0.096004
  0
SEQEND
  8
0
  0
POLYLINE
  8
EBENE_1
 62
    39
  6
CONTINUOUS
 66
     1
 40
0.003000
 41
0.003000
  0
VERTEX
  8
EBENE_1
 62
    39
  6
CONTINUOUS
 10
-0.470252
 20
0.061213
  0
VERTEX
  8
EBENE_1
 62
    39
  6
CONTINUOUS
 10
-0.464570
 20
0.062840
  0
VERTEX
  8
EBENE_1
 62
    39
  6
CONTINUOUS
 10
-0.460390
 20
0.067022
  0
VERTEX
  8
EBENE_1
 62
    39
  6
CONTINUOUS
 10
-0.458764
 20
0.072705
  0
SEQEND
  8
0
  0
POLYLINE
  8
EBENE_1
 62
    39
  6
CONTINUOUS
 66
     1
 40
0.003000
 41
0.003000
  0
VERTEX
  8
EBENE_1
 62
    39
  6
CONTINUOUS
 10
-0.458764
 20
0.072705
  0
VERTEX
  8
EBENE_1
 62
    39
  6
CONTINUOUS
 10
-0.460390
 20
0.078387
  0
VERTEX
  8
EBENE_1
 62
    39
  6
CONTINUOUS
 10
-0.464570
 20
0.082566
  0
VERTEX
  8
EBENE_1
 62
    39
  6
CONTINUOUS
 10
-0.470252
 20
0.084193
  0
SEQEND
  8
0
  0
POLYLINE
  8
EBENE_1
 62
    39
  6
CONTINUOUS
 66
     1
 40
0.003000
 41
0.003000
  0
VERTEX
  8
EBENE_1
 62
    39
  6
CONTINUOUS
 10
-0.470252
 20
0.084193
  0
VERTEX
  8
EBENE_1
 62
    39
  6
CONTINUOUS
 10
-0.476236
 20
0.082566
  0
VERTEX
  8
EBENE_1
 62
    39
  6
CONTINUOUS
 10
-0.480267
 20
0.078387
  0
VERTEX
  8
EBENE_1
 62
    39
  6
CONTINUOUS
 10
-0.481744
 20
0.072705
  0
SEQEND
  8
0
  0
POLYLINE
  8
EBENE_1
 62
    39
  6
CONTINUOUS
 66
     1
 40
0.003000
 41
0.003000
  0
VERTEX
  8
EBENE_1
 62
    39
  6
CONTINUOUS
 10
-0.481744
 20
0.072705
  0
VERTEX
  8
EBENE_1
 62
    39
  6
CONTINUOUS
 10
-0.480267
 20
0.067022
  0
VERTEX
  8
EBENE_1
 62
    39
  6
CONTINUOUS
 10
-0.476236
 20
0.062840
  0
VERTEX
  8
EBENE_1
 62
    39
  6
CONTINUOUS
 10
-0.470252
 20
0.061213
  0
SEQEND
  8
0
  0
POLYLINE
  8
EBENE_1
 62
    39
  6
CONTINUOUS
 66
     1
 40
0.003000
 41
0.003000
  0
VERTEX
  8
EBENE_1
 62
    39
  6
CONTINUOUS
 10
-0.349268
 20
0.087575
  0
VERTEX
  8
EBENE_1
 62
    39
  6
CONTINUOUS
 10
-0.343287
 20
0.089052
  0
VERTEX
  8
EBENE_1
 62
    39
  6
CONTINUOUS
 10
-0.339257
 20
0.093082
  0
VERTEX
  8
EBENE_1
 62
    39
  6
CONTINUOUS
 10
-0.337780
 20
0.099063
  0
SEQEND
  8
0
  0
POLYLINE
  8
EBENE_1
 62
    39
  6
CONTINUOUS
 66
     1
 40
0.003000
 41
0.003000
  0
VERTEX
  8
EBENE_1
 62
    39
  6
CONTINUOUS
 10
-0.337780
 20
0.099063
  0
VERTEX
  8
EBENE_1
 62
    39
  6
CONTINUOUS
 10
-0.339257
 20
0.104746
  0
VERTEX
  8
EBENE_1
 62
    39
  6
CONTINUOUS
 10
-0.343287
 20
0.108927
  0
VERTEX
  8
EBENE_1
 62
    39
  6
CONTINUOUS
 10
-0.349268
 20
0.110555
  0
SEQEND
  8
0
  0
POLYLINE
  8
EBENE_1
 62
    39
  6
CONTINUOUS
 66
     1
 40
0.003000
 41
0.003000
  0
VERTEX
  8
EBENE_1
 62
    39
  6
CONTINUOUS
 10
-0.349268
 20
0.110555
  0
VERTEX
  8
EBENE_1
 62
    39
  6
CONTINUOUS
 10
-0.354951
 20
0.108927
  0
VERTEX
  8
EBENE_1
 62
    39
  6
CONTINUOUS
 10
-0.359132
 20
0.104746
  0
VERTEX
  8
EBENE_1
 62
    39
  6
CONTINUOUS
 10
-0.360760
 20
0.099063
  0
SEQEND
  8
0
  0
POLYLINE
  8
EBENE_1
 62
    39
  6
CONTINUOUS
 66
     1
 40
0.003000
 41
0.003000
  0
VERTEX
  8
EBENE_1
 62
    39
  6
CONTINUOUS
 10
-0.360760
 20
0.099063
  0
VERTEX
  8
EBENE_1
 62
    39
  6
CONTINUOUS
 10
-0.359132
 20
0.093082
  0
VERTEX
  8
EBENE_1
 62
    39
  6
CONTINUOUS
 10
-0.354951
 20
0.089052
  0
VERTEX
  8
EBENE_1
 62
    39
  6
CONTINUOUS
 10
-0.349268
 20
0.087575
  0
SEQEND
  8
0
  0
POLYLINE
  8
EBENE_1
 62
    39
  6
CONTINUOUS
 66
     1
 40
0.003000
 41
0.003000
  0
VERTEX
  8
EBENE_1
 62
    39
  6
CONTINUOUS
 10
-0.230315
 20
0.041614
  0
VERTEX
  8
EBENE_1
 62
    39
  6
CONTINUOUS
 10
-0.224630
 20
0.043241
  0
VERTEX
  8
EBENE_1
 62
    39
  6
CONTINUOUS
 10
-0.220450
 20
0.047421
  0
VERTEX
  8
EBENE_1
 62
    39
  6
CONTINUOUS
 10
-0.218823
 20
0.053102
  0
SEQEND
  8
0
  0
POLYLINE
  8
EBENE_1
 62
    39
  6
CONTINUOUS
 66
     1
 40
0.003000
 41
0.003000
  0
VERTEX
  8
EBENE_1
 62
    39
  6
CONTINUOUS
 10
-0.218823
 20
0.053102
  0
VERTEX
  8
EBENE_1
 62
    39
  6
CONTINUOUS
 10
-0.220450
 20
0.058785
  0
VERTEX
  8
EBENE_1
 62
    39
  6
CONTINUOUS
 10
-0.224630
 20
0.062967
  0
VERTEX
  8
EBENE_1
 62
    39
  6
CONTINUOUS
 10
-0.230315
 20
0.064594
  0
SEQEND
  8
0
  0
POLYLINE
  8
EBENE_1
 62
    39
  6
CONTINUOUS
 66
     1
 40
0.003000
 41
0.003000
  0
VERTEX
  8
EBENE_1
 62
    39
  6
CONTINUOUS
 10
-0.230315
 20
0.064594
  0
VERTEX
  8
EBENE_1
 62
    39
  6
CONTINUOUS
 10
-0.235995
 20
0.062967
  0
VERTEX
  8
EBENE_1
 62
    39
  6
CONTINUOUS
 10
-0.240176
 20
0.058785
  0
VERTEX
  8
EBENE_1
 62
    39
  6
CONTINUOUS
 10
-0.241803
 20
0.053102
  0
SEQEND
  8
0
  0
POLYLINE
  8
EBENE_1
 62
    39
  6
CONTINUOUS
 66
     1
 40
0.003000
 41
0.003000
  0
VERTEX
  8
EBENE_1
 62
    39
  6
CONTINUOUS
 10
-0.241803
 20
0.053102
  0
VERTEX
  8
EBENE_1
 62
    39
  6
CONTINUOUS
 10
-0.240176
 20
0.047421
  0
VERTEX
  8
EBENE_1
 62
    39
  6
CONTINUOUS
 10
-0.235995
 20
0.043241
  0
VERTEX
  8
EBENE_1
 62
    39
  6
CONTINUOUS
 10
-0.230315
 20
0.041614
  0
SEQEND
  8
0
  0
POLYLINE
  8
EBENE_1
 62
    39
  6
CONTINUOUS
 66
     1
 40
0.003000
 41
0.003000
 70
     1
  0
VERTEX
  8
EBENE_1
 62
    39
  6
CONTINUOUS
 10
0.673346
 20
-0.803921
  0
VERTEX
  8
EBENE_1
 62
    39
  6
CONTINUOUS
 10
1.096453
 20
-0.703890
  0
VERTEX
  8
EBENE_1
 62
    39
  6
CONTINUOUS
 10
1.113446
 20
-0.700029
  0
VERTEX
  8
EBENE_1
 62
    39
  6
CONTINUOUS
 10
1.131021
 20
-0.695829
  0
VERTEX
  8
EBENE_1
 62
    39
  6
CONTINUOUS
 10
1.149051
 20
-0.691258
  0
VERTEX
  8
EBENE_1
 62
    39
  6
CONTINUOUS
 10
1.167413
 20
-0.686285
  0
VERTEX
  8
EBENE_1
 62
    39
  6
CONTINUOUS
 10
1.185981
 20
-0.680877
  0
VERTEX
  8
EBENE_1
 62
    39
  6
CONTINUOUS
 10
1.204631
 20
-0.675003
  0
VERTEX
  8
EBENE_1
 62
    39
  6
CONTINUOUS
 10
1.223239
 20
-0.668630
  0
VERTEX
  8
EBENE_1
 62
    39
  6
CONTINUOUS
 10
1.241679
 20
-0.661726
  0
VERTEX
  8
EBENE_1
 62
    39
  6
CONTINUOUS
 10
1.259828
 20
-0.654259
  0
VERTEX
  8
EBENE_1
 62
    39
  6
CONTINUOUS
 10
1.277559
 20
-0.646198
  0
VERTEX
  8
EBENE_1
 62
    39
  6
CONTINUOUS
 10
1.294750
 20
-0.637511
  0
VERTEX
  8
EBENE_1
 62
    39
  6
CONTINUOUS
 10
1.311275
 20
-0.628164
  0
VERTEX
  8
EBENE_1
 62
    39
  6
CONTINUOUS
 10
1.327009
 20
-0.618127
  0
VERTEX
  8
EBENE_1
 62
    39
  6
CONTINUOUS
 10
1.341827
 20
-0.607368
  0
VERTEX
  8
EBENE_1
 62
    39
  6
CONTINUOUS
 10
1.355606
 20
-0.595854
  0
VERTEX
  8
EBENE_1
 62
    39
  6
CONTINUOUS
 10
1.368220
 20
-0.583553
  0
VERTEX
  8
EBENE_1
 62
    39
  6
CONTINUOUS
 10
1.379545
 20
-0.570434
  0
VERTEX
  8
EBENE_1
 62
    39
  6
CONTINUOUS
 10
1.389457
 20
-0.556464
  0
VERTEX
  8
EBENE_1
 62
    39
  6
CONTINUOUS
 10
1.397829
 20
-0.541612
  0
VERTEX
  8
EBENE_1
 62
    39
  6
CONTINUOUS
 10
1.404539
 20
-0.525845
  0
VERTEX
  8
EBENE_1
 62
    39
  6
CONTINUOUS
 10
1.409460
 20
-0.509131
  0
VERTEX
  8
EBENE_1
 62
    39
  6
CONTINUOUS
 10
1.412469
 20
-0.491439
  0
VERTEX
  8
EBENE_1
 62
    39
  6
CONTINUOUS
 10
1.413441
 20
-0.472736
  0
VERTEX
  8
EBENE_1
 62
    39
  6
CONTINUOUS
 10
1.413441
 20
-0.472736
  0
VERTEX
  8
EBENE_1
 62
    39
  6
CONTINUOUS
 10
1.413441
 20
-0.297008
  0
VERTEX
  8
EBENE_1
 62
    39
  6
CONTINUOUS
 10
1.316791
 20
-0.272673
  0
VERTEX
  8
EBENE_1
 62
    39
  6
CONTINUOUS
 10
1.295702
 20
-0.281916
  0
VERTEX
  8
EBENE_1
 62
    39
  6
CONTINUOUS
 10
1.274966
 20
-0.291347
  0
VERTEX
  8
EBENE_1
 62
    39
  6
CONTINUOUS
 10
1.254579
 20
-0.300963
  0
VERTEX
  8
EBENE_1
 62
    39
  6
CONTINUOUS
 10
1.234536
 20
-0.310761
  0
VERTEX
  8
EBENE_1
 62
    39
  6
CONTINUOUS
 10
1.214832
 20
-0.320738
  0
VERTEX
  8
EBENE_1
 62
    39
  6
CONTINUOUS
 10
1.195463
 20
-0.330892
  0
VERTEX
  8
EBENE_1
 62
    39
  6
CONTINUOUS
 10
1.176425
 20
-0.341218
  0
VERTEX
  8
EBENE_1
 62
    39
  6
CONTINUOUS
 10
1.157713
 20
-0.351716
  0
VERTEX
  8
EBENE_1
 62
    39
  6
CONTINUOUS
 10
1.139322
 20
-0.362380
  0
VERTEX
  8
EBENE_1
 62
    39
  6
CONTINUOUS
 10
1.121249
 20
-0.373210
  0
VERTEX
  8
EBENE_1
 62
    39
  6
CONTINUOUS
 10
1.103488
 20
-0.384201
  0
VERTEX
  8
EBENE_1
 62
    39
  6
CONTINUOUS
 10
1.086036
 20
-0.395351
  0
VERTEX
  8
EBENE_1
 62
    39
  6
CONTINUOUS
 10
1.068887
 20
-0.406657
  0
VERTEX
  8
EBENE_1
 62
    39
  6
CONTINUOUS
 10
1.052037
 20
-0.418116
  0
VERTEX
  8
EBENE_1
 62
    39
  6
CONTINUOUS
 10
1.035482
 20
-0.429725
  0
VERTEX
  8
EBENE_1
 62
    39
  6
CONTINUOUS
 10
1.019217
 20
-0.441482
  0
VERTEX
  8
EBENE_1
 62
    39
  6
CONTINUOUS
 10
1.003237
 20
-0.453382
  0
VERTEX
  8
EBENE_1
 62
    39
  6
CONTINUOUS
 10
0.987539
 20
-0.465424
  0
VERTEX
  8
EBENE_1
 62
    39
  6
CONTINUOUS
 10
0.972118
 20
-0.477605
  0
VERTEX
  8
EBENE_1
 62
    39
  6
CONTINUOUS
 10
0.956969
 20
-0.489921
  0
VERTEX
  8
EBENE_1
 62
    39
  6
CONTINUOUS
 10
0.942087
 20
-0.502370
  0
VERTEX
  8
EBENE_1
 62
    39
  6
CONTINUOUS
 10
0.927469
 20
-0.514948
  0
VERTEX
  8
EBENE_1
 62
    39
  6
CONTINUOUS
 10
0.913110
 20
-0.527653
  0
VERTEX
  8
EBENE_1
 62
    39
  6
CONTINUOUS
 10
0.899005
 20
-0.540483
  0
VERTEX
  8
EBENE_1
 62
    39
  6
CONTINUOUS
 10
0.885149
 20
-0.553433
  0
VERTEX
  8
EBENE_1
 62
    39
  6
CONTINUOUS
 10
0.871539
 20
-0.566501
  0
VERTEX
  8
EBENE_1
 62
    39
  6
CONTINUOUS
 10
0.858170
 20
-0.579685
  0
VERTEX
  8
EBENE_1
 62
    39
  6
CONTINUOUS
 10
0.845037
 20
-0.592981
  0
VERTEX
  8
EBENE_1
 62
    39
  6
CONTINUOUS
 10
0.832136
 20
-0.606386
  0
VERTEX
  8
EBENE_1
 62
    39
  6
CONTINUOUS
 10
0.819462
 20
-0.619898
  0
VERTEX
  8
EBENE_1
 62
    39
  6
CONTINUOUS
 10
0.807011
 20
-0.633514
  0
VERTEX
  8
EBENE_1
 62
    39
  6
CONTINUOUS
 10
0.794778
 20
-0.647230
  0
VERTEX
  8
EBENE_1
 62
    39
  6
CONTINUOUS
 10
0.782759
 20
-0.661044
  0
VERTEX
  8
EBENE_1
 62
    39
  6
CONTINUOUS
 10
0.770950
 20
-0.674953
  0
VERTEX
  8
EBENE_1
 62
    39
  6
CONTINUOUS
 10
0.759345
 20
-0.688953
  0
VERTEX
  8
EBENE_1
 62
    39
  6
CONTINUOUS
 10
0.747941
 20
-0.703043
  0
VERTEX
  8
EBENE_1
 62
    39
  6
CONTINUOUS
 10
0.736733
 20
-0.717219
  0
VERTEX
  8
EBENE_1
 62
    39
  6
CONTINUOUS
 10
0.725716
 20
-0.731478
  0
VERTEX
  8
EBENE_1
 62
    39
  6
CONTINUOUS
 10
0.714886
 20
-0.745818
  0
VERTEX
  8
EBENE_1
 62
    39
  6
CONTINUOUS
 10
0.704239
 20
-0.760235
  0
VERTEX
  8
EBENE_1
 62
    39
  6
CONTINUOUS
 10
0.693769
 20
-0.774726
  0
VERTEX
  8
EBENE_1
 62
    39
  6
CONTINUOUS
 10
0.683473
 20
-0.789289
  0
VERTEX
  8
EBENE_1
 62
    39
  6
CONTINUOUS
 10
0.673346
 20
-0.803921
  0
SEQEND
  8
0
  0
POLYLINE
  8
EBENE_1
 62
    39
  6
CONTINUOUS
 66
     1
 40
0.003000
 41
0.003000
 70
     1
  0
VERTEX
  8
EBENE_1
 62
    39
  6
CONTINUOUS
 10
0.656449
 20
-0.812031
  0
VERTEX
  8
EBENE_1
 62
    39
  6
CONTINUOUS
 10
1.088343
 20
-0.710650
  0
VERTEX
  8
EBENE_1
 62
    39
  6
CONTINUOUS
 10
1.104957
 20
-0.706949
  0
VERTEX
  8
EBENE_1
 62
    39
  6
CONTINUOUS
 10
1.122115
 20
-0.702925
  0
VERTEX
  8
EBENE_1
 62
    39
  6
CONTINUOUS
 10
1.139704
 20
-0.698550
  0
VERTEX
  8
EBENE_1
 62
    39
  6
CONTINUOUS
 10
1.157614
 20
-0.693797
  0
VERTEX
  8
EBENE_1
 62
    39
  6
CONTINUOUS
 10
1.175733
 20
-0.688637
  0
VERTEX
  8
EBENE_1
 62
    39
  6
CONTINUOUS
 10
1.193949
 20
-0.683044
  0
VERTEX
  8
EBENE_1
 62
    39
  6
CONTINUOUS
 10
1.212151
 20
-0.676990
  0
VERTEX
  8
EBENE_1
 62
    39
  6
CONTINUOUS
 10
1.230228
 20
-0.670448
  0
VERTEX
  8
EBENE_1
 62
    39
  6
CONTINUOUS
 10
1.248067
 20
-0.663388
  0
VERTEX
  8
EBENE_1
 62
    39
  6
CONTINUOUS
 10
1.265558
 20
-0.655785
  0
VERTEX
  8
EBENE_1
 62
    39
  6
CONTINUOUS
 10
1.282590
 20
-0.647611
  0
VERTEX
  8
EBENE_1
 62
    39
  6
CONTINUOUS
 10
1.299049
 20
-0.638837
  0
VERTEX
  8
EBENE_1
 62
    39
  6
CONTINUOUS
 10
1.314826
 20
-0.629437
  0
VERTEX
  8
EBENE_1
 62
    39
  6
CONTINUOUS
 10
1.329808
 20
-0.619382
  0
VERTEX
  8
EBENE_1
 62
    39
  6
CONTINUOUS
 10
1.343885
 20
-0.608646
  0
VERTEX
  8
EBENE_1
 62
    39
  6
CONTINUOUS
 10
1.356944
 20
-0.597201
  0
VERTEX
  8
EBENE_1
 62
    39
  6
CONTINUOUS
 10
1.368875
 20
-0.585018
  0
VERTEX
  8
EBENE_1
 62
    39
  6
CONTINUOUS
 10
1.379565
 20
-0.572071
  0
VERTEX
  8
EBENE_1
 62
    39
  6
CONTINUOUS
 10
1.388903
 20
-0.558332
  0
VERTEX
  8
EBENE_1
 62
    39
  6
CONTINUOUS
 10
1.396778
 20
-0.543774
  0
VERTEX
  8
EBENE_1
 62
    39
  6
CONTINUOUS
 10
1.403079
 20
-0.528368
  0
VERTEX
  8
EBENE_1
 62
    39
  6
CONTINUOUS
 10
1.407693
 20
-0.512087
  0
VERTEX
  8
EBENE_1
 62
    39
  6
CONTINUOUS
 10
1.410510
 20
-0.494904
  0
VERTEX
  8
EBENE_1
 62
    39
  6
CONTINUOUS
 10
1.411417
 20
-0.476791
  0
VERTEX
  8
EBENE_1
 62
    39
  6
CONTINUOUS
 10
1.411417
 20
-0.476791
  0
VERTEX
  8
EBENE_1
 62
    39
  6
CONTINUOUS
 10
1.411417
 20
-0.299031
  0
VERTEX
  8
EBENE_1
 62
    39
  6
CONTINUOUS
 10
1.313413
 20
-0.274701
  0
VERTEX
  8
EBENE_1
 62
    39
  6
CONTINUOUS
 10
1.292344
 20
-0.283825
  0
VERTEX
  8
EBENE_1
 62
    39
  6
CONTINUOUS
 10
1.271622
 20
-0.293131
  0
VERTEX
  8
EBENE_1
 62
    39
  6
CONTINUOUS
 10
1.251243
 20
-0.302615
  0
VERTEX
  8
EBENE_1
 62
    39
  6
CONTINUOUS
 10
1.231203
 20
-0.312276
  0
VERTEX
  8
EBENE_1
 62
    39
  6
CONTINUOUS
 10
1.211497
 20
-0.322111
  0
VERTEX
  8
EBENE_1
 62
    39
  6
CONTINUOUS
 10
1.192121
 20
-0.332116
  0
VERTEX
  8
EBENE_1
 62
    39
  6
CONTINUOUS
 10
1.173070
 20
-0.342289
  0
VERTEX
  8
EBENE_1
 62
    39
  6
CONTINUOUS
 10
1.154341
 20
-0.352627
  0
VERTEX
  8
EBENE_1
 62
    39
  6
CONTINUOUS
 10
1.135927
 20
-0.363128
  0
VERTEX
  8
EBENE_1
 62
    39
  6
CONTINUOUS
 10
1.117826
 20
-0.373789
  0
VERTEX
  8
EBENE_1
 62
    39
  6
CONTINUOUS
 10
1.100032
 20
-0.384607
  0
VERTEX
  8
EBENE_1
 62
    39
  6
CONTINUOUS
 10
1.082542
 20
-0.395580
  0
VERTEX
  8
EBENE_1
 62
    39
  6
CONTINUOUS
 10
1.065350
 20
-0.406704
  0
VERTEX
  8
EBENE_1
 62
    39
  6
CONTINUOUS
 10
1.048453
 20
-0.417978
  0
VERTEX
  8
EBENE_1
 62
    39
  6
CONTINUOUS
 10
1.031845
 20
-0.429397
  0
VERTEX
  8
EBENE_1
 62
    39
  6
CONTINUOUS
 10
1.015523
 20
-0.440961
  0
VERTEX
  8
EBENE_1
 62
    39
  6
CONTINUOUS
 10
0.999483
 20
-0.452665
  0
VERTEX
  8
EBENE_1
 62
    39
  6
CONTINUOUS
 10
0.983718
 20
-0.464508
  0
VERTEX
  8
EBENE_1
 62
    39
  6
CONTINUOUS
 10
0.968226
 20
-0.476486
  0
VERTEX
  8
EBENE_1
 62
    39
  6
CONTINUOUS
 10
0.953002
 20
-0.488596
  0
VERTEX
  8
EBENE_1
 62
    39
  6
CONTINUOUS
 10
0.938041
 20
-0.500837
  0
VERTEX
  8
EBENE_1
 62
    39
  6
CONTINUOUS
 10
0.923340
 20
-0.513205
  0
VERTEX
  8
EBENE_1
 62
    39
  6
CONTINUOUS
 10
0.908892
 20
-0.525698
  0
VERTEX
  8
EBENE_1
 62
    39
  6
CONTINUOUS
 10
0.894695
 20
-0.538313
  0
VERTEX
  8
EBENE_1
 62
    39
  6
CONTINUOUS
 10
0.880743
 20
-0.551047
  0
VERTEX
  8
EBENE_1
 62
    39
  6
CONTINUOUS
 10
0.867033
 20
-0.563897
  0
VERTEX
  8
EBENE_1
 62
    39
  6
CONTINUOUS
 10
0.853559
 20
-0.576861
  0
VERTEX
  8
EBENE_1
 62
    39
  6
CONTINUOUS
 10
0.840318
 20
-0.589936
  0
VERTEX
  8
EBENE_1
 62
    39
  6
CONTINUOUS
 10
0.827305
 20
-0.603120
  0
VERTEX
  8
EBENE_1
 62
    39
  6
CONTINUOUS
 10
0.814515
 20
-0.616409
  0
VERTEX
  8
EBENE_1
 62
    39
  6
CONTINUOUS
 10
0.801945
 20
-0.629801
  0
VERTEX
  8
EBENE_1
 62
    39
  6
CONTINUOUS
 10
0.789589
 20
-0.643294
  0
VERTEX
  8
EBENE_1
 62
    39
  6
CONTINUOUS
 10
0.777443
 20
-0.656884
  0
VERTEX
  8
EBENE_1
 62
    39
  6
CONTINUOUS
 10
0.765503
 20
-0.670568
  0
VERTEX
  8
EBENE_1
 62
    39
  6
CONTINUOUS
 10
0.753764
 20
-0.684345
  0
VERTEX
  8
EBENE_1
 62
    39
  6
CONTINUOUS
 10
0.742223
 20
-0.698211
  0
VERTEX
  8
EBENE_1
 62
    39
  6
CONTINUOUS
 10
0.730874
 20
-0.712164
  0
VERTEX
  8
EBENE_1
 62
    39
  6
CONTINUOUS
 10
0.719713
 20
-0.726201
  0
VERTEX
  8
EBENE_1
 62
    39
  6
CONTINUOUS
 10
0.708735
 20
-0.740318
  0
VERTEX
  8
EBENE_1
 62
    39
  6
CONTINUOUS
 10
0.697937
 20
-0.754515
  0
VERTEX
  8
EBENE_1
 62
    39
  6
CONTINUOUS
 10
0.687314
 20
-0.768787
  0
VERTEX
  8
EBENE_1
 62
    39
  6
CONTINUOUS
 10
0.676861
 20
-0.783132
  0
VERTEX
  8
EBENE_1
 62
    39
  6
CONTINUOUS
 10
0.666574
 20
-0.797548
  0
VERTEX
  8
EBENE_1
 62
    39
  6
CONTINUOUS
 10
0.656449
 20
-0.812031
  0
SEQEND
  8
0
  0
POLYLINE
  8
EBENE_1
 62
    39
  6
CONTINUOUS
 66
     1
 40
0.003000
 41
0.003000
 70
     1
  0
VERTEX
  8
EBENE_1
 62
    39
  6
CONTINUOUS
 10
0.661181
 20
-0.810681
  0
VERTEX
  8
EBENE_1
 62
    39
  6
CONTINUOUS
 10
1.080228
 20
-0.705244
  0
VERTEX
  8
EBENE_1
 62
    39
  6
CONTINUOUS
 10
1.097663
 20
-0.701251
  0
VERTEX
  8
EBENE_1
 62
    39
  6
CONTINUOUS
 10
1.115677
 20
-0.697004
  0
VERTEX
  8
EBENE_1
 62
    39
  6
CONTINUOUS
 10
1.134144
 20
-0.692464
  0
VERTEX
  8
EBENE_1
 62
    39
  6
CONTINUOUS
 10
1.152936
 20
-0.687591
  0
VERTEX
  8
EBENE_1
 62
    39
  6
CONTINUOUS
 10
1.171929
 20
-0.682346
  0
VERTEX
  8
EBENE_1
 62
    39
  6
CONTINUOUS
 10
1.190995
 20
-0.676690
  0
VERTEX
  8
EBENE_1
 62
    39
  6
CONTINUOUS
 10
1.210009
 20
-0.670583
  0
VERTEX
  8
EBENE_1
 62
    39
  6
CONTINUOUS
 10
1.228843
 20
-0.663986
  0
VERTEX
  8
EBENE_1
 62
    39
  6
CONTINUOUS
 10
1.247372
 20
-0.656860
  0
VERTEX
  8
EBENE_1
 62
    39
  6
CONTINUOUS
 10
1.265470
 20
-0.649165
  0
VERTEX
  8
EBENE_1
 62
    39
  6
CONTINUOUS
 10
1.283009
 20
-0.640863
  0
VERTEX
  8
EBENE_1
 62
    39
  6
CONTINUOUS
 10
1.299865
 20
-0.631913
  0
VERTEX
  8
EBENE_1
 62
    39
  6
CONTINUOUS
 10
1.315909
 20
-0.622276
  0
VERTEX
  8
EBENE_1
 62
    39
  6
CONTINUOUS
 10
1.331017
 20
-0.611914
  0
VERTEX
  8
EBENE_1
 62
    39
  6
CONTINUOUS
 10
1.345061
 20
-0.600786
  0
VERTEX
  8
EBENE_1
 62
    39
  6
CONTINUOUS
 10
1.357916
 20
-0.588854
  0
VERTEX
  8
EBENE_1
 62
    39
  6
CONTINUOUS
 10
1.369455
 20
-0.576078
  0
VERTEX
  8
EBENE_1
 62
    39
  6
CONTINUOUS
 10
1.379552
 20
-0.562418
  0
VERTEX
  8
EBENE_1
 62
    39
  6
CONTINUOUS
 10
1.388080
 20
-0.547836
  0
VERTEX
  8
EBENE_1
 62
    39
  6
CONTINUOUS
 10
1.394913
 20
-0.532292
  0
VERTEX
  8
EBENE_1
 62
    39
  6
CONTINUOUS
 10
1.399925
 20
-0.515747
  0
VERTEX
  8
EBENE_1
 62
    39
  6
CONTINUOUS
 10
1.402990
 20
-0.498162
  0
VERTEX
  8
EBENE_1
 62
    39
  6
CONTINUOUS
 10
1.403980
 20
-0.479496
  0
VERTEX
  8
EBENE_1
 62
    39
  6
CONTINUOUS
 10
1.403980
 20
-0.479496
  0
VERTEX
  8
EBENE_1
 62
    39
  6
CONTINUOUS
 10
1.407362
 20
-0.303091
  0
VERTEX
  8
EBENE_1
 62
    39
  6
CONTINUOUS
 10
1.310031
 20
-0.279433
  0
VERTEX
  8
EBENE_1
 62
    39
  6
CONTINUOUS
 10
1.288756
 20
-0.288675
  0
VERTEX
  8
EBENE_1
 62
    39
  6
CONTINUOUS
 10
1.267838
 20
-0.298103
  0
VERTEX
  8
EBENE_1
 62
    39
  6
CONTINUOUS
 10
1.247273
 20
-0.307714
  0
VERTEX
  8
EBENE_1
 62
    39
  6
CONTINUOUS
 10
1.227056
 20
-0.317505
  0
VERTEX
  8
EBENE_1
 62
    39
  6
CONTINUOUS
 10
1.207182
 20
-0.327474
  0
VERTEX
  8
EBENE_1
 62
    39
  6
CONTINUOUS
 10
1.187648
 20
-0.337617
  0
VERTEX
  8
EBENE_1
 62
    39
  6
CONTINUOUS
 10
1.168447
 20
-0.347933
  0
VERTEX
  8
EBENE_1
 62
    39
  6
CONTINUOUS
 10
1.149577
 20
-0.358418
  0
VERTEX
  8
EBENE_1
 62
    39
  6
CONTINUOUS
 10
1.131031
 20
-0.369070
  0
VERTEX
  8
EBENE_1
 62
    39
  6
CONTINUOUS
 10
1.112806
 20
-0.379885
  0
VERTEX
  8
EBENE_1
 62
    39
  6
CONTINUOUS
 10
1.094897
 20
-0.390862
  0
VERTEX
  8
EBENE_1
 62
    39
  6
CONTINUOUS
 10
1.077300
 20
-0.401997
  0
VERTEX
  8
EBENE_1
 62
    39
  6
CONTINUOUS
 10
1.060009
 20
-0.413288
  0
VERTEX
  8
EBENE_1
 62
    39
  6
CONTINUOUS
 10
1.043021
 20
-0.424731
  0
VERTEX
  8
EBENE_1
 62
    39
  6
CONTINUOUS
 10
1.026330
 20
-0.436324
  0
VERTEX
  8
EBENE_1
 62
    39
  6
CONTINUOUS
 10
1.009932
 20
-0.448065
  0
VERTEX
  8
EBENE_1
 62
    39
  6
CONTINUOUS
 10
0.993823
 20
-0.459950
  0
VERTEX
  8
EBENE_1
 62
    39
  6
CONTINUOUS
 10
0.977997
 20
-0.471977
  0
VERTEX
  8
EBENE_1
 62
    39
  6
CONTINUOUS
 10
0.962451
 20
-0.484143
  0
VERTEX
  8
EBENE_1
 62
    39
  6
CONTINUOUS
 10
0.947179
 20
-0.496446
  0
VERTEX
  8
EBENE_1
 62
    39
  6
CONTINUOUS
 10
0.932178
 20
-0.508881
  0
VERTEX
  8
EBENE_1
 62
    39
  6
CONTINUOUS
 10
0.917441
 20
-0.521448
  0
VERTEX
  8
EBENE_1
 62
    39
  6
CONTINUOUS
 10
0.902966
 20
-0.534143
  0
VERTEX
  8
EBENE_1
 62
    39
  6
CONTINUOUS
 10
0.888747
 20
-0.546963
  0
VERTEX
  8
EBENE_1
 62
    39
  6
CONTINUOUS
 10
0.874780
 20
-0.559905
  0
VERTEX
  8
EBENE_1
 62
    39
  6
CONTINUOUS
 10
0.861060
 20
-0.572968
  0
VERTEX
  8
EBENE_1
 62
    39
  6
CONTINUOUS
 10
0.847583
 20
-0.586147
  0
VERTEX
  8
EBENE_1
 62
    39
  6
CONTINUOUS
 10
0.834343
 20
-0.599440
  0
VERTEX
  8
EBENE_1
 62
    39
  6
CONTINUOUS
 10
0.821337
 20
-0.612845
  0
VERTEX
  8
EBENE_1
 62
    39
  6
CONTINUOUS
 10
0.808559
 20
-0.626359
  0
VERTEX
  8
EBENE_1
 62
    39
  6
CONTINUOUS
 10
0.796006
 20
-0.639979
  0
VERTEX
  8
EBENE_1
 62
    39
  6
CONTINUOUS
 10
0.783672
 20
-0.653702
  0
VERTEX
  8
EBENE_1
 62
    39
  6
CONTINUOUS
 10
0.771554
 20
-0.667525
  0
VERTEX
  8
EBENE_1
 62
    39
  6
CONTINUOUS
 10
0.759645
 20
-0.681447
  0
VERTEX
  8
EBENE_1
 62
    39
  6
CONTINUOUS
 10
0.747943
 20
-0.695463
  0
VERTEX
  8
EBENE_1
 62
    39
  6
CONTINUOUS
 10
0.736441
 20
-0.709571
  0
VERTEX
  8
EBENE_1
 62
    39
  6
CONTINUOUS
 10
0.725137
 20
-0.723769
  0
VERTEX
  8
EBENE_1
 62
    39
  6
CONTINUOUS
 10
0.714024
 20
-0.738054
  0
VERTEX
  8
EBENE_1
 62
    39
  6
CONTINUOUS
 10
0.703099
 20
-0.752422
  0
VERTEX
  8
EBENE_1
 62
    39
  6
CONTINUOUS
 10
0.692357
 20
-0.766872
  0
VERTEX
  8
EBENE_1
 62
    39
  6
CONTINUOUS
 10
0.681793
 20
-0.781400
  0
VERTEX
  8
EBENE_1
 62
    39
  6
CONTINUOUS
 10
0.671402
 20
-0.796004
  0
VERTEX
  8
EBENE_1
 62
    39
  6
CONTINUOUS
 10
0.661181
 20
-0.810681
  0
SEQEND
  8
0
  0
POLYLINE
  8
EBENE_1
 62
    39
  6
CONTINUOUS
 66
     1
 40
0.003000
 41
0.003000
  0
VERTEX
  8
EBENE_1
 62
    39
  6
CONTINUOUS
 10
0.562500
 20
-0.221307
  0
VERTEX
  8
EBENE_1
 62
    39
  6
CONTINUOUS
 10
0.568483
 20
-0.219680
  0
VERTEX
  8
EBENE_1
 62
    39
  6
CONTINUOUS
 10
0.572512
 20
-0.215500
  0
VERTEX
  8
EBENE_1
 62
    39
  6
CONTINUOUS
 10
0.573988
 20
-0.209815
  0
SEQEND
  8
0
  0
POLYLINE
  8
EBENE_1
 62
    39
  6
CONTINUOUS
 66
     1
 40
0.003000
 41
0.003000
  0
VERTEX
  8
EBENE_1
 62
    39
  6
CONTINUOUS
 10
0.573988
 20
-0.209815
  0
VERTEX
  8
EBENE_1
 62
    39
  6
CONTINUOUS
 10
0.572512
 20
-0.204133
  0
VERTEX
  8
EBENE_1
 62
    39
  6
CONTINUOUS
 10
0.568483
 20
-0.199953
  0
VERTEX
  8
EBENE_1
 62
    39
  6
CONTINUOUS
 10
0.562500
 20
-0.198327
  0
SEQEND
  8
0
  0
POLYLINE
  8
EBENE_1
 62
    39
  6
CONTINUOUS
 66
     1
 40
0.003000
 41
0.003000
  0
VERTEX
  8
EBENE_1
 62
    39
  6
CONTINUOUS
 10
0.562500
 20
-0.198327
  0
VERTEX
  8
EBENE_1
 62
    39
  6
CONTINUOUS
 10
0.556817
 20
-0.199953
  0
VERTEX
  8
EBENE_1
 62
    39
  6
CONTINUOUS
 10
0.552636
 20
-0.204133
  0
VERTEX
  8
EBENE_1
 62
    39
  6
CONTINUOUS
 10
0.551008
 20
-0.209815
  0
SEQEND
  8
0
  0
POLYLINE
  8
EBENE_1
 62
    39
  6
CONTINUOUS
 66
     1
 40
0.003000
 41
0.003000
  0
VERTEX
  8
EBENE_1
 62
    39
  6
CONTINUOUS
 10
0.551008
 20
-0.209815
  0
VERTEX
  8
EBENE_1
 62
    39
  6
CONTINUOUS
 10
0.552636
 20
-0.215500
  0
VERTEX
  8
EBENE_1
 62
    39
  6
CONTINUOUS
 10
0.556817
 20
-0.219680
  0
VERTEX
  8
EBENE_1
 62
    39
  6
CONTINUOUS
 10
0.562500
 20
-0.221307
  0
SEQEND
  8
0
  0
POLYLINE
  8
EBENE_1
 62
    39
  6
CONTINUOUS
 66
     1
 40
0.003000
 41
0.003000
  0
VERTEX
  8
EBENE_1
 62
    39
  6
CONTINUOUS
 10
0.841642
 20
-0.193594
  0
VERTEX
  8
EBENE_1
 62
    39
  6
CONTINUOUS
 10
0.847324
 20
-0.192117
  0
VERTEX
  8
EBENE_1
 62
    39
  6
CONTINUOUS
 10
0.851503
 20
-0.188087
  0
VERTEX
  8
EBENE_1
 62
    39
  6
CONTINUOUS
 10
0.853130
 20
-0.182106
  0
SEQEND
  8
0
  0
POLYLINE
  8
EBENE_1
 62
    39
  6
CONTINUOUS
 66
     1
 40
0.003000
 41
0.003000
  0
VERTEX
  8
EBENE_1
 62
    39
  6
CONTINUOUS
 10
0.853130
 20
-0.182106
  0
VERTEX
  8
EBENE_1
 62
    39
  6
CONTINUOUS
 10
0.851503
 20
-0.176423
  0
VERTEX
  8
EBENE_1
 62
    39
  6
CONTINUOUS
 10
0.847324
 20
-0.172242
  0
VERTEX
  8
EBENE_1
 62
    39
  6
CONTINUOUS
 10
0.841642
 20
-0.170614
  0
SEQEND
  8
0
  0
POLYLINE
  8
EBENE_1
 62
    39
  6
CONTINUOUS
 66
     1
 40
0.003000
 41
0.003000
  0
VERTEX
  8
EBENE_1
 62
    39
  6
CONTINUOUS
 10
0.841642
 20
-0.170614
  0
VERTEX
  8
EBENE_1
 62
    39
  6
CONTINUOUS
 10
0.835960
 20
-0.172242
  0
VERTEX
  8
EBENE_1
 62
    39
  6
CONTINUOUS
 10
0.831780
 20
-0.176423
  0
VERTEX
  8
EBENE_1
 62
    39
  6
CONTINUOUS
 10
0.830154
 20
-0.182106
  0
SEQEND
  8
0
  0
POLYLINE
  8
EBENE_1
 62
    39
  6
CONTINUOUS
 66
     1
 40
0.003000
 41
0.003000
  0
VERTEX
  8
EBENE_1
 62
    39
  6
CONTINUOUS
 10
0.830154
 20
-0.182106
  0
VERTEX
  8
EBENE_1
 62
    39
  6
CONTINUOUS
 10
0.831780
 20
-0.188087
  0
VERTEX
  8
EBENE_1
 62
    39
  6
CONTINUOUS
 10
0.835960
 20
-0.192117
  0
VERTEX
  8
EBENE_1
 62
    39
  6
CONTINUOUS
 10
0.841642
 20
-0.193594
  0
SEQEND
  8
0
  0
POLYLINE
  8
EBENE_1
 62
    39
  6
CONTINUOUS
 66
     1
 40
0.003000
 41
0.003000
 70
     1
  0
VERTEX
  8
EBENE_1
 62
    39
  6
CONTINUOUS
 10
1.410063
 20
-0.033409
  0
VERTEX
  8
EBENE_1
 62
    39
  6
CONTINUOUS
 10
1.412091
 20
-0.321339
  0
VERTEX
  8
EBENE_1
 62
    39
  6
CONTINUOUS
 10
1.412004
 20
-0.333585
  0
VERTEX
  8
EBENE_1
 62
    39
  6
CONTINUOUS
 10
1.411131
 20
-0.345758
  0
VERTEX
  8
EBENE_1
 62
    39
  6
CONTINUOUS
 10
1.409483
 20
-0.357856
  0
VERTEX
  8
EBENE_1
 62
    39
  6
CONTINUOUS
 10
1.407074
 20
-0.369877
  0
VERTEX
  8
EBENE_1
 62
    39
  6
CONTINUOUS
 10
1.403918
 20
-0.381820
  0
VERTEX
  8
EBENE_1
 62
    39
  6
CONTINUOUS
 10
1.400027
 20
-0.393683
  0
VERTEX
  8
EBENE_1
 62
    39
  6
CONTINUOUS
 10
1.395415
 20
-0.405464
  0
VERTEX
  8
EBENE_1
 62
    39
  6
CONTINUOUS
 10
1.390096
 20
-0.417161
  0
VERTEX
  8
EBENE_1
 62
    39
  6
CONTINUOUS
 10
1.384083
 20
-0.428774
  0
VERTEX
  8
EBENE_1
 62
    39
  6
CONTINUOUS
 10
1.377388
 20
-0.440300
  0
VERTEX
  8
EBENE_1
 62
    39
  6
CONTINUOUS
 10
1.370026
 20
-0.451738
  0
VERTEX
  8
EBENE_1
 62
    39
  6
CONTINUOUS
 10
1.362010
 20
-0.463086
  0
VERTEX
  8
EBENE_1
 62
    39
  6
CONTINUOUS
 10
1.353353
 20
-0.474343
  0
VERTEX
  8
EBENE_1
 62
    39
  6
CONTINUOUS
 10
1.344068
 20
-0.485507
  0
VERTEX
  8
EBENE_1
 62
    39
  6
CONTINUOUS
 10
1.334168
 20
-0.496576
  0
VERTEX
  8
EBENE_1
 62
    39
  6
CONTINUOUS
 10
1.323668
 20
-0.507549
  0
VERTEX
  8
EBENE_1
 62
    39
  6
CONTINUOUS
 10
1.312580
 20
-0.518424
  0
VERTEX
  8
EBENE_1
 62
    39
  6
CONTINUOUS
 10
1.300918
 20
-0.529200
  0
VERTEX
  8
EBENE_1
 62
    39
  6
CONTINUOUS
 10
1.288694
 20
-0.539875
  0
VERTEX
  8
EBENE_1
 62
    39
  6
CONTINUOUS
 10
1.275923
 20
-0.550447
  0
VERTEX
  8
EBENE_1
 62
    39
  6
CONTINUOUS
 10
1.262618
 20
-0.560915
  0
VERTEX
  8
EBENE_1
 62
    39
  6
CONTINUOUS
 10
1.248791
 20
-0.571276
  0
VERTEX
  8
EBENE_1
 62
    39
  6
CONTINUOUS
 10
1.234457
 20
-0.581531
  0
VERTEX
  8
EBENE_1
 62
    39
  6
CONTINUOUS
 10
1.219628
 20
-0.591676
  0
VERTEX
  8
EBENE_1
 62
    39
  6
CONTINUOUS
 10
1.204319
 20
-0.601710
  0
VERTEX
  8
EBENE_1
 62
    39
  6
CONTINUOUS
 10
1.188541
 20
-0.611632
  0
VERTEX
  8
EBENE_1
 62
    39
  6
CONTINUOUS
 10
1.172309
 20
-0.621440
  0
VERTEX
  8
EBENE_1
 62
    39
  6
CONTINUOUS
 10
1.155636
 20
-0.631133
  0
VERTEX
  8
EBENE_1
 62
    39
  6
CONTINUOUS
 10
1.138536
 20
-0.640708
  0
VERTEX
  8
EBENE_1
 62
    39
  6
CONTINUOUS
 10
1.121020
 20
-0.650165
  0
VERTEX
  8
EBENE_1
 62
    39
  6
CONTINUOUS
 10
1.103104
 20
-0.659501
  0
VERTEX
  8
EBENE_1
 62
    39
  6
CONTINUOUS
 10
1.084800
 20
-0.668715
  0
VERTEX
  8
EBENE_1
 62
    39
  6
CONTINUOUS
 10
1.066121
 20
-0.677805
  0
VERTEX
  8
EBENE_1
 62
    39
  6
CONTINUOUS
 10
1.047082
 20
-0.686770
  0
VERTEX
  8
EBENE_1
 62
    39
  6
CONTINUOUS
 10
1.027694
 20
-0.695608
  0
VERTEX
  8
EBENE_1
 62
    39
  6
CONTINUOUS
 10
1.007972
 20
-0.704317
  0
VERTEX
  8
EBENE_1
 62
    39
  6
CONTINUOUS
 10
0.987929
 20
-0.712897
  0
VERTEX
  8
EBENE_1
 62
    39
  6
CONTINUOUS
 10
0.967577
 20
-0.721344
  0
VERTEX
  8
EBENE_1
 62
    39
  6
CONTINUOUS
 10
0.946932
 20
-0.729659
  0
VERTEX
  8
EBENE_1
 62
    39
  6
CONTINUOUS
 10
0.926005
 20
-0.737838
  0
VERTEX
  8
EBENE_1
 62
    39
  6
CONTINUOUS
 10
0.904810
 20
-0.745881
  0
VERTEX
  8
EBENE_1
 62
    39
  6
CONTINUOUS
 10
0.883361
 20
-0.753785
  0
VERTEX
  8
EBENE_1
 62
    39
  6
CONTINUOUS
 10
0.861670
 20
-0.761550
  0
VERTEX
  8
EBENE_1
 62
    39
  6
CONTINUOUS
 10
0.839752
 20
-0.769173
  0
VERTEX
  8
EBENE_1
 62
    39
  6
CONTINUOUS
 10
0.817619
 20
-0.776654
  0
VERTEX
  8
EBENE_1
 62
    39
  6
CONTINUOUS
 10
0.795285
 20
-0.783989
  0
VERTEX
  8
EBENE_1
 62
    39
  6
CONTINUOUS
 10
0.772763
 20
-0.791178
  0
VERTEX
  8
EBENE_1
 62
    39
  6
CONTINUOUS
 10
0.750066
 20
-0.798220
  0
VERTEX
  8
EBENE_1
 62
    39
  6
CONTINUOUS
 10
0.727208
 20
-0.805112
  0
VERTEX
  8
EBENE_1
 62
    39
  6
CONTINUOUS
 10
0.704202
 20
-0.811852
  0
VERTEX
  8
EBENE_1
 62
    39
  6
CONTINUOUS
 10
0.681061
 20
-0.818440
  0
VERTEX
  8
EBENE_1
 62
    39
  6
CONTINUOUS
 10
0.657799
 20
-0.824874
  0
VERTEX
  8
EBENE_1
 62
    39
  6
CONTINUOUS
 10
0.657799
 20
-0.824874
  0
VERTEX
  8
EBENE_1
 62
    39
  6
CONTINUOUS
 10
0.646741
 20
-0.826640
  0
VERTEX
  8
EBENE_1
 62
    39
  6
CONTINUOUS
 10
0.635145
 20
-0.827673
  0
VERTEX
  8
EBENE_1
 62
    39
  6
CONTINUOUS
 10
0.623045
 20
-0.827977
  0
VERTEX
  8
EBENE_1
 62
    39
  6
CONTINUOUS
 10
0.610471
 20
-0.827559
  0
VERTEX
  8
EBENE_1
 62
    39
  6
CONTINUOUS
 10
0.597458
 20
-0.826424
  0
VERTEX
  8
EBENE_1
 62
    39
  6
CONTINUOUS
 10
0.584037
 20
-0.824577
  0
VERTEX
  8
EBENE_1
 62
    39
  6
CONTINUOUS
 10
0.570241
 20
-0.822023
  0
VERTEX
  8
EBENE_1
 62
    39
  6
CONTINUOUS
 10
0.556102
 20
-0.818768
  0
VERTEX
  8
EBENE_1
 62
    39
  6
CONTINUOUS
 10
0.541654
 20
-0.814817
  0
VERTEX
  8
EBENE_1
 62
    39
  6
CONTINUOUS
 10
0.526928
 20
-0.810175
  0
VERTEX
  8
EBENE_1
 62
    39
  6
CONTINUOUS
 10
0.511957
 20
-0.804847
  0
VERTEX
  8
EBENE_1
 62
    39
  6
CONTINUOUS
 10
0.496774
 20
-0.798840
  0
VERTEX
  8
EBENE_1
 62
    39
  6
CONTINUOUS
 10
0.481411
 20
-0.792158
  0
VERTEX
  8
EBENE_1
 62
    39
  6
CONTINUOUS
 10
0.465901
 20
-0.784806
  0
VERTEX
  8
EBENE_1
 62
    39
  6
CONTINUOUS
 10
0.450275
 20
-0.776790
  0
VERTEX
  8
EBENE_1
 62
    39
  6
CONTINUOUS
 10
0.434568
 20
-0.768116
  0
VERTEX
  8
EBENE_1
 62
    39
  6
CONTINUOUS
 10
0.418810
 20
-0.758788
  0
VERTEX
  8
EBENE_1
 62
    39
  6
CONTINUOUS
 10
0.403036
 20
-0.748811
  0
VERTEX
  8
EBENE_1
 62
    39
  6
CONTINUOUS
 10
0.387276
 20
-0.738192
  0
VERTEX
  8
EBENE_1
 62
    39
  6
CONTINUOUS
 10
0.371564
 20
-0.726936
  0
VERTEX
  8
EBENE_1
 62
    39
  6
CONTINUOUS
 10
0.355933
 20
-0.715047
  0
VERTEX
  8
EBENE_1
 62
    39
  6
CONTINUOUS
 10
0.340414
 20
-0.702532
  0
VERTEX
  8
EBENE_1
 62
    39
  6
CONTINUOUS
 10
0.325041
 20
-0.689395
  0
VERTEX
  8
EBENE_1
 62
    39
  6
CONTINUOUS
 10
0.309845
 20
-0.675641
  0
VERTEX
  8
EBENE_1
 62
    39
  6
CONTINUOUS
 10
0.294860
 20
-0.661277
  0
VERTEX
  8
EBENE_1
 62
    39
  6
CONTINUOUS
 10
0.280117
 20
-0.646307
  0
VERTEX
  8
EBENE_1
 62
    39
  6
CONTINUOUS
 10
0.265650
 20
-0.630737
  0
VERTEX
  8
EBENE_1
 62
    39
  6
CONTINUOUS
 10
0.251491
 20
-0.614572
  0
VERTEX
  8
EBENE_1
 62
    39
  6
CONTINUOUS
 10
0.237672
 20
-0.597817
  0
VERTEX
  8
EBENE_1
 62
    39
  6
CONTINUOUS
 10
0.224227
 20
-0.580478
  0
VERTEX
  8
EBENE_1
 62
    39
  6
CONTINUOUS
 10
0.211186
 20
-0.562560
  0
VERTEX
  8
EBENE_1
 62
    39
  6
CONTINUOUS
 10
0.198584
 20
-0.544069
  0
VERTEX
  8
EBENE_1
 62
    39
  6
CONTINUOUS
 10
0.186452
 20
-0.525009
  0
VERTEX
  8
EBENE_1
 62
    39
  6
CONTINUOUS
 10
0.174823
 20
-0.505386
  0
VERTEX
  8
EBENE_1
 62
    39
  6
CONTINUOUS
 10
0.163730
 20
-0.485205
  0
VERTEX
  8
EBENE_1
 62
    39
  6
CONTINUOUS
 10
0.153205
 20
-0.464472
  0
VERTEX
  8
EBENE_1
 62
    39
  6
CONTINUOUS
 10
0.143280
 20
-0.443192
  0
VERTEX
  8
EBENE_1
 62
    39
  6
CONTINUOUS
 10
0.133988
 20
-0.421370
  0
VERTEX
  8
EBENE_1
 62
    39
  6
CONTINUOUS
 10
0.133988
 20
-0.421370
  0
VERTEX
  8
EBENE_1
 62
    39
  6
CONTINUOUS
 10
0.129743
 20
-0.397795
  0
VERTEX
  8
EBENE_1
 62
    39
  6
CONTINUOUS
 10
0.128076
 20
-0.375153
  0
VERTEX
  8
EBENE_1
 62
    39
  6
CONTINUOUS
 10
0.128865
 20
-0.353591
  0
VERTEX
  8
EBENE_1
 62
    39
  6
CONTINUOUS
 10
0.131984
 20
-0.333254
  0
VERTEX
  8
EBENE_1
 62
    39
  6
CONTINUOUS
 10
0.137309
 20
-0.314288
  0
VERTEX
  8
EBENE_1
 62
    39
  6
CONTINUOUS
 10
0.144717
 20
-0.296838
  0
VERTEX
  8
EBENE_1
 62
    39
  6
CONTINUOUS
 10
0.154081
 20
-0.281049
  0
VERTEX
  8
EBENE_1
 62
    39
  6
CONTINUOUS
 10
0.165278
 20
-0.267067
  0
VERTEX
  8
EBENE_1
 62
    39
  6
CONTINUOUS
 10
0.178184
 20
-0.255038
  0
VERTEX
  8
EBENE_1
 62
    39
  6
CONTINUOUS
 10
0.192674
 20
-0.245108
  0
VERTEX
  8
EBENE_1
 62
    39
  6
CONTINUOUS
 10
0.208624
 20
-0.237420
  0
VERTEX
  8
EBENE_1
 62
    39
  6
CONTINUOUS
 10
0.225909
 20
-0.232122
  0
VERTEX
  8
EBENE_1
 62
    39
  6
CONTINUOUS
 10
1.326252
 20
0.026744
  0
SEQEND
  8
0
  0
POLYLINE
  8
EBENE_1
 62
    39
  6
CONTINUOUS
 66
     1
 40
0.003000
 41
0.003000
  0
VERTEX
  8
EBENE_1
 62
    39
  6
CONTINUOUS
 10
1.068740
 20
-0.086130
  0
VERTEX
  8
EBENE_1
 62
    39
  6
CONTINUOUS
 10
1.074247
 20
-0.084502
  0
VERTEX
  8
EBENE_1
 62
    39
  6
CONTINUOUS
 10
1.078103
 20
-0.080321
  0
VERTEX
  8
EBENE_1
 62
    39
  6
CONTINUOUS
 10
1.079555
 20
-0.074638
  0
SEQEND
  8
0
  0
POLYLINE
  8
EBENE_1
 62
    39
  6
CONTINUOUS
 66
     1
 40
0.003000
 41
0.003000
  0
VERTEX
  8
EBENE_1
 62
    39
  6
CONTINUOUS
 10
1.079555
 20
-0.074638
  0
VERTEX
  8
EBENE_1
 62
    39
  6
CONTINUOUS
 10
1.078103
 20
-0.068657
  0
VERTEX
  8
EBENE_1
 62
    39
  6
CONTINUOUS
 10
1.074247
 20
-0.064627
  0
VERTEX
  8
EBENE_1
 62
    39
  6
CONTINUOUS
 10
1.068740
 20
-0.063150
  0
SEQEND
  8
0
  0
POLYLINE
  8
EBENE_1
 62
    39
  6
CONTINUOUS
 66
     1
 40
0.003000
 41
0.003000
  0
VERTEX
  8
EBENE_1
 62
    39
  6
CONTINUOUS
 10
1.068740
 20
-0.063150
  0
VERTEX
  8
EBENE_1
 62
    39
  6
CONTINUOUS
 10
1.062757
 20
-0.064627
  0
VERTEX
  8
EBENE_1
 62
    39
  6
CONTINUOUS
 10
1.058728
 20
-0.068657
  0
VERTEX
  8
EBENE_1
 62
    39
  6
CONTINUOUS
 10
1.057252
 20
-0.074638
  0
SEQEND
  8
0
  0
POLYLINE
  8
EBENE_1
 62
    39
  6
CONTINUOUS
 66
     1
 40
0.003000
 41
0.003000
  0
VERTEX
  8
EBENE_1
 62
    39
  6
CONTINUOUS
 10
1.057252
 20
-0.074638
  0
VERTEX
  8
EBENE_1
 62
    39
  6
CONTINUOUS
 10
1.058728
 20
-0.080321
  0
VERTEX
  8
EBENE_1
 62
    39
  6
CONTINUOUS
 10
1.062757
 20
-0.084502
  0
VERTEX
  8
EBENE_1
 62
    39
  6
CONTINUOUS
 10
1.068740
 20
-0.086130
  0
SEQEND
  8
0
  0
POLYLINE
  8
EBENE_1
 62
    39
  6
CONTINUOUS
 66
     1
 40
0.003000
 41
0.003000
 70
     1
  0
VERTEX
  8
EBENE_1
 62
    39
  6
CONTINUOUS
 10
1.401953
 20
-0.037465
  0
VERTEX
  8
EBENE_1
 62
    39
  6
CONTINUOUS
 10
1.405335
 20
-0.320661
  0
VERTEX
  8
EBENE_1
 62
    39
  6
CONTINUOUS
 10
1.403855
 20
-0.333637
  0
VERTEX
  8
EBENE_1
 62
    39
  6
CONTINUOUS
 10
1.401649
 20
-0.346481
  0
VERTEX
  8
EBENE_1
 62
    39
  6
CONTINUOUS
 10
1.398729
 20
-0.359196
  0
VERTEX
  8
EBENE_1
 62
    39
  6
CONTINUOUS
 10
1.395106
 20
-0.371780
  0
VERTEX
  8
EBENE_1
 62
    39
  6
CONTINUOUS
 10
1.390793
 20
-0.384235
  0
VERTEX
  8
EBENE_1
 62
    39
  6
CONTINUOUS
 10
1.385800
 20
-0.396561
  0
VERTEX
  8
EBENE_1
 62
    39
  6
CONTINUOUS
 10
1.380140
 20
-0.408757
  0
VERTEX
  8
EBENE_1
 62
    39
  6
CONTINUOUS
 10
1.373823
 20
-0.420825
  0
VERTEX
  8
EBENE_1
 62
    39
  6
CONTINUOUS
 10
1.366863
 20
-0.432765
  0
VERTEX
  8
EBENE_1
 62
    39
  6
CONTINUOUS
 10
1.359270
 20
-0.444577
  0
VERTEX
  8
EBENE_1
 62
    39
  6
CONTINUOUS
 10
1.351055
 20
-0.456261
  0
VERTEX
  8
EBENE_1
 62
    39
  6
CONTINUOUS
 10
1.342232
 20
-0.467818
  0
VERTEX
  8
EBENE_1
 62
    39
  6
CONTINUOUS
 10
1.332811
 20
-0.479247
  0
VERTEX
  8
EBENE_1
 62
    39
  6
CONTINUOUS
 10
1.322803
 20
-0.490551
  0
VERTEX
  8
EBENE_1
 62
    39
  6
CONTINUOUS
 10
1.312222
 20
-0.501728
  0
VERTEX
  8
EBENE_1
 62
    39
  6
CONTINUOUS
 10
1.301077
 20
-0.512779
  0
VERTEX
  8
EBENE_1
 62
    39
  6
CONTINUOUS
 10
1.289381
 20
-0.523704
  0
VERTEX
  8
EBENE_1
 62
    39
  6
CONTINUOUS
 10
1.277146
 20
-0.534505
  0
VERTEX
  8
EBENE_1
 62
    39
  6
CONTINUOUS
 10
1.264384
 20
-0.545180
  0
VERTEX
  8
EBENE_1
 62
    39
  6
CONTINUOUS
 10
1.251104
 20
-0.555731
  0
VERTEX
  8
EBENE_1
 62
    39
  6
CONTINUOUS
 10
1.237321
 20
-0.566157
  0
VERTEX
  8
EBENE_1
 62
    39
  6
CONTINUOUS
 10
1.223044
 20
-0.576460
  0
VERTEX
  8
EBENE_1
 62
    39
  6
CONTINUOUS
 10
1.208287
 20
-0.586639
  0
VERTEX
  8
EBENE_1
 62
    39
  6
CONTINUOUS
 10
1.193060
 20
-0.596695
  0
VERTEX
  8
EBENE_1
 62
    39
  6
CONTINUOUS
 10
1.177374
 20
-0.606628
  0
VERTEX
  8
EBENE_1
 62
    39
  6
CONTINUOUS
 10
1.161243
 20
-0.616438
  0
VERTEX
  8
EBENE_1
 62
    39
  6
CONTINUOUS
 10
1.144677
 20
-0.626126
  0
VERTEX
  8
EBENE_1
 62
    39
  6
CONTINUOUS
 10
1.127688
 20
-0.635692
  0
VERTEX
  8
EBENE_1
 62
    39
  6
CONTINUOUS
 10
1.110287
 20
-0.645137
  0
VERTEX
  8
EBENE_1
 62
    39
  6
CONTINUOUS
 10
1.092487
 20
-0.654461
  0
VERTEX
  8
EBENE_1
 62
    39
  6
CONTINUOUS
 10
1.074299
 20
-0.663663
  0
VERTEX
  8
EBENE_1
 62
    39
  6
CONTINUOUS
 10
1.055734
 20
-0.672745
  0
VERTEX
  8
EBENE_1
 62
    39
  6
CONTINUOUS
 10
1.036805
 20
-0.681707
  0
VERTEX
  8
EBENE_1
 62
    39
  6
CONTINUOUS
 10
1.017523
 20
-0.690549
  0
VERTEX
  8
EBENE_1
 62
    39
  6
CONTINUOUS
 10
0.997899
 20
-0.699271
  0
VERTEX
  8
EBENE_1
 62
    39
  6
CONTINUOUS
 10
0.977945
 20
-0.707874
  0
VERTEX
  8
EBENE_1
 62
    39
  6
CONTINUOUS
 10
0.957673
 20
-0.716359
  0
VERTEX
  8
EBENE_1
 62
    39
  6
CONTINUOUS
 10
0.937095
 20
-0.724725
  0
VERTEX
  8
EBENE_1
 62
    39
  6
CONTINUOUS
 10
0.916222
 20
-0.732972
  0
VERTEX
  8
EBENE_1
 62
    39
  6
CONTINUOUS
 10
0.895065
 20
-0.741102
  0
VERTEX
  8
EBENE_1
 62
    39
  6
CONTINUOUS
 10
0.873638
 20
-0.749114
  0
VERTEX
  8
EBENE_1
 62
    39
  6
CONTINUOUS
 10
0.851950
 20
-0.757009
  0
VERTEX
  8
EBENE_1
 62
    39
  6
CONTINUOUS
 10
0.830013
 20
-0.764787
  0
VERTEX
  8
EBENE_1
 62
    39
  6
CONTINUOUS
 10
0.807841
 20
-0.772449
  0
VERTEX
  8
EBENE_1
 62
    39
  6
CONTINUOUS
 10
0.785443
 20
-0.779994
  0
VERTEX
  8
EBENE_1
 62
    39
  6
CONTINUOUS
 10
0.762832
 20
-0.787424
  0
VERTEX
  8
EBENE_1
 62
    39
  6
CONTINUOUS
 10
0.740019
 20
-0.794738
  0
VERTEX
  8
EBENE_1
 62
    39
  6
CONTINUOUS
 10
0.717016
 20
-0.801937
  0
VERTEX
  8
EBENE_1
 62
    39
  6
CONTINUOUS
 10
0.693835
 20
-0.809021
  0
VERTEX
  8
EBENE_1
 62
    39
  6
CONTINUOUS
 10
0.670487
 20
-0.815991
  0
VERTEX
  8
EBENE_1
 62
    39
  6
CONTINUOUS
 10
0.646984
 20
-0.822846
  0
VERTEX
  8
EBENE_1
 62
    39
  6
CONTINUOUS
 10
0.646984
 20
-0.822846
  0
VERTEX
  8
EBENE_1
 62
    39
  6
CONTINUOUS
 10
0.627911
 20
-0.818815
  0
VERTEX
  8
EBENE_1
 62
    39
  6
CONTINUOUS
 10
0.609323
 20
-0.814691
  0
VERTEX
  8
EBENE_1
 62
    39
  6
CONTINUOUS
 10
0.591200
 20
-0.810439
  0
VERTEX
  8
EBENE_1
 62
    39
  6
CONTINUOUS
 10
0.573522
 20
-0.806027
  0
VERTEX
  8
EBENE_1
 62
    39
  6
CONTINUOUS
 10
0.556269
 20
-0.801420
  0
VERTEX
  8
EBENE_1
 62
    39
  6
CONTINUOUS
 10
0.539420
 20
-0.796585
  0
VERTEX
  8
EBENE_1
 62
    39
  6
CONTINUOUS
 10
0.522955
 20
-0.791487
  0
VERTEX
  8
EBENE_1
 62
    39
  6
CONTINUOUS
 10
0.506855
 20
-0.786094
  0
VERTEX
  8
EBENE_1
 62
    39
  6
CONTINUOUS
 10
0.491099
 20
-0.780371
  0
VERTEX
  8
EBENE_1
 62
    39
  6
CONTINUOUS
 10
0.475667
 20
-0.774285
  0
VERTEX
  8
EBENE_1
 62
    39
  6
CONTINUOUS
 10
0.460538
 20
-0.767802
  0
VERTEX
  8
EBENE_1
 62
    39
  6
CONTINUOUS
 10
0.445694
 20
-0.760888
  0
VERTEX
  8
EBENE_1
 62
    39
  6
CONTINUOUS
 10
0.431114
 20
-0.753509
  0
VERTEX
  8
EBENE_1
 62
    39
  6
CONTINUOUS
 10
0.416777
 20
-0.745633
  0
VERTEX
  8
EBENE_1
 62
    39
  6
CONTINUOUS
 10
0.402663
 20
-0.737224
  0
VERTEX
  8
EBENE_1
 62
    39
  6
CONTINUOUS
 10
0.388753
 20
-0.728250
  0
VERTEX
  8
EBENE_1
 62
    39
  6
CONTINUOUS
 10
0.375026
 20
-0.718676
  0
VERTEX
  8
EBENE_1
 62
    39
  6
CONTINUOUS
 10
0.361462
 20
-0.708469
  0
VERTEX
  8
EBENE_1
 62
    39
  6
CONTINUOUS
 10
0.348042
 20
-0.697595
  0
VERTEX
  8
EBENE_1
 62
    39
  6
CONTINUOUS
 10
0.334744
 20
-0.686020
  0
VERTEX
  8
EBENE_1
 62
    39
  6
CONTINUOUS
 10
0.321548
 20
-0.673711
  0
VERTEX
  8
EBENE_1
 62
    39
  6
CONTINUOUS
 10
0.308436
 20
-0.660633
  0
VERTEX
  8
EBENE_1
 62
    39
  6
CONTINUOUS
 10
0.295386
 20
-0.646754
  0
VERTEX
  8
EBENE_1
 62
    39
  6
CONTINUOUS
 10
0.282378
 20
-0.632039
  0
VERTEX
  8
EBENE_1
 62
    39
  6
CONTINUOUS
 10
0.269393
 20
-0.616455
  0
VERTEX
  8
EBENE_1
 62
    39
  6
CONTINUOUS
 10
0.256410
 20
-0.599968
  0
VERTEX
  8
EBENE_1
 62
    39
  6
CONTINUOUS
 10
0.243409
 20
-0.582543
  0
VERTEX
  8
EBENE_1
 62
    39
  6
CONTINUOUS
 10
0.230370
 20
-0.564149
  0
VERTEX
  8
EBENE_1
 62
    39
  6
CONTINUOUS
 10
0.217272
 20
-0.544749
  0
VERTEX
  8
EBENE_1
 62
    39
  6
CONTINUOUS
 10
0.204097
 20
-0.524312
  0
VERTEX
  8
EBENE_1
 62
    39
  6
CONTINUOUS
 10
0.190823
 20
-0.502803
  0
VERTEX
  8
EBENE_1
 62
    39
  6
CONTINUOUS
 10
0.177430
 20
-0.480189
  0
VERTEX
  8
EBENE_1
 62
    39
  6
CONTINUOUS
 10
0.163899
 20
-0.456435
  0
VERTEX
  8
EBENE_1
 62
    39
  6
CONTINUOUS
 10
0.150209
 20
-0.431508
  0
VERTEX
  8
EBENE_1
 62
    39
  6
CONTINUOUS
 10
0.146177
 20
-0.408446
  0
VERTEX
  8
EBENE_1
 62
    39
  6
CONTINUOUS
 10
0.144594
 20
-0.386141
  0
VERTEX
  8
EBENE_1
 62
    39
  6
CONTINUOUS
 10
0.145313
 20
-0.364726
  0
VERTEX
  8
EBENE_1
 62
    39
  6
CONTINUOUS
 10
0.148193
 20
-0.344333
  0
VERTEX
  8
EBENE_1
 62
    39
  6
CONTINUOUS
 10
0.153088
 20
-0.325095
  0
VERTEX
  8
EBENE_1
 62
    39
  6
CONTINUOUS
 10
0.159855
 20
-0.307146
  0
VERTEX
  8
EBENE_1
 62
    39
  6
CONTINUOUS
 10
0.168349
 20
-0.290618
  0
VERTEX
  8
EBENE_1
 62
    39
  6
CONTINUOUS
 10
0.178428
 20
-0.275645
  0
VERTEX
  8
EBENE_1
 62
    39
  6
CONTINUOUS
 10
0.189946
 20
-0.262358
  0
VERTEX
  8
EBENE_1
 62
    39
  6
CONTINUOUS
 10
0.202759
 20
-0.250891
  0
VERTEX
  8
EBENE_1
 62
    39
  6
CONTINUOUS
 10
0.216725
 20
-0.241378
  0
VERTEX
  8
EBENE_1
 62
    39
  6
CONTINUOUS
 10
0.231698
 20
-0.233950
  0
VERTEX
  8
EBENE_1
 62
    39
  6
CONTINUOUS
 10
0.247535
 20
-0.228740
  0
VERTEX
  8
EBENE_1
 62
    39
  6
CONTINUOUS
 10
1.339772
 20
0.042291
  0
SEQEND
  8
0
  0
POLYLINE
  8
EBENE_1
 62
    39
  6
CONTINUOUS
 66
     1
 40
0.003000
 41
0.003000
  0
VERTEX
  8
EBENE_1
 62
    39
  6
CONTINUOUS
 10
0.140744
 20
0.167331
  0
VERTEX
  8
EBENE_1
 62
    39
  6
CONTINUOUS
 10
0.457736
 20
-0.353106
  0
VERTEX
  8
EBENE_1
 62
    39
  6
CONTINUOUS
 10
0.125878
 20
-0.438945
  0
SEQEND
  8
0
  0
POLYLINE
  8
EBENE_1
 62
    39
  6
CONTINUOUS
 66
     1
 40
0.003000
 41
0.003000
  0
VERTEX
  8
EBENE_1
 62
    39
  6
CONTINUOUS
 10
0.125878
 20
-0.438945
  0
VERTEX
  8
EBENE_1
 62
    39
  6
CONTINUOUS
 10
0.116090
 20
-0.440728
  0
VERTEX
  8
EBENE_1
 62
    39
  6
CONTINUOUS
 10
0.105537
 20
-0.441813
  0
VERTEX
  8
EBENE_1
 62
    39
  6
CONTINUOUS
 10
0.094266
 20
-0.442201
  0
VERTEX
  8
EBENE_1
 62
    39
  6
CONTINUOUS
 10
0.082319
 20
-0.441895
  0
VERTEX
  8
EBENE_1
 62
    39
  6
CONTINUOUS
 10
0.069743
 20
-0.440899
  0
VERTEX
  8
EBENE_1
 62
    39
  6
CONTINUOUS
 10
0.056581
 20
-0.439216
  0
VERTEX
  8
EBENE_1
 62
    39
  6
CONTINUOUS
 10
0.042879
 20
-0.436847
  0
VERTEX
  8
EBENE_1
 62
    39
  6
CONTINUOUS
 10
0.028681
 20
-0.433797
  0
VERTEX
  8
EBENE_1
 62
    39
  6
CONTINUOUS
 10
0.014032
 20
-0.430068
  0
VERTEX
  8
EBENE_1
 62
    39
  6
CONTINUOUS
 10
-0.001024
 20
-0.425662
  0
VERTEX
  8
EBENE_1
 62
    39
  6
CONTINUOUS
 10
-0.016441
 20
-0.420584
  0
VERTEX
  8
EBENE_1
 62
    39
  6
CONTINUOUS
 10
-0.032175
 20
-0.414834
  0
VERTEX
  8
EBENE_1
 62
    39
  6
CONTINUOUS
 10
-0.048181
 20
-0.408418
  0
VERTEX
  8
EBENE_1
 62
    39
  6
CONTINUOUS
 10
-0.064415
 20
-0.401337
  0
VERTEX
  8
EBENE_1
 62
    39
  6
CONTINUOUS
 10
-0.080832
 20
-0.393594
  0
VERTEX
  8
EBENE_1
 62
    39
  6
CONTINUOUS
 10
-0.097387
 20
-0.385192
  0
VERTEX
  8
EBENE_1
 62
    39
  6
CONTINUOUS
 10
-0.114035
 20
-0.376134
  0
VERTEX
  8
EBENE_1
 62
    39
  6
CONTINUOUS
 10
-0.130733
 20
-0.366423
  0
VERTEX
  8
EBENE_1
 62
    39
  6
CONTINUOUS
 10
-0.147434
 20
-0.356062
  0
VERTEX
  8
EBENE_1
 62
    39
  6
CONTINUOUS
 10
-0.164094
 20
-0.345054
  0
VERTEX
  8
EBENE_1
 62
    39
  6
CONTINUOUS
 10
-0.180669
 20
-0.333401
  0
VERTEX
  8
EBENE_1
 62
    39
  6
CONTINUOUS
 10
-0.197113
 20
-0.321106
  0
VERTEX
  8
EBENE_1
 62
    39
  6
CONTINUOUS
 10
-0.213383
 20
-0.308173
  0
VERTEX
  8
EBENE_1
 62
    39
  6
CONTINUOUS
 10
-0.229434
 20
-0.294604
  0
VERTEX
  8
EBENE_1
 62
    39
  6
CONTINUOUS
 10
-0.245220
 20
-0.280402
  0
VERTEX
  8
EBENE_1
 62
    39
  6
CONTINUOUS
 10
-0.260697
 20
-0.265570
  0
VERTEX
  8
EBENE_1
 62
    39
  6
CONTINUOUS
 10
-0.275820
 20
-0.250111
  0
VERTEX
  8
EBENE_1
 62
    39
  6
CONTINUOUS
 10
-0.290545
 20
-0.234028
  0
VERTEX
  8
EBENE_1
 62
    39
  6
CONTINUOUS
 10
-0.304826
 20
-0.217323
  0
VERTEX
  8
EBENE_1
 62
    39
  6
CONTINUOUS
 10
-0.318620
 20
-0.200000
  0
VERTEX
  8
EBENE_1
 62
    39
  6
CONTINUOUS
 10
-0.331882
 20
-0.182061
  0
VERTEX
  8
EBENE_1
 62
    39
  6
CONTINUOUS
 10
-0.344566
 20
-0.163509
  0
VERTEX
  8
EBENE_1
 62
    39
  6
CONTINUOUS
 10
-0.356628
 20
-0.144347
  0
VERTEX
  8
EBENE_1
 62
    39
  6
CONTINUOUS
 10
-0.368023
 20
-0.124579
  0
VERTEX
  8
EBENE_1
 62
    39
  6
CONTINUOUS
 10
-0.378707
 20
-0.104206
  0
VERTEX
  8
EBENE_1
 62
    39
  6
CONTINUOUS
 10
-0.388635
 20
-0.083232
  0
VERTEX
  8
EBENE_1
 62
    39
  6
CONTINUOUS
 10
-0.397762
 20
-0.061660
  0
VERTEX
  8
EBENE_1
 62
    39
  6
CONTINUOUS
 10
-0.406043
 20
-0.039492
  0
SEQEND
  8
0
  0
POLYLINE
  8
EBENE_1
 62
    39
  6
CONTINUOUS
 66
     1
 40
0.003000
 41
0.003000
  0
VERTEX
  8
EBENE_1
 62
    39
  6
CONTINUOUS
 10
-0.406043
 20
-0.039492
  0
VERTEX
  8
EBENE_1
 62
    39
  6
CONTINUOUS
 10
-0.409926
 20
-0.013455
  0
VERTEX
  8
EBENE_1
 62
    39
  6
CONTINUOUS
 10
-0.411000
 20
0.011117
  0
VERTEX
  8
EBENE_1
 62
    39
  6
CONTINUOUS
 10
-0.409438
 20
0.034098
  0
VERTEX
  8
EBENE_1
 62
    39
  6
CONTINUOUS
 10
-0.405415
 20
0.055364
  0
VERTEX
  8
EBENE_1
 62
    39
  6
CONTINUOUS
 10
-0.399103
 20
0.074789
  0
VERTEX
  8
EBENE_1
 62
    39
  6
CONTINUOUS
 10
-0.390677
 20
0.092250
  0
VERTEX
  8
EBENE_1
 62
    39
  6
CONTINUOUS
 10
-0.380311
 20
0.107620
  0
VERTEX
  8
EBENE_1
 62
    39
  6
CONTINUOUS
 10
-0.368177
 20
0.120775
  0
VERTEX
  8
EBENE_1
 62
    39
  6
CONTINUOUS
 10
-0.354450
 20
0.131590
  0
VERTEX
  8
EBENE_1
 62
    39
  6
CONTINUOUS
 10
-0.339303
 20
0.139940
  0
VERTEX
  8
EBENE_1
 62
    39
  6
CONTINUOUS
 10
-0.322909
 20
0.145701
  0
SEQEND
  8
0
  0
POLYLINE
  8
EBENE_1
 62
    39
  6
CONTINUOUS
 66
     1
 40
0.003000
 41
0.003000
  0
VERTEX
  8
EBENE_1
 62
    39
  6
CONTINUOUS
 10
-0.322909
 20
0.145701
  0
VERTEX
  8
EBENE_1
 62
    39
  6
CONTINUOUS
 10
0.021791
 20
0.238295
  0
SEQEND
  8
0
  0
POLYLINE
  8
EBENE_1
 62
    39
  6
CONTINUOUS
 66
     1
 40
0.003000
 41
0.003000
  0
VERTEX
  8
EBENE_1
 62
    39
  6
CONTINUOUS
 10
0.021791
 20
0.238295
  0
VERTEX
  8
EBENE_1
 62
    39
  6
CONTINUOUS
 10
0.046208
 20
0.242738
  0
VERTEX
  8
EBENE_1
 62
    39
  6
CONTINUOUS
 10
0.065229
 20
0.241840
  0
VERTEX
  8
EBENE_1
 62
    39
  6
CONTINUOUS
 10
0.079967
 20
0.236570
  0
VERTEX
  8
EBENE_1
 62
    39
  6
CONTINUOUS
 10
0.091534
 20
0.227895
  0
VERTEX
  8
EBENE_1
 62
    39
  6
CONTINUOUS
 10
0.101042
 20
0.216783
  0
VERTEX
  8
EBENE_1
 62
    39
  6
CONTINUOUS
 10
0.109605
 20
0.204203
  0
VERTEX
  8
EBENE_1
 62
    39
  6
CONTINUOUS
 10
0.118335
 20
0.191122
  0
VERTEX
  8
EBENE_1
 62
    39
  6
CONTINUOUS
 10
0.128344
 20
0.178509
  0
VERTEX
  8
EBENE_1
 62
    39
  6
CONTINUOUS
 10
0.140744
 20
0.167331
  0
SEQEND
  8
0
  0
POLYLINE
  8
EBENE_1
 62
    39
  6
CONTINUOUS
 66
     1
 40
0.003000
 41
0.003000
 70
     1
  0
VERTEX
  8
EBENE_1
 62
    39
  6
CONTINUOUS
 10
0.140744
 20
0.164626
  0
VERTEX
  8
EBENE_1
 62
    39
  6
CONTINUOUS
 10
0.453008
 20
-0.346346
  0
VERTEX
  8
EBENE_1
 62
    39
  6
CONTINUOUS
 10
0.126551
 20
-0.431508
  0
VERTEX
  8
EBENE_1
 62
    39
  6
CONTINUOUS
 10
0.116929
 20
-0.433244
  0
VERTEX
  8
EBENE_1
 62
    39
  6
CONTINUOUS
 10
0.106552
 20
-0.434292
  0
VERTEX
  8
EBENE_1
 62
    39
  6
CONTINUOUS
 10
0.095467
 20
-0.434655
  0
VERTEX
  8
EBENE_1
 62
    39
  6
CONTINUOUS
 10
0.083716
 20
-0.434336
  0
VERTEX
  8
EBENE_1
 62
    39
  6
CONTINUOUS
 10
0.071345
 20
-0.433338
  0
VERTEX
  8
EBENE_1
 62
    39
  6
CONTINUOUS
 10
0.058396
 20
-0.431664
  0
VERTEX
  8
EBENE_1
 62
    39
  6
CONTINUOUS
 10
0.044915
 20
-0.429317
  0
VERTEX
  8
EBENE_1
 62
    39
  6
CONTINUOUS
 10
0.030944
 20
-0.426300
  0
VERTEX
  8
EBENE_1
 62
    39
  6
CONTINUOUS
 10
0.016530
 20
-0.422615
  0
VERTEX
  8
EBENE_1
 62
    39
  6
CONTINUOUS
 10
0.001714
 20
-0.418267
  0
VERTEX
  8
EBENE_1
 62
    39
  6
CONTINUOUS
 10
-0.013457
 20
-0.413257
  0
VERTEX
  8
EBENE_1
 62
    39
  6
CONTINUOUS
 10
-0.028941
 20
-0.407588
  0
VERTEX
  8
EBENE_1
 62
    39
  6
CONTINUOUS
 10
-0.044693
 20
-0.401264
  0
VERTEX
  8
EBENE_1
 62
    39
  6
CONTINUOUS
 10
-0.060669
 20
-0.394288
  0
VERTEX
  8
EBENE_1
 62
    39
  6
CONTINUOUS
 10
-0.076825
 20
-0.386662
  0
VERTEX
  8
EBENE_1
 62
    39
  6
CONTINUOUS
 10
-0.093117
 20
-0.378390
  0
VERTEX
  8
EBENE_1
 62
    39
  6
CONTINUOUS
 10
-0.109500
 20
-0.369474
  0
VERTEX
  8
EBENE_1
 62
    39
  6
CONTINUOUS
 10
-0.125931
 20
-0.359918
  0
VERTEX
  8
EBENE_1
 62
    39
  6
CONTINUOUS
 10
-0.142365
 20
-0.349724
  0
VERTEX
  8
EBENE_1
 62
    39
  6
CONTINUOUS
 10
-0.158759
 20
-0.338895
  0
VERTEX
  8
EBENE_1
 62
    39
  6
CONTINUOUS
 10
-0.175067
 20
-0.327435
  0
VERTEX
  8
EBENE_1
 62
    39
  6
CONTINUOUS
 10
-0.191247
 20
-0.315345
  0
VERTEX
  8
EBENE_1
 62
    39
  6
CONTINUOUS
 10
-0.207254
 20
-0.302630
  0
VERTEX
  8
EBENE_1
 62
    39
  6
CONTINUOUS
 10
-0.223043
 20
-0.289292
  0
VERTEX
  8
EBENE_1
 62
    39
  6
CONTINUOUS
 10
-0.238571
 20
-0.275334
  0
VERTEX
  8
EBENE_1
 62
    39
  6
CONTINUOUS
 10
-0.253794
 20
-0.260760
  0
VERTEX
  8
EBENE_1
 62
    39
  6
CONTINUOUS
 10
-0.268667
 20
-0.245571
  0
VERTEX
  8
EBENE_1
 62
    39
  6
CONTINUOUS
 10
-0.283146
 20
-0.229771
  0
VERTEX
  8
EBENE_1
 62
    39
  6
CONTINUOUS
 10
-0.297188
 20
-0.213363
  0
VERTEX
  8
EBENE_1
 62
    39
  6
CONTINUOUS
 10
-0.310748
 20
-0.196350
  0
VERTEX
  8
EBENE_1
 62
    39
  6
CONTINUOUS
 10
-0.323782
 20
-0.178735
  0
VERTEX
  8
EBENE_1
 62
    39
  6
CONTINUOUS
 10
-0.336245
 20
-0.160520
  0
VERTEX
  8
EBENE_1
 62
    39
  6
CONTINUOUS
 10
-0.348094
 20
-0.141709
  0
VERTEX
  8
EBENE_1
 62
    39
  6
CONTINUOUS
 10
-0.359285
 20
-0.122305
  0
VERTEX
  8
EBENE_1
 62
    39
  6
CONTINUOUS
 10
-0.369774
 20
-0.102311
  0
VERTEX
  8
EBENE_1
 62
    39
  6
CONTINUOUS
 10
-0.379516
 20
-0.081729
  0
VERTEX
  8
EBENE_1
 62
    39
  6
CONTINUOUS
 10
-0.388467
 20
-0.060563
  0
VERTEX
  8
EBENE_1
 62
    39
  6
CONTINUOUS
 10
-0.396583
 20
-0.038815
  0
VERTEX
  8
EBENE_1
 62
    39
  6
CONTINUOUS
 10
-0.396583
 20
-0.038815
  0
VERTEX
  8
EBENE_1
 62
    39
  6
CONTINUOUS
 10
-0.400482
 20
-0.013146
  0
VERTEX
  8
EBENE_1
 62
    39
  6
CONTINUOUS
 10
-0.401606
 20
0.011064
  0
VERTEX
  8
EBENE_1
 62
    39
  6
CONTINUOUS
 10
-0.400128
 20
0.033695
  0
VERTEX
  8
EBENE_1
 62
    39
  6
CONTINUOUS
 10
-0.396221
 20
0.054630
  0
VERTEX
  8
EBENE_1
 62
    39
  6
CONTINUOUS
 10
-0.390060
 20
0.073749
  0
VERTEX
  8
EBENE_1
 62
    39
  6
CONTINUOUS
 10
-0.381818
 20
0.090933
  0
VERTEX
  8
EBENE_1
 62
    39
  6
CONTINUOUS
 10
-0.371669
 20
0.106063
  0
VERTEX
  8
EBENE_1
 62
    39
  6
CONTINUOUS
 10
-0.359786
 20
0.119022
  0
VERTEX
  8
EBENE_1
 62
    39
  6
CONTINUOUS
 10
-0.346343
 20
0.129689
  0
VERTEX
  8
EBENE_1
 62
    39
  6
CONTINUOUS
 10
-0.331514
 20
0.137945
  0
VERTEX
  8
EBENE_1
 62
    39
  6
CONTINUOUS
 10
-0.315472
 20
0.143673
  0
VERTEX
  8
EBENE_1
 62
    39
  6
CONTINUOUS
 10
0.023819
 20
0.234917
  0
VERTEX
  8
EBENE_1
 62
    39
  6
CONTINUOUS
 10
0.047833
 20
0.239205
  0
VERTEX
  8
EBENE_1
 62
    39
  6
CONTINUOUS
 10
0.066534
 20
0.238274
  0
VERTEX
  8
EBENE_1
 62
    39
  6
CONTINUOUS
 10
0.081018
 20
0.233065
  0
VERTEX
  8
EBENE_1
 62
    39
  6
CONTINUOUS
 10
0.092382
 20
0.224519
  0
VERTEX
  8
EBENE_1
 62
    39
  6
CONTINUOUS
 10
0.101720
 20
0.213575
  0
VERTEX
  8
EBENE_1
 62
    39
  6
CONTINUOUS
 10
0.110130
 20
0.201173
  0
VERTEX
  8
EBENE_1
 62
    39
  6
CONTINUOUS
 10
0.118707
 20
0.188255
  0
VERTEX
  8
EBENE_1
 62
    39
  6
CONTINUOUS
 10
0.128546
 20
0.175759
  0
SEQEND
  8
0
  0
POLYLINE
  8
EBENE_1
 62
    39
  6
CONTINUOUS
 66
     1
 40
0.003000
 41
0.003000
  0
VERTEX
  8
EBENE_1
 62
    39
  6
CONTINUOUS
 10
-0.136370
 20
0.140969
  0
VERTEX
  8
EBENE_1
 62
    39
  6
CONTINUOUS
 10
-0.130685
 20
0.142596
  0
VERTEX
  8
EBENE_1
 62
    39
  6
CONTINUOUS
 10
-0.126505
 20
0.146778
  0
VERTEX
  8
EBENE_1
 62
    39
  6
CONTINUOUS
 10
-0.124878
 20
0.152461
  0
SEQEND
  8
0
  0
POLYLINE
  8
EBENE_1
 62
    39
  6
CONTINUOUS
 66
     1
 40
0.003000
 41
0.003000
  0
VERTEX
  8
EBENE_1
 62
    39
  6
CONTINUOUS
 10
-0.124878
 20
0.152461
  0
VERTEX
  8
EBENE_1
 62
    39
  6
CONTINUOUS
 10
-0.126505
 20
0.158442
  0
VERTEX
  8
EBENE_1
 62
    39
  6
CONTINUOUS
 10
-0.130685
 20
0.162472
  0
VERTEX
  8
EBENE_1
 62
    39
  6
CONTINUOUS
 10
-0.136370
 20
0.163949
  0
SEQEND
  8
0
  0
POLYLINE
  8
EBENE_1
 62
    39
  6
CONTINUOUS
 66
     1
 40
0.003000
 41
0.003000
  0
VERTEX
  8
EBENE_1
 62
    39
  6
CONTINUOUS
 10
-0.136370
 20
0.163949
  0
VERTEX
  8
EBENE_1
 62
    39
  6
CONTINUOUS
 10
-0.141876
 20
0.162472
  0
VERTEX
  8
EBENE_1
 62
    39
  6
CONTINUOUS
 10
-0.145730
 20
0.158442
  0
VERTEX
  8
EBENE_1
 62
    39
  6
CONTINUOUS
 10
-0.147181
 20
0.152461
  0
SEQEND
  8
0
  0
POLYLINE
  8
EBENE_1
 62
    39
  6
CONTINUOUS
 66
     1
 40
0.003000
 41
0.003000
  0
VERTEX
  8
EBENE_1
 62
    39
  6
CONTINUOUS
 10
-0.147181
 20
0.152461
  0
VERTEX
  8
EBENE_1
 62
    39
  6
CONTINUOUS
 10
-0.145730
 20
0.146778
  0
VERTEX
  8
EBENE_1
 62
    39
  6
CONTINUOUS
 10
-0.141876
 20
0.142596
  0
VERTEX
  8
EBENE_1
 62
    39
  6
CONTINUOUS
 10
-0.136370
 20
0.140969
  0
SEQEND
  8
0
  0
POLYLINE
  8
EBENE_1
 62
    39
  6
CONTINUOUS
 66
     1
 40
0.003000
 41
0.003000
  0
VERTEX
  8
EBENE_1
 62
    39
  6
CONTINUOUS
 10
-0.014709
 20
0.167331
  0
VERTEX
  8
EBENE_1
 62
    39
  6
CONTINUOUS
 10
-0.009201
 20
0.168957
  0
VERTEX
  8
EBENE_1
 62
    39
  6
CONTINUOUS
 10
-0.005346
 20
0.173137
  0
VERTEX
  8
EBENE_1
 62
    39
  6
CONTINUOUS
 10
-0.003894
 20
0.178819
  0
SEQEND
  8
0
  0
POLYLINE
  8
EBENE_1
 62
    39
  6
CONTINUOUS
 66
     1
 40
0.003000
 41
0.003000
  0
VERTEX
  8
EBENE_1
 62
    39
  6
CONTINUOUS
 10
-0.003894
 20
0.178819
  0
VERTEX
  8
EBENE_1
 62
    39
  6
CONTINUOUS
 10
-0.005346
 20
0.184501
  0
VERTEX
  8
EBENE_1
 62
    39
  6
CONTINUOUS
 10
-0.009201
 20
0.188680
  0
VERTEX
  8
EBENE_1
 62
    39
  6
CONTINUOUS
 10
-0.014709
 20
0.190307
  0
SEQEND
  8
0
  0
POLYLINE
  8
EBENE_1
 62
    39
  6
CONTINUOUS
 66
     1
 40
0.003000
 41
0.003000
  0
VERTEX
  8
EBENE_1
 62
    39
  6
CONTINUOUS
 10
-0.014709
 20
0.190307
  0
VERTEX
  8
EBENE_1
 62
    39
  6
CONTINUOUS
 10
-0.020691
 20
0.188680
  0
VERTEX
  8
EBENE_1
 62
    39
  6
CONTINUOUS
 10
-0.024721
 20
0.184501
  0
VERTEX
  8
EBENE_1
 62
    39
  6
CONTINUOUS
 10
-0.026197
 20
0.178819
  0
SEQEND
  8
0
  0
POLYLINE
  8
EBENE_1
 62
    39
  6
CONTINUOUS
 66
     1
 40
0.003000
 41
0.003000
  0
VERTEX
  8
EBENE_1
 62
    39
  6
CONTINUOUS
 10
-0.026197
 20
0.178819
  0
VERTEX
  8
EBENE_1
 62
    39
  6
CONTINUOUS
 10
-0.024721
 20
0.173137
  0
VERTEX
  8
EBENE_1
 62
    39
  6
CONTINUOUS
 10
-0.020691
 20
0.168957
  0
VERTEX
  8
EBENE_1
 62
    39
  6
CONTINUOUS
 10
-0.014709
 20
0.167331
  0
SEQEND
  8
0
  0
POLYLINE
  8
EBENE_1
 62
    39
  6
CONTINUOUS
 66
     1
 40
0.003000
 41
0.003000
  0
VERTEX
  8
EBENE_1
 62
    39
  6
CONTINUOUS
 10
0.103571
 20
0.121366
  0
VERTEX
  8
EBENE_1
 62
    39
  6
CONTINUOUS
 10
0.109555
 20
0.122994
  0
VERTEX
  8
EBENE_1
 62
    39
  6
CONTINUOUS
 10
0.113586
 20
0.127175
  0
VERTEX
  8
EBENE_1
 62
    39
  6
CONTINUOUS
 10
0.115063
 20
0.132858
  0
SEQEND
  8
0
  0
POLYLINE
  8
EBENE_1
 62
    39
  6
CONTINUOUS
 66
     1
 40
0.003000
 41
0.003000
  0
VERTEX
  8
EBENE_1
 62
    39
  6
CONTINUOUS
 10
0.115063
 20
0.132858
  0
VERTEX
  8
EBENE_1
 62
    39
  6
CONTINUOUS
 10
0.113586
 20
0.138842
  0
VERTEX
  8
EBENE_1
 62
    39
  6
CONTINUOUS
 10
0.109555
 20
0.142873
  0
VERTEX
  8
EBENE_1
 62
    39
  6
CONTINUOUS
 10
0.103571
 20
0.144350
  0
SEQEND
  8
0
  0
POLYLINE
  8
EBENE_1
 62
    39
  6
CONTINUOUS
 66
     1
 40
0.003000
 41
0.003000
  0
VERTEX
  8
EBENE_1
 62
    39
  6
CONTINUOUS
 10
0.103571
 20
0.144350
  0
VERTEX
  8
EBENE_1
 62
    39
  6
CONTINUOUS
 10
0.097889
 20
0.142873
  0
VERTEX
  8
EBENE_1
 62
    39
  6
CONTINUOUS
 10
0.093709
 20
0.138842
  0
VERTEX
  8
EBENE_1
 62
    39
  6
CONTINUOUS
 10
0.092083
 20
0.132858
  0
SEQEND
  8
0
  0
POLYLINE
  8
EBENE_1
 62
    39
  6
CONTINUOUS
 66
     1
 40
0.003000
 41
0.003000
  0
VERTEX
  8
EBENE_1
 62
    39
  6
CONTINUOUS
 10
0.092083
 20
0.132858
  0
VERTEX
  8
EBENE_1
 62
    39
  6
CONTINUOUS
 10
0.093709
 20
0.127175
  0
VERTEX
  8
EBENE_1
 62
    39
  6
CONTINUOUS
 10
0.097889
 20
0.122994
  0
VERTEX
  8
EBENE_1
 62
    39
  6
CONTINUOUS
 10
0.103571
 20
0.121366
  0
SEQEND
  8
0
  0
POLYLINE
  8
EBENE_1
 62
    39
  6
CONTINUOUS
 66
     1
 40
0.003000
 41
0.003000
  0
VERTEX
  8
EBENE_1
 62
    39
  6
CONTINUOUS
 10
0.528705
 20
-0.222657
  0
VERTEX
  8
EBENE_1
 62
    39
  6
CONTINUOUS
 10
0.534689
 20
-0.221031
  0
VERTEX
  8
EBENE_1
 62
    39
  6
CONTINUOUS
 10
0.538720
 20
-0.216851
  0
VERTEX
  8
EBENE_1
 62
    39
  6
CONTINUOUS
 10
0.540197
 20
-0.211169
  0
SEQEND
  8
0
  0
POLYLINE
  8
EBENE_1
 62
    39
  6
CONTINUOUS
 66
     1
 40
0.003000
 41
0.003000
  0
VERTEX
  8
EBENE_1
 62
    39
  6
CONTINUOUS
 10
0.540197
 20
-0.211169
  0
VERTEX
  8
EBENE_1
 62
    39
  6
CONTINUOUS
 10
0.538720
 20
-0.205486
  0
VERTEX
  8
EBENE_1
 62
    39
  6
CONTINUOUS
 10
0.534689
 20
-0.201305
  0
VERTEX
  8
EBENE_1
 62
    39
  6
CONTINUOUS
 10
0.528705
 20
-0.199677
  0
SEQEND
  8
0
  0
POLYLINE
  8
EBENE_1
 62
    39
  6
CONTINUOUS
 66
     1
 40
0.003000
 41
0.003000
  0
VERTEX
  8
EBENE_1
 62
    39
  6
CONTINUOUS
 10
0.528705
 20
-0.199677
  0
VERTEX
  8
EBENE_1
 62
    39
  6
CONTINUOUS
 10
0.523197
 20
-0.201305
  0
VERTEX
  8
EBENE_1
 62
    39
  6
CONTINUOUS
 10
0.519342
 20
-0.205486
  0
VERTEX
  8
EBENE_1
 62
    39
  6
CONTINUOUS
 10
0.517890
 20
-0.211169
  0
SEQEND
  8
0
  0
POLYLINE
  8
EBENE_1
 62
    39
  6
CONTINUOUS
 66
     1
 40
0.003000
 41
0.003000
  0
VERTEX
  8
EBENE_1
 62
    39
  6
CONTINUOUS
 10
0.517890
 20
-0.211169
  0
VERTEX
  8
EBENE_1
 62
    39
  6
CONTINUOUS
 10
0.519342
 20
-0.216851
  0
VERTEX
  8
EBENE_1
 62
    39
  6
CONTINUOUS
 10
0.523197
 20
-0.221031
  0
VERTEX
  8
EBENE_1
 62
    39
  6
CONTINUOUS
 10
0.528705
 20
-0.222657
  0
SEQEND
  8
0
  0
POLYLINE
  8
EBENE_1
 62
    39
  6
CONTINUOUS
 66
     1
 40
0.003000
 41
0.003000
  0
VERTEX
  8
EBENE_1
 62
    39
  6
CONTINUOUS
 10
0.882870
 20
-0.165209
  0
VERTEX
  8
EBENE_1
 62
    39
  6
CONTINUOUS
 10
0.888553
 20
-0.163582
  0
VERTEX
  8
EBENE_1
 62
    39
  6
CONTINUOUS
 10
0.892734
 20
-0.159401
  0
VERTEX
  8
EBENE_1
 62
    39
  6
CONTINUOUS
 10
0.894362
 20
-0.153717
  0
SEQEND
  8
0
  0
POLYLINE
  8
EBENE_1
 62
    39
  6
CONTINUOUS
 66
     1
 40
0.003000
 41
0.003000
  0
VERTEX
  8
EBENE_1
 62
    39
  6
CONTINUOUS
 10
0.894362
 20
-0.153717
  0
VERTEX
  8
EBENE_1
 62
    39
  6
CONTINUOUS
 10
0.892734
 20
-0.148035
  0
VERTEX
  8
EBENE_1
 62
    39
  6
CONTINUOUS
 10
0.888553
 20
-0.143855
  0
VERTEX
  8
EBENE_1
 62
    39
  6
CONTINUOUS
 10
0.882870
 20
-0.142228
  0
SEQEND
  8
0
  0
POLYLINE
  8
EBENE_1
 62
    39
  6
CONTINUOUS
 66
     1
 40
0.003000
 41
0.003000
  0
VERTEX
  8
EBENE_1
 62
    39
  6
CONTINUOUS
 10
0.882870
 20
-0.142228
  0
VERTEX
  8
EBENE_1
 62
    39
  6
CONTINUOUS
 10
0.877188
 20
-0.143855
  0
VERTEX
  8
EBENE_1
 62
    39
  6
CONTINUOUS
 10
0.873009
 20
-0.148035
  0
VERTEX
  8
EBENE_1
 62
    39
  6
CONTINUOUS
 10
0.871382
 20
-0.153717
  0
SEQEND
  8
0
  0
POLYLINE
  8
EBENE_1
 62
    39
  6
CONTINUOUS
 66
     1
 40
0.003000
 41
0.003000
  0
VERTEX
  8
EBENE_1
 62
    39
  6
CONTINUOUS
 10
0.871382
 20
-0.153717
  0
VERTEX
  8
EBENE_1
 62
    39
  6
CONTINUOUS
 10
0.873009
 20
-0.159401
  0
VERTEX
  8
EBENE_1
 62
    39
  6
CONTINUOUS
 10
0.877188
 20
-0.163582
  0
VERTEX
  8
EBENE_1
 62
    39
  6
CONTINUOUS
 10
0.882870
 20
-0.165209
  0
SEQEND
  8
0
  0
POLYLINE
  8
EBENE_1
 62
    39
  6
CONTINUOUS
 66
     1
 40
0.003000
 41
0.003000
  0
VERTEX
  8
EBENE_1
 62
    39
  6
CONTINUOUS
 10
1.198512
 20
-0.062472
  0
VERTEX
  8
EBENE_1
 62
    39
  6
CONTINUOUS
 10
1.204194
 20
-0.060995
  0
VERTEX
  8
EBENE_1
 62
    39
  6
CONTINUOUS
 10
1.208373
 20
-0.056965
  0
VERTEX
  8
EBENE_1
 62
    39
  6
CONTINUOUS
 10
1.210000
 20
-0.050984
  0
SEQEND
  8
0
  0
POLYLINE
  8
EBENE_1
 62
    39
  6
CONTINUOUS
 66
     1
 40
0.003000
 41
0.003000
  0
VERTEX
  8
EBENE_1
 62
    39
  6
CONTINUOUS
 10
1.210000
 20
-0.050984
  0
VERTEX
  8
EBENE_1
 62
    39
  6
CONTINUOUS
 10
1.208373
 20
-0.045301
  0
VERTEX
  8
EBENE_1
 62
    39
  6
CONTINUOUS
 10
1.204194
 20
-0.041120
  0
VERTEX
  8
EBENE_1
 62
    39
  6
CONTINUOUS
 10
1.198512
 20
-0.039492
  0
SEQEND
  8
0
  0
POLYLINE
  8
EBENE_1
 62
    39
  6
CONTINUOUS
 66
     1
 40
0.003000
 41
0.003000
  0
VERTEX
  8
EBENE_1
 62
    39
  6
CONTINUOUS
 10
1.198512
 20
-0.039492
  0
VERTEX
  8
EBENE_1
 62
    39
  6
CONTINUOUS
 10
1.192829
 20
-0.041120
  0
VERTEX
  8
EBENE_1
 62
    39
  6
CONTINUOUS
 10
1.188647
 20
-0.045301
  0
VERTEX
  8
EBENE_1
 62
    39
  6
CONTINUOUS
 10
1.187020
 20
-0.050984
  0
SEQEND
  8
0
  0
POLYLINE
  8
EBENE_1
 62
    39
  6
CONTINUOUS
 66
     1
 40
0.003000
 41
0.003000
  0
VERTEX
  8
EBENE_1
 62
    39
  6
CONTINUOUS
 10
1.187020
 20
-0.050984
  0
VERTEX
  8
EBENE_1
 62
    39
  6
CONTINUOUS
 10
1.188647
 20
-0.056965
  0
VERTEX
  8
EBENE_1
 62
    39
  6
CONTINUOUS
 10
1.192829
 20
-0.060995
  0
VERTEX
  8
EBENE_1
 62
    39
  6
CONTINUOUS
 10
1.198512
 20
-0.062472
  0
SEQEND
  8
0
  0
ENDSEC
  0
EOF
