  0
SECTION
  2
HEADER
  9
$ACADVER
  1
AC1006
  9
$EXTMIN
 10
-2.952354
 20
-2.066146
  9
$EXTMAX
 10
2.134697
 20
2.660846
  9
$LTSCALE
 40
0.000394
  9
$PDMODE
 70
    35
  9
$PDSIZE
 40
0.000315
  0
ENDSEC
  0
SECTION
  2
TABLES
  0
TABLE
  2
LTYPE
 70
     9
  0
LTYPE
  2
CONTINUOUS
 70
    64
  3
Solid line
 72
    65
 73
     0
 40
0.000000
  0
LTYPE
  2
DASHED
 70
    64
  3
__ __ __ __ __ __ __ __ __ __ __ __ __ __ __
 72
    65
 73
     2
 40
0.000003
 49
0.000002
 49
-0.000001
  0
LTYPE
  2
HIDDEN
 70
    64
  3
 _ _ _ _ _ _ _ _ _ _ _ _ _ _ _ _ _ _ _ _ _ _
 72
    65
 73
     2
 40
0.000001
 49
0.000001
 49
-0.000000
  0
LTYPE
  2
CENTER
 70
    64
  3
____ _ ____ _ ____ _ ____ _ ____ _ ____ _ ____
 72
    65
 73
     4
 40
0.000008
 49
0.000005
 49
-0.000001
 49
0.000001
 49
-0.000001
  0
LTYPE
  2
PHANTOM
 70
    64
  3
_____ _ _ _____ _ _ _____ _ _ _____ _ _ ____
 72
    65
 73
     6
 40
0.000010
 49
0.000005
 49
-0.000001
 49
0.000001
 49
-0.000001
 49
0.000001
 49
-0.000001
  0
LTYPE
  2
DOT
 70
    64
  3
...............................................
 72
    65
 73
     2
 40
0.000001
 49
0.000000
 49
-0.000001
  0
LTYPE
  2
DASHDOT
 70
    64
  3
__ . __ . __ . __ . __ . __ . __ . __ . __ . __
 72
    65
 73
     4
 40
0.000004
 49
0.000002
 49
-0.000001
 49
0.000000
 49
-0.000001
  0
LTYPE
  2
BORDER
 70
    64
  3
__ __ . __ __ . __ __ . __ __ . __ __ . __ __
 72
    65
 73
     6
 40
0.000007
 49
0.000002
 49
-0.000001
 49
0.000002
 49
-0.000001
 49
0.000000
 49
-0.000001
  0
LTYPE
  2
DIVIDE
 70
    64
  3
__ . . __ . . __ . . __ . . __ . . __ . . __
 72
    65
 73
     6
 40
0.000005
 49
0.000002
 49
-0.000001
 49
0.000000
 49
-0.000001
 49
0.000000
 49
-0.000001
  0
LTYPE
  2
DOTDOT
 70
    64
  3
 . .  . .  . .  . .  . .  . . 
 72
    65
 73
     5
 40
0.000002
 49
-0.000001
 49
0.000000
 49
-0.000001
 49
0.000000
 49
-0.000001
  0
ENDTAB
  0
TABLE
  2
STYLE
 70
     2
  0
STYLE
 70
     0
  2
SN0
 40
0.000000
 41
0.000004
 50
0.000000
 71
     0
 42
0.000000
  3
SCRIPTS
  0
STYLE
 70
    68
  2
SV0
 40
0.000000
 41
0.000004
 50
0.000000
 71
     0
 42
0.000000
  3
SCRIPTS
  0
ENDTAB
  0
TABLE
  2
LAYER
 70
     3
  0
LAYER
  2
FOREGROUND
 70
    64
 62
     7
  6
CONTINUOUS
  0
LAYER
  2
BACKGROUND
 70
    65
 62
    -7
  6
CONTINUOUS
  0
LAYER
  2
EBENE_1
 70
    64
 62
     7
  6
CONTINUOUS
  0
ENDTAB
  0
ENDSEC
  0
SECTION
  2
ENTITIES
  0
SOLID
  8
EBENE_1
 10
-1.807311
 20
-2.061142
 11
-1.292122
 21
-2.061142
 12
-1.807311
 22
-1.279669
 13
-1.292122
 23
-1.279669
  0
POLYLINE
  8
EBENE_1
 62
    39
  6
CONTINUOUS
 66
     1
 40
0.010000
 41
0.010000
 70
     1
  0
VERTEX
  8
EBENE_1
 62
    39
  6
CONTINUOUS
 10
-1.807311
 20
-2.061142
  0
VERTEX
  8
EBENE_1
 62
    39
  6
CONTINUOUS
 10
-1.292122
 20
-2.061142
  0
VERTEX
  8
EBENE_1
 62
    39
  6
CONTINUOUS
 10
-1.292122
 20
-1.279669
  0
VERTEX
  8
EBENE_1
 62
    39
  6
CONTINUOUS
 10
-1.807311
 20
-1.279669
  0
SEQEND
  8
0
  0
POLYLINE
  8
EBENE_1
 62
    39
  6
CONTINUOUS
 66
     1
 40
0.003000
 41
0.003000
 70
     1
  0
VERTEX
  8
EBENE_1
 62
    39
  6
CONTINUOUS
 10
-1.803315
 20
-2.053815
  0
VERTEX
  8
EBENE_1
 62
    39
  6
CONTINUOUS
 10
-1.302425
 20
-2.053815
  0
VERTEX
  8
EBENE_1
 62
    39
  6
CONTINUOUS
 10
-1.302425
 20
-1.286996
  0
VERTEX
  8
EBENE_1
 62
    39
  6
CONTINUOUS
 10
-1.803315
 20
-1.286996
  0
SEQEND
  8
0
  0
SOLID
  8
EBENE_1
 10
-1.280878
 20
-2.061142
 11
-0.765689
 21
-2.061142
 12
-1.280878
 22
-1.279669
 13
-0.765689
 23
-1.279669
  0
POLYLINE
  8
EBENE_1
 62
    39
  6
CONTINUOUS
 66
     1
 40
0.010000
 41
0.010000
 70
     1
  0
VERTEX
  8
EBENE_1
 62
    39
  6
CONTINUOUS
 10
-1.280878
 20
-2.061142
  0
VERTEX
  8
EBENE_1
 62
    39
  6
CONTINUOUS
 10
-0.765689
 20
-2.061142
  0
VERTEX
  8
EBENE_1
 62
    39
  6
CONTINUOUS
 10
-0.765689
 20
-1.279669
  0
VERTEX
  8
EBENE_1
 62
    39
  6
CONTINUOUS
 10
-1.280878
 20
-1.279669
  0
SEQEND
  8
0
  0
POLYLINE
  8
EBENE_1
 62
    39
  6
CONTINUOUS
 66
     1
 40
0.003000
 41
0.003000
 70
     1
  0
VERTEX
  8
EBENE_1
 62
    39
  6
CONTINUOUS
 10
-1.276882
 20
-2.053815
  0
VERTEX
  8
EBENE_1
 62
    39
  6
CONTINUOUS
 10
-0.775992
 20
-2.053815
  0
VERTEX
  8
EBENE_1
 62
    39
  6
CONTINUOUS
 10
-0.775992
 20
-1.286996
  0
VERTEX
  8
EBENE_1
 62
    39
  6
CONTINUOUS
 10
-1.276882
 20
-1.286996
  0
SEQEND
  8
0
  0
SOLID
  8
EBENE_1
 10
-0.754445
 20
-2.061142
 11
-0.239256
 21
-2.061142
 12
-0.754445
 22
-1.279669
 13
-0.239256
 23
-1.279669
  0
POLYLINE
  8
EBENE_1
 62
    39
  6
CONTINUOUS
 66
     1
 40
0.010000
 41
0.010000
 70
     1
  0
VERTEX
  8
EBENE_1
 62
    39
  6
CONTINUOUS
 10
-0.754445
 20
-2.061142
  0
VERTEX
  8
EBENE_1
 62
    39
  6
CONTINUOUS
 10
-0.239256
 20
-2.061142
  0
VERTEX
  8
EBENE_1
 62
    39
  6
CONTINUOUS
 10
-0.239256
 20
-1.279669
  0
VERTEX
  8
EBENE_1
 62
    39
  6
CONTINUOUS
 10
-0.754445
 20
-1.279669
  0
SEQEND
  8
0
  0
POLYLINE
  8
EBENE_1
 62
    39
  6
CONTINUOUS
 66
     1
 40
0.003000
 41
0.003000
 70
     1
  0
VERTEX
  8
EBENE_1
 62
    39
  6
CONTINUOUS
 10
-0.750449
 20
-2.053815
  0
VERTEX
  8
EBENE_1
 62
    39
  6
CONTINUOUS
 10
-0.249559
 20
-2.053815
  0
VERTEX
  8
EBENE_1
 62
    39
  6
CONTINUOUS
 10
-0.249559
 20
-1.286996
  0
VERTEX
  8
EBENE_1
 62
    39
  6
CONTINUOUS
 10
-0.750449
 20
-1.286996
  0
SEQEND
  8
0
  0
SOLID
  8
EBENE_1
 10
-0.228012
 20
-2.061142
 11
0.287177
 21
-2.061142
 12
-0.228012
 22
-1.279669
 13
0.287177
 23
-1.279669
  0
POLYLINE
  8
EBENE_1
 62
    39
  6
CONTINUOUS
 66
     1
 40
0.010000
 41
0.010000
 70
     1
  0
VERTEX
  8
EBENE_1
 62
    39
  6
CONTINUOUS
 10
-0.228012
 20
-2.061142
  0
VERTEX
  8
EBENE_1
 62
    39
  6
CONTINUOUS
 10
0.287177
 20
-2.061142
  0
VERTEX
  8
EBENE_1
 62
    39
  6
CONTINUOUS
 10
0.287177
 20
-1.279669
  0
VERTEX
  8
EBENE_1
 62
    39
  6
CONTINUOUS
 10
-0.228012
 20
-1.279669
  0
SEQEND
  8
0
  0
POLYLINE
  8
EBENE_1
 62
    39
  6
CONTINUOUS
 66
     1
 40
0.003000
 41
0.003000
 70
     1
  0
VERTEX
  8
EBENE_1
 62
    39
  6
CONTINUOUS
 10
-0.224016
 20
-2.053815
  0
VERTEX
  8
EBENE_1
 62
    39
  6
CONTINUOUS
 10
0.276874
 20
-2.053815
  0
VERTEX
  8
EBENE_1
 62
    39
  6
CONTINUOUS
 10
0.276874
 20
-1.286996
  0
VERTEX
  8
EBENE_1
 62
    39
  6
CONTINUOUS
 10
-0.224016
 20
-1.286996
  0
SEQEND
  8
0
  0
SOLID
  8
EBENE_1
 10
0.298421
 20
-2.061142
 11
0.813610
 21
-2.061142
 12
0.298421
 22
-1.279669
 13
0.813610
 23
-1.279669
  0
POLYLINE
  8
EBENE_1
 62
    39
  6
CONTINUOUS
 66
     1
 40
0.010000
 41
0.010000
 70
     1
  0
VERTEX
  8
EBENE_1
 62
    39
  6
CONTINUOUS
 10
0.298421
 20
-2.061142
  0
VERTEX
  8
EBENE_1
 62
    39
  6
CONTINUOUS
 10
0.813610
 20
-2.061142
  0
VERTEX
  8
EBENE_1
 62
    39
  6
CONTINUOUS
 10
0.813610
 20
-1.279669
  0
VERTEX
  8
EBENE_1
 62
    39
  6
CONTINUOUS
 10
0.298421
 20
-1.279669
  0
SEQEND
  8
0
  0
POLYLINE
  8
EBENE_1
 62
    39
  6
CONTINUOUS
 66
     1
 40
0.003000
 41
0.003000
 70
     1
  0
VERTEX
  8
EBENE_1
 62
    39
  6
CONTINUOUS
 10
0.302417
 20
-2.053815
  0
VERTEX
  8
EBENE_1
 62
    39
  6
CONTINUOUS
 10
0.803307
 20
-2.053815
  0
VERTEX
  8
EBENE_1
 62
    39
  6
CONTINUOUS
 10
0.803307
 20
-1.286996
  0
VERTEX
  8
EBENE_1
 62
    39
  6
CONTINUOUS
 10
0.302417
 20
-1.286996
  0
SEQEND
  8
0
  0
SOLID
  8
EBENE_1
 10
0.824854
 20
-2.061142
 11
1.340043
 21
-2.061142
 12
0.824854
 22
-1.279669
 13
1.340043
 23
-1.279669
  0
POLYLINE
  8
EBENE_1
 62
    39
  6
CONTINUOUS
 66
     1
 40
0.010000
 41
0.010000
 70
     1
  0
VERTEX
  8
EBENE_1
 62
    39
  6
CONTINUOUS
 10
0.824854
 20
-2.061142
  0
VERTEX
  8
EBENE_1
 62
    39
  6
CONTINUOUS
 10
1.340043
 20
-2.061142
  0
VERTEX
  8
EBENE_1
 62
    39
  6
CONTINUOUS
 10
1.340043
 20
-1.279669
  0
VERTEX
  8
EBENE_1
 62
    39
  6
CONTINUOUS
 10
0.824854
 20
-1.279669
  0
SEQEND
  8
0
  0
POLYLINE
  8
EBENE_1
 62
    39
  6
CONTINUOUS
 66
     1
 40
0.003000
 41
0.003000
 70
     1
  0
VERTEX
  8
EBENE_1
 62
    39
  6
CONTINUOUS
 10
0.828850
 20
-2.053815
  0
VERTEX
  8
EBENE_1
 62
    39
  6
CONTINUOUS
 10
1.329740
 20
-2.053815
  0
VERTEX
  8
EBENE_1
 62
    39
  6
CONTINUOUS
 10
1.329740
 20
-1.286996
  0
VERTEX
  8
EBENE_1
 62
    39
  6
CONTINUOUS
 10
0.828850
 20
-1.286996
  0
SEQEND
  8
0
  0
SOLID
  8
EBENE_1
 10
1.351287
 20
-2.061142
 11
1.866476
 21
-2.061142
 12
1.351287
 22
-1.279669
 13
1.866476
 23
-1.279669
  0
POLYLINE
  8
EBENE_1
 62
    39
  6
CONTINUOUS
 66
     1
 40
0.010000
 41
0.010000
 70
     1
  0
VERTEX
  8
EBENE_1
 62
    39
  6
CONTINUOUS
 10
1.351287
 20
-2.061142
  0
VERTEX
  8
EBENE_1
 62
    39
  6
CONTINUOUS
 10
1.866476
 20
-2.061142
  0
VERTEX
  8
EBENE_1
 62
    39
  6
CONTINUOUS
 10
1.866476
 20
-1.279669
  0
VERTEX
  8
EBENE_1
 62
    39
  6
CONTINUOUS
 10
1.351287
 20
-1.279669
  0
SEQEND
  8
0
  0
POLYLINE
  8
EBENE_1
 62
    39
  6
CONTINUOUS
 66
     1
 40
0.003000
 41
0.003000
 70
     1
  0
VERTEX
  8
EBENE_1
 62
    39
  6
CONTINUOUS
 10
1.355283
 20
-2.053815
  0
VERTEX
  8
EBENE_1
 62
    39
  6
CONTINUOUS
 10
1.856173
 20
-2.053815
  0
VERTEX
  8
EBENE_1
 62
    39
  6
CONTINUOUS
 10
1.856173
 20
-1.286996
  0
VERTEX
  8
EBENE_1
 62
    39
  6
CONTINUOUS
 10
1.355283
 20
-1.286996
  0
SEQEND
  8
0
  0
SOLID
  8
EBENE_1
 10
-1.544094
 20
-1.755563
 11
-1.028906
 21
-1.755563
 12
-1.544094
 22
-0.974091
 13
-1.028906
 23
-0.974091
  0
POLYLINE
  8
EBENE_1
 62
    39
  6
CONTINUOUS
 66
     1
 40
0.010000
 41
0.010000
 70
     1
  0
VERTEX
  8
EBENE_1
 62
    39
  6
CONTINUOUS
 10
-1.544094
 20
-1.755563
  0
VERTEX
  8
EBENE_1
 62
    39
  6
CONTINUOUS
 10
-1.028906
 20
-1.755563
  0
VERTEX
  8
EBENE_1
 62
    39
  6
CONTINUOUS
 10
-1.028906
 20
-0.974091
  0
VERTEX
  8
EBENE_1
 62
    39
  6
CONTINUOUS
 10
-1.544094
 20
-0.974091
  0
SEQEND
  8
0
  0
POLYLINE
  8
EBENE_1
 62
    39
  6
CONTINUOUS
 66
     1
 40
0.003000
 41
0.003000
 70
     1
  0
VERTEX
  8
EBENE_1
 62
    39
  6
CONTINUOUS
 10
-1.540098
 20
-1.748236
  0
VERTEX
  8
EBENE_1
 62
    39
  6
CONTINUOUS
 10
-1.039209
 20
-1.748236
  0
VERTEX
  8
EBENE_1
 62
    39
  6
CONTINUOUS
 10
-1.039209
 20
-0.981417
  0
VERTEX
  8
EBENE_1
 62
    39
  6
CONTINUOUS
 10
-1.540098
 20
-0.981417
  0
SEQEND
  8
0
  0
SOLID
  8
EBENE_1
 10
-1.017661
 20
-1.755563
 11
-0.502472
 21
-1.755563
 12
-1.017661
 22
-0.974091
 13
-0.502472
 23
-0.974091
  0
POLYLINE
  8
EBENE_1
 62
    39
  6
CONTINUOUS
 66
     1
 40
0.010000
 41
0.010000
 70
     1
  0
VERTEX
  8
EBENE_1
 62
    39
  6
CONTINUOUS
 10
-1.017661
 20
-1.755563
  0
VERTEX
  8
EBENE_1
 62
    39
  6
CONTINUOUS
 10
-0.502472
 20
-1.755563
  0
VERTEX
  8
EBENE_1
 62
    39
  6
CONTINUOUS
 10
-0.502472
 20
-0.974091
  0
VERTEX
  8
EBENE_1
 62
    39
  6
CONTINUOUS
 10
-1.017661
 20
-0.974091
  0
SEQEND
  8
0
  0
POLYLINE
  8
EBENE_1
 62
    39
  6
CONTINUOUS
 66
     1
 40
0.003000
 41
0.003000
 70
     1
  0
VERTEX
  8
EBENE_1
 62
    39
  6
CONTINUOUS
 10
-1.013665
 20
-1.748236
  0
VERTEX
  8
EBENE_1
 62
    39
  6
CONTINUOUS
 10
-0.512776
 20
-1.748236
  0
VERTEX
  8
EBENE_1
 62
    39
  6
CONTINUOUS
 10
-0.512776
 20
-0.981417
  0
VERTEX
  8
EBENE_1
 62
    39
  6
CONTINUOUS
 10
-1.013665
 20
-0.981417
  0
SEQEND
  8
0
  0
SOLID
  8
EBENE_1
 10
-0.491228
 20
-1.755563
 11
0.023961
 21
-1.755563
 12
-0.491228
 22
-0.974091
 13
0.023961
 23
-0.974091
  0
POLYLINE
  8
EBENE_1
 62
    39
  6
CONTINUOUS
 66
     1
 40
0.010000
 41
0.010000
 70
     1
  0
VERTEX
  8
EBENE_1
 62
    39
  6
CONTINUOUS
 10
-0.491228
 20
-1.755563
  0
VERTEX
  8
EBENE_1
 62
    39
  6
CONTINUOUS
 10
0.023961
 20
-1.755563
  0
VERTEX
  8
EBENE_1
 62
    39
  6
CONTINUOUS
 10
0.023961
 20
-0.974091
  0
VERTEX
  8
EBENE_1
 62
    39
  6
CONTINUOUS
 10
-0.491228
 20
-0.974091
  0
SEQEND
  8
0
  0
POLYLINE
  8
EBENE_1
 62
    39
  6
CONTINUOUS
 66
     1
 40
0.003000
 41
0.003000
 70
     1
  0
VERTEX
  8
EBENE_1
 62
    39
  6
CONTINUOUS
 10
-0.487232
 20
-1.748236
  0
VERTEX
  8
EBENE_1
 62
    39
  6
CONTINUOUS
 10
0.013657
 20
-1.748236
  0
VERTEX
  8
EBENE_1
 62
    39
  6
CONTINUOUS
 10
0.013657
 20
-0.981417
  0
VERTEX
  8
EBENE_1
 62
    39
  6
CONTINUOUS
 10
-0.487232
 20
-0.981417
  0
SEQEND
  8
0
  0
SOLID
  8
EBENE_1
 10
0.035205
 20
-1.755563
 11
0.550394
 21
-1.755563
 12
0.035205
 22
-0.974091
 13
0.550394
 23
-0.974091
  0
POLYLINE
  8
EBENE_1
 62
    39
  6
CONTINUOUS
 66
     1
 40
0.010000
 41
0.010000
 70
     1
  0
VERTEX
  8
EBENE_1
 62
    39
  6
CONTINUOUS
 10
0.035205
 20
-1.755563
  0
VERTEX
  8
EBENE_1
 62
    39
  6
CONTINUOUS
 10
0.550394
 20
-1.755563
  0
VERTEX
  8
EBENE_1
 62
    39
  6
CONTINUOUS
 10
0.550394
 20
-0.974091
  0
VERTEX
  8
EBENE_1
 62
    39
  6
CONTINUOUS
 10
0.035205
 20
-0.974091
  0
SEQEND
  8
0
  0
POLYLINE
  8
EBENE_1
 62
    39
  6
CONTINUOUS
 66
     1
 40
0.003000
 41
0.003000
 70
     1
  0
VERTEX
  8
EBENE_1
 62
    39
  6
CONTINUOUS
 10
0.039201
 20
-1.748236
  0
VERTEX
  8
EBENE_1
 62
    39
  6
CONTINUOUS
 10
0.540091
 20
-1.748236
  0
VERTEX
  8
EBENE_1
 62
    39
  6
CONTINUOUS
 10
0.540091
 20
-0.981417
  0
VERTEX
  8
EBENE_1
 62
    39
  6
CONTINUOUS
 10
0.039201
 20
-0.981417
  0
SEQEND
  8
0
  0
SOLID
  8
EBENE_1
 10
0.561638
 20
-1.755563
 11
1.076827
 21
-1.755563
 12
0.561638
 22
-0.974091
 13
1.076827
 23
-0.974091
  0
POLYLINE
  8
EBENE_1
 62
    39
  6
CONTINUOUS
 66
     1
 40
0.010000
 41
0.010000
 70
     1
  0
VERTEX
  8
EBENE_1
 62
    39
  6
CONTINUOUS
 10
0.561638
 20
-1.755563
  0
VERTEX
  8
EBENE_1
 62
    39
  6
CONTINUOUS
 10
1.076827
 20
-1.755563
  0
VERTEX
  8
EBENE_1
 62
    39
  6
CONTINUOUS
 10
1.076827
 20
-0.974091
  0
VERTEX
  8
EBENE_1
 62
    39
  6
CONTINUOUS
 10
0.561638
 20
-0.974091
  0
SEQEND
  8
0
  0
POLYLINE
  8
EBENE_1
 62
    39
  6
CONTINUOUS
 66
     1
 40
0.003000
 41
0.003000
 70
     1
  0
VERTEX
  8
EBENE_1
 62
    39
  6
CONTINUOUS
 10
0.565634
 20
-1.748236
  0
VERTEX
  8
EBENE_1
 62
    39
  6
CONTINUOUS
 10
1.066524
 20
-1.748236
  0
VERTEX
  8
EBENE_1
 62
    39
  6
CONTINUOUS
 10
1.066524
 20
-0.981417
  0
VERTEX
  8
EBENE_1
 62
    39
  6
CONTINUOUS
 10
0.565634
 20
-0.981417
  0
SEQEND
  8
0
  0
SOLID
  8
EBENE_1
 10
1.088071
 20
-1.755563
 11
1.603260
 21
-1.755563
 12
1.088071
 22
-0.974091
 13
1.603260
 23
-0.974091
  0
POLYLINE
  8
EBENE_1
 62
    39
  6
CONTINUOUS
 66
     1
 40
0.010000
 41
0.010000
 70
     1
  0
VERTEX
  8
EBENE_1
 62
    39
  6
CONTINUOUS
 10
1.088071
 20
-1.755563
  0
VERTEX
  8
EBENE_1
 62
    39
  6
CONTINUOUS
 10
1.603260
 20
-1.755563
  0
VERTEX
  8
EBENE_1
 62
    39
  6
CONTINUOUS
 10
1.603260
 20
-0.974091
  0
VERTEX
  8
EBENE_1
 62
    39
  6
CONTINUOUS
 10
1.088071
 20
-0.974091
  0
SEQEND
  8
0
  0
POLYLINE
  8
EBENE_1
 62
    39
  6
CONTINUOUS
 66
     1
 40
0.003000
 41
0.003000
 70
     1
  0
VERTEX
  8
EBENE_1
 62
    39
  6
CONTINUOUS
 10
1.092067
 20
-1.748236
  0
VERTEX
  8
EBENE_1
 62
    39
  6
CONTINUOUS
 10
1.592957
 20
-1.748236
  0
VERTEX
  8
EBENE_1
 62
    39
  6
CONTINUOUS
 10
1.592957
 20
-0.981417
  0
VERTEX
  8
EBENE_1
 62
    39
  6
CONTINUOUS
 10
1.092067
 20
-0.981417
  0
SEQEND
  8
0
  0
SOLID
  8
EBENE_1
 10
1.614504
 20
-1.755563
 11
2.129693
 21
-1.755563
 12
1.614504
 22
-0.974091
 13
2.129693
 23
-0.974091
  0
POLYLINE
  8
EBENE_1
 62
    39
  6
CONTINUOUS
 66
     1
 40
0.010000
 41
0.010000
 70
     1
  0
VERTEX
  8
EBENE_1
 62
    39
  6
CONTINUOUS
 10
1.614504
 20
-1.755563
  0
VERTEX
  8
EBENE_1
 62
    39
  6
CONTINUOUS
 10
2.129693
 20
-1.755563
  0
VERTEX
  8
EBENE_1
 62
    39
  6
CONTINUOUS
 10
2.129693
 20
-0.974091
  0
VERTEX
  8
EBENE_1
 62
    39
  6
CONTINUOUS
 10
1.614504
 20
-0.974091
  0
SEQEND
  8
0
  0
POLYLINE
  8
EBENE_1
 62
    39
  6
CONTINUOUS
 66
     1
 40
0.003000
 41
0.003000
 70
     1
  0
VERTEX
  8
EBENE_1
 62
    39
  6
CONTINUOUS
 10
1.618500
 20
-1.748236
  0
VERTEX
  8
EBENE_1
 62
    39
  6
CONTINUOUS
 10
2.119390
 20
-1.748236
  0
VERTEX
  8
EBENE_1
 62
    39
  6
CONTINUOUS
 10
2.119390
 20
-0.981417
  0
VERTEX
  8
EBENE_1
 62
    39
  6
CONTINUOUS
 10
1.618500
 20
-0.981417
  0
SEQEND
  8
0
  0
SOLID
  8
EBENE_1
 10
-1.807311
 20
-1.449984
 11
-1.292122
 21
-1.449984
 12
-1.807311
 22
-0.668512
 13
-1.292122
 23
-0.668512
  0
POLYLINE
  8
EBENE_1
 62
    39
  6
CONTINUOUS
 66
     1
 40
0.010000
 41
0.010000
 70
     1
  0
VERTEX
  8
EBENE_1
 62
    39
  6
CONTINUOUS
 10
-1.807311
 20
-1.449984
  0
VERTEX
  8
EBENE_1
 62
    39
  6
CONTINUOUS
 10
-1.292122
 20
-1.449984
  0
VERTEX
  8
EBENE_1
 62
    39
  6
CONTINUOUS
 10
-1.292122
 20
-0.668512
  0
VERTEX
  8
EBENE_1
 62
    39
  6
CONTINUOUS
 10
-1.807311
 20
-0.668512
  0
SEQEND
  8
0
  0
POLYLINE
  8
EBENE_1
 62
    39
  6
CONTINUOUS
 66
     1
 40
0.003000
 41
0.003000
 70
     1
  0
VERTEX
  8
EBENE_1
 62
    39
  6
CONTINUOUS
 10
-1.803315
 20
-1.442657
  0
VERTEX
  8
EBENE_1
 62
    39
  6
CONTINUOUS
 10
-1.302425
 20
-1.442657
  0
VERTEX
  8
EBENE_1
 62
    39
  6
CONTINUOUS
 10
-1.302425
 20
-0.675839
  0
VERTEX
  8
EBENE_1
 62
    39
  6
CONTINUOUS
 10
-1.803315
 20
-0.675839
  0
SEQEND
  8
0
  0
SOLID
  8
EBENE_1
 10
-1.280878
 20
-1.449984
 11
-0.765689
 21
-1.449984
 12
-1.280878
 22
-0.668512
 13
-0.765689
 23
-0.668512
  0
POLYLINE
  8
EBENE_1
 62
    39
  6
CONTINUOUS
 66
     1
 40
0.010000
 41
0.010000
 70
     1
  0
VERTEX
  8
EBENE_1
 62
    39
  6
CONTINUOUS
 10
-1.280878
 20
-1.449984
  0
VERTEX
  8
EBENE_1
 62
    39
  6
CONTINUOUS
 10
-0.765689
 20
-1.449984
  0
VERTEX
  8
EBENE_1
 62
    39
  6
CONTINUOUS
 10
-0.765689
 20
-0.668512
  0
VERTEX
  8
EBENE_1
 62
    39
  6
CONTINUOUS
 10
-1.280878
 20
-0.668512
  0
SEQEND
  8
0
  0
POLYLINE
  8
EBENE_1
 62
    39
  6
CONTINUOUS
 66
     1
 40
0.003000
 41
0.003000
 70
     1
  0
VERTEX
  8
EBENE_1
 62
    39
  6
CONTINUOUS
 10
-1.276882
 20
-1.442657
  0
VERTEX
  8
EBENE_1
 62
    39
  6
CONTINUOUS
 10
-0.775992
 20
-1.442657
  0
VERTEX
  8
EBENE_1
 62
    39
  6
CONTINUOUS
 10
-0.775992
 20
-0.675839
  0
VERTEX
  8
EBENE_1
 62
    39
  6
CONTINUOUS
 10
-1.276882
 20
-0.675839
  0
SEQEND
  8
0
  0
SOLID
  8
EBENE_1
 10
-0.754445
 20
-1.449984
 11
-0.239256
 21
-1.449984
 12
-0.754445
 22
-0.668512
 13
-0.239256
 23
-0.668512
  0
POLYLINE
  8
EBENE_1
 62
    39
  6
CONTINUOUS
 66
     1
 40
0.010000
 41
0.010000
 70
     1
  0
VERTEX
  8
EBENE_1
 62
    39
  6
CONTINUOUS
 10
-0.754445
 20
-1.449984
  0
VERTEX
  8
EBENE_1
 62
    39
  6
CONTINUOUS
 10
-0.239256
 20
-1.449984
  0
VERTEX
  8
EBENE_1
 62
    39
  6
CONTINUOUS
 10
-0.239256
 20
-0.668512
  0
VERTEX
  8
EBENE_1
 62
    39
  6
CONTINUOUS
 10
-0.754445
 20
-0.668512
  0
SEQEND
  8
0
  0
POLYLINE
  8
EBENE_1
 62
    39
  6
CONTINUOUS
 66
     1
 40
0.003000
 41
0.003000
 70
     1
  0
VERTEX
  8
EBENE_1
 62
    39
  6
CONTINUOUS
 10
-0.750449
 20
-1.442657
  0
VERTEX
  8
EBENE_1
 62
    39
  6
CONTINUOUS
 10
-0.249559
 20
-1.442657
  0
VERTEX
  8
EBENE_1
 62
    39
  6
CONTINUOUS
 10
-0.249559
 20
-0.675839
  0
VERTEX
  8
EBENE_1
 62
    39
  6
CONTINUOUS
 10
-0.750449
 20
-0.675839
  0
SEQEND
  8
0
  0
SOLID
  8
EBENE_1
 10
-0.228012
 20
-1.449984
 11
0.287177
 21
-1.449984
 12
-0.228012
 22
-0.668512
 13
0.287177
 23
-0.668512
  0
POLYLINE
  8
EBENE_1
 62
    39
  6
CONTINUOUS
 66
     1
 40
0.010000
 41
0.010000
 70
     1
  0
VERTEX
  8
EBENE_1
 62
    39
  6
CONTINUOUS
 10
-0.228012
 20
-1.449984
  0
VERTEX
  8
EBENE_1
 62
    39
  6
CONTINUOUS
 10
0.287177
 20
-1.449984
  0
VERTEX
  8
EBENE_1
 62
    39
  6
CONTINUOUS
 10
0.287177
 20
-0.668512
  0
VERTEX
  8
EBENE_1
 62
    39
  6
CONTINUOUS
 10
-0.228012
 20
-0.668512
  0
SEQEND
  8
0
  0
POLYLINE
  8
EBENE_1
 62
    39
  6
CONTINUOUS
 66
     1
 40
0.003000
 41
0.003000
 70
     1
  0
VERTEX
  8
EBENE_1
 62
    39
  6
CONTINUOUS
 10
-0.224016
 20
-1.442657
  0
VERTEX
  8
EBENE_1
 62
    39
  6
CONTINUOUS
 10
0.276874
 20
-1.442657
  0
VERTEX
  8
EBENE_1
 62
    39
  6
CONTINUOUS
 10
0.276874
 20
-0.675839
  0
VERTEX
  8
EBENE_1
 62
    39
  6
CONTINUOUS
 10
-0.224016
 20
-0.675839
  0
SEQEND
  8
0
  0
SOLID
  8
EBENE_1
 10
0.298421
 20
-1.449984
 11
0.813610
 21
-1.449984
 12
0.298421
 22
-0.668512
 13
0.813610
 23
-0.668512
  0
POLYLINE
  8
EBENE_1
 62
    39
  6
CONTINUOUS
 66
     1
 40
0.010000
 41
0.010000
 70
     1
  0
VERTEX
  8
EBENE_1
 62
    39
  6
CONTINUOUS
 10
0.298421
 20
-1.449984
  0
VERTEX
  8
EBENE_1
 62
    39
  6
CONTINUOUS
 10
0.813610
 20
-1.449984
  0
VERTEX
  8
EBENE_1
 62
    39
  6
CONTINUOUS
 10
0.813610
 20
-0.668512
  0
VERTEX
  8
EBENE_1
 62
    39
  6
CONTINUOUS
 10
0.298421
 20
-0.668512
  0
SEQEND
  8
0
  0
POLYLINE
  8
EBENE_1
 62
    39
  6
CONTINUOUS
 66
     1
 40
0.003000
 41
0.003000
 70
     1
  0
VERTEX
  8
EBENE_1
 62
    39
  6
CONTINUOUS
 10
0.302417
 20
-1.442657
  0
VERTEX
  8
EBENE_1
 62
    39
  6
CONTINUOUS
 10
0.803307
 20
-1.442657
  0
VERTEX
  8
EBENE_1
 62
    39
  6
CONTINUOUS
 10
0.803307
 20
-0.675839
  0
VERTEX
  8
EBENE_1
 62
    39
  6
CONTINUOUS
 10
0.302417
 20
-0.675839
  0
SEQEND
  8
0
  0
SOLID
  8
EBENE_1
 10
0.824854
 20
-1.449984
 11
1.340043
 21
-1.449984
 12
0.824854
 22
-0.668512
 13
1.340043
 23
-0.668512
  0
POLYLINE
  8
EBENE_1
 62
    39
  6
CONTINUOUS
 66
     1
 40
0.010000
 41
0.010000
 70
     1
  0
VERTEX
  8
EBENE_1
 62
    39
  6
CONTINUOUS
 10
0.824854
 20
-1.449984
  0
VERTEX
  8
EBENE_1
 62
    39
  6
CONTINUOUS
 10
1.340043
 20
-1.449984
  0
VERTEX
  8
EBENE_1
 62
    39
  6
CONTINUOUS
 10
1.340043
 20
-0.668512
  0
VERTEX
  8
EBENE_1
 62
    39
  6
CONTINUOUS
 10
0.824854
 20
-0.668512
  0
SEQEND
  8
0
  0
POLYLINE
  8
EBENE_1
 62
    39
  6
CONTINUOUS
 66
     1
 40
0.003000
 41
0.003000
 70
     1
  0
VERTEX
  8
EBENE_1
 62
    39
  6
CONTINUOUS
 10
0.828850
 20
-1.442657
  0
VERTEX
  8
EBENE_1
 62
    39
  6
CONTINUOUS
 10
1.329740
 20
-1.442657
  0
VERTEX
  8
EBENE_1
 62
    39
  6
CONTINUOUS
 10
1.329740
 20
-0.675839
  0
VERTEX
  8
EBENE_1
 62
    39
  6
CONTINUOUS
 10
0.828850
 20
-0.675839
  0
SEQEND
  8
0
  0
SOLID
  8
EBENE_1
 10
1.351287
 20
-1.449984
 11
1.866476
 21
-1.449984
 12
1.351287
 22
-0.668512
 13
1.866476
 23
-0.668512
  0
POLYLINE
  8
EBENE_1
 62
    39
  6
CONTINUOUS
 66
     1
 40
0.010000
 41
0.010000
 70
     1
  0
VERTEX
  8
EBENE_1
 62
    39
  6
CONTINUOUS
 10
1.351287
 20
-1.449984
  0
VERTEX
  8
EBENE_1
 62
    39
  6
CONTINUOUS
 10
1.866476
 20
-1.449984
  0
VERTEX
  8
EBENE_1
 62
    39
  6
CONTINUOUS
 10
1.866476
 20
-0.668512
  0
VERTEX
  8
EBENE_1
 62
    39
  6
CONTINUOUS
 10
1.351287
 20
-0.668512
  0
SEQEND
  8
0
  0
POLYLINE
  8
EBENE_1
 62
    39
  6
CONTINUOUS
 66
     1
 40
0.003000
 41
0.003000
 70
     1
  0
VERTEX
  8
EBENE_1
 62
    39
  6
CONTINUOUS
 10
1.355283
 20
-1.442657
  0
VERTEX
  8
EBENE_1
 62
    39
  6
CONTINUOUS
 10
1.856173
 20
-1.442657
  0
VERTEX
  8
EBENE_1
 62
    39
  6
CONTINUOUS
 10
1.856173
 20
-0.675839
  0
VERTEX
  8
EBENE_1
 62
    39
  6
CONTINUOUS
 10
1.355283
 20
-0.675839
  0
SEQEND
  8
0
  0
SOLID
  8
EBENE_1
 10
-1.544094
 20
-1.144406
 11
-1.028906
 21
-1.144406
 12
-1.544094
 22
-0.362933
 13
-1.028906
 23
-0.362933
  0
POLYLINE
  8
EBENE_1
 62
    39
  6
CONTINUOUS
 66
     1
 40
0.010000
 41
0.010000
 70
     1
  0
VERTEX
  8
EBENE_1
 62
    39
  6
CONTINUOUS
 10
-1.544094
 20
-1.144406
  0
VERTEX
  8
EBENE_1
 62
    39
  6
CONTINUOUS
 10
-1.028906
 20
-1.144406
  0
VERTEX
  8
EBENE_1
 62
    39
  6
CONTINUOUS
 10
-1.028906
 20
-0.362933
  0
VERTEX
  8
EBENE_1
 62
    39
  6
CONTINUOUS
 10
-1.544094
 20
-0.362933
  0
SEQEND
  8
0
  0
POLYLINE
  8
EBENE_1
 62
    39
  6
CONTINUOUS
 66
     1
 40
0.003000
 41
0.003000
 70
     1
  0
VERTEX
  8
EBENE_1
 62
    39
  6
CONTINUOUS
 10
-1.540098
 20
-1.137079
  0
VERTEX
  8
EBENE_1
 62
    39
  6
CONTINUOUS
 10
-1.039209
 20
-1.137079
  0
VERTEX
  8
EBENE_1
 62
    39
  6
CONTINUOUS
 10
-1.039209
 20
-0.370260
  0
VERTEX
  8
EBENE_1
 62
    39
  6
CONTINUOUS
 10
-1.540098
 20
-0.370260
  0
SEQEND
  8
0
  0
SOLID
  8
EBENE_1
 10
-1.017661
 20
-1.144406
 11
-0.502472
 21
-1.144406
 12
-1.017661
 22
-0.362933
 13
-0.502472
 23
-0.362933
  0
POLYLINE
  8
EBENE_1
 62
    39
  6
CONTINUOUS
 66
     1
 40
0.010000
 41
0.010000
 70
     1
  0
VERTEX
  8
EBENE_1
 62
    39
  6
CONTINUOUS
 10
-1.017661
 20
-1.144406
  0
VERTEX
  8
EBENE_1
 62
    39
  6
CONTINUOUS
 10
-0.502472
 20
-1.144406
  0
VERTEX
  8
EBENE_1
 62
    39
  6
CONTINUOUS
 10
-0.502472
 20
-0.362933
  0
VERTEX
  8
EBENE_1
 62
    39
  6
CONTINUOUS
 10
-1.017661
 20
-0.362933
  0
SEQEND
  8
0
  0
POLYLINE
  8
EBENE_1
 62
    39
  6
CONTINUOUS
 66
     1
 40
0.003000
 41
0.003000
 70
     1
  0
VERTEX
  8
EBENE_1
 62
    39
  6
CONTINUOUS
 10
-1.013665
 20
-1.137079
  0
VERTEX
  8
EBENE_1
 62
    39
  6
CONTINUOUS
 10
-0.512776
 20
-1.137079
  0
VERTEX
  8
EBENE_1
 62
    39
  6
CONTINUOUS
 10
-0.512776
 20
-0.370260
  0
VERTEX
  8
EBENE_1
 62
    39
  6
CONTINUOUS
 10
-1.013665
 20
-0.370260
  0
SEQEND
  8
0
  0
SOLID
  8
EBENE_1
 10
-0.491228
 20
-1.144406
 11
0.023961
 21
-1.144406
 12
-0.491228
 22
-0.362933
 13
0.023961
 23
-0.362933
  0
POLYLINE
  8
EBENE_1
 62
    39
  6
CONTINUOUS
 66
     1
 40
0.010000
 41
0.010000
 70
     1
  0
VERTEX
  8
EBENE_1
 62
    39
  6
CONTINUOUS
 10
-0.491228
 20
-1.144406
  0
VERTEX
  8
EBENE_1
 62
    39
  6
CONTINUOUS
 10
0.023961
 20
-1.144406
  0
VERTEX
  8
EBENE_1
 62
    39
  6
CONTINUOUS
 10
0.023961
 20
-0.362933
  0
VERTEX
  8
EBENE_1
 62
    39
  6
CONTINUOUS
 10
-0.491228
 20
-0.362933
  0
SEQEND
  8
0
  0
POLYLINE
  8
EBENE_1
 62
    39
  6
CONTINUOUS
 66
     1
 40
0.003000
 41
0.003000
 70
     1
  0
VERTEX
  8
EBENE_1
 62
    39
  6
CONTINUOUS
 10
-0.487232
 20
-1.137079
  0
VERTEX
  8
EBENE_1
 62
    39
  6
CONTINUOUS
 10
0.013657
 20
-1.137079
  0
VERTEX
  8
EBENE_1
 62
    39
  6
CONTINUOUS
 10
0.013657
 20
-0.370260
  0
VERTEX
  8
EBENE_1
 62
    39
  6
CONTINUOUS
 10
-0.487232
 20
-0.370260
  0
SEQEND
  8
0
  0
SOLID
  8
EBENE_1
 10
0.035205
 20
-1.144406
 11
0.550394
 21
-1.144406
 12
0.035205
 22
-0.362933
 13
0.550394
 23
-0.362933
  0
POLYLINE
  8
EBENE_1
 62
    39
  6
CONTINUOUS
 66
     1
 40
0.010000
 41
0.010000
 70
     1
  0
VERTEX
  8
EBENE_1
 62
    39
  6
CONTINUOUS
 10
0.035205
 20
-1.144406
  0
VERTEX
  8
EBENE_1
 62
    39
  6
CONTINUOUS
 10
0.550394
 20
-1.144406
  0
VERTEX
  8
EBENE_1
 62
    39
  6
CONTINUOUS
 10
0.550394
 20
-0.362933
  0
VERTEX
  8
EBENE_1
 62
    39
  6
CONTINUOUS
 10
0.035205
 20
-0.362933
  0
SEQEND
  8
0
  0
POLYLINE
  8
EBENE_1
 62
    39
  6
CONTINUOUS
 66
     1
 40
0.003000
 41
0.003000
 70
     1
  0
VERTEX
  8
EBENE_1
 62
    39
  6
CONTINUOUS
 10
0.039201
 20
-1.137079
  0
VERTEX
  8
EBENE_1
 62
    39
  6
CONTINUOUS
 10
0.540091
 20
-1.137079
  0
VERTEX
  8
EBENE_1
 62
    39
  6
CONTINUOUS
 10
0.540091
 20
-0.370260
  0
VERTEX
  8
EBENE_1
 62
    39
  6
CONTINUOUS
 10
0.039201
 20
-0.370260
  0
SEQEND
  8
0
  0
SOLID
  8
EBENE_1
 10
0.561638
 20
-1.144406
 11
1.076827
 21
-1.144406
 12
0.561638
 22
-0.362933
 13
1.076827
 23
-0.362933
  0
POLYLINE
  8
EBENE_1
 62
    39
  6
CONTINUOUS
 66
     1
 40
0.010000
 41
0.010000
 70
     1
  0
VERTEX
  8
EBENE_1
 62
    39
  6
CONTINUOUS
 10
0.561638
 20
-1.144406
  0
VERTEX
  8
EBENE_1
 62
    39
  6
CONTINUOUS
 10
1.076827
 20
-1.144406
  0
VERTEX
  8
EBENE_1
 62
    39
  6
CONTINUOUS
 10
1.076827
 20
-0.362933
  0
VERTEX
  8
EBENE_1
 62
    39
  6
CONTINUOUS
 10
0.561638
 20
-0.362933
  0
SEQEND
  8
0
  0
POLYLINE
  8
EBENE_1
 62
    39
  6
CONTINUOUS
 66
     1
 40
0.003000
 41
0.003000
 70
     1
  0
VERTEX
  8
EBENE_1
 62
    39
  6
CONTINUOUS
 10
0.565634
 20
-1.137079
  0
VERTEX
  8
EBENE_1
 62
    39
  6
CONTINUOUS
 10
1.066524
 20
-1.137079
  0
VERTEX
  8
EBENE_1
 62
    39
  6
CONTINUOUS
 10
1.066524
 20
-0.370260
  0
VERTEX
  8
EBENE_1
 62
    39
  6
CONTINUOUS
 10
0.565634
 20
-0.370260
  0
SEQEND
  8
0
  0
SOLID
  8
EBENE_1
 10
1.088071
 20
-1.144406
 11
1.603260
 21
-1.144406
 12
1.088071
 22
-0.362933
 13
1.603260
 23
-0.362933
  0
POLYLINE
  8
EBENE_1
 62
    39
  6
CONTINUOUS
 66
     1
 40
0.010000
 41
0.010000
 70
     1
  0
VERTEX
  8
EBENE_1
 62
    39
  6
CONTINUOUS
 10
1.088071
 20
-1.144406
  0
VERTEX
  8
EBENE_1
 62
    39
  6
CONTINUOUS
 10
1.603260
 20
-1.144406
  0
VERTEX
  8
EBENE_1
 62
    39
  6
CONTINUOUS
 10
1.603260
 20
-0.362933
  0
VERTEX
  8
EBENE_1
 62
    39
  6
CONTINUOUS
 10
1.088071
 20
-0.362933
  0
SEQEND
  8
0
  0
POLYLINE
  8
EBENE_1
 62
    39
  6
CONTINUOUS
 66
     1
 40
0.003000
 41
0.003000
 70
     1
  0
VERTEX
  8
EBENE_1
 62
    39
  6
CONTINUOUS
 10
1.092067
 20
-1.137079
  0
VERTEX
  8
EBENE_1
 62
    39
  6
CONTINUOUS
 10
1.592957
 20
-1.137079
  0
VERTEX
  8
EBENE_1
 62
    39
  6
CONTINUOUS
 10
1.592957
 20
-0.370260
  0
VERTEX
  8
EBENE_1
 62
    39
  6
CONTINUOUS
 10
1.092067
 20
-0.370260
  0
SEQEND
  8
0
  0
SOLID
  8
EBENE_1
 10
1.614504
 20
-1.144406
 11
2.129693
 21
-1.144406
 12
1.614504
 22
-0.362933
 13
2.129693
 23
-0.362933
  0
POLYLINE
  8
EBENE_1
 62
    39
  6
CONTINUOUS
 66
     1
 40
0.010000
 41
0.010000
 70
     1
  0
VERTEX
  8
EBENE_1
 62
    39
  6
CONTINUOUS
 10
1.614504
 20
-1.144406
  0
VERTEX
  8
EBENE_1
 62
    39
  6
CONTINUOUS
 10
2.129693
 20
-1.144406
  0
VERTEX
  8
EBENE_1
 62
    39
  6
CONTINUOUS
 10
2.129693
 20
-0.362933
  0
VERTEX
  8
EBENE_1
 62
    39
  6
CONTINUOUS
 10
1.614504
 20
-0.362933
  0
SEQEND
  8
0
  0
POLYLINE
  8
EBENE_1
 62
    39
  6
CONTINUOUS
 66
     1
 40
0.003000
 41
0.003000
 70
     1
  0
VERTEX
  8
EBENE_1
 62
    39
  6
CONTINUOUS
 10
1.618500
 20
-1.137079
  0
VERTEX
  8
EBENE_1
 62
    39
  6
CONTINUOUS
 10
2.119390
 20
-1.137079
  0
VERTEX
  8
EBENE_1
 62
    39
  6
CONTINUOUS
 10
2.119390
 20
-0.370260
  0
VERTEX
  8
EBENE_1
 62
    39
  6
CONTINUOUS
 10
1.618500
 20
-0.370260
  0
SEQEND
  8
0
  0
SOLID
  8
EBENE_1
 10
-1.807311
 20
-0.838823
 11
-1.292122
 21
-0.838823
 12
-1.807311
 22
-0.057350
 13
-1.292122
 23
-0.057350
  0
POLYLINE
  8
EBENE_1
 62
    39
  6
CONTINUOUS
 66
     1
 40
0.010000
 41
0.010000
 70
     1
  0
VERTEX
  8
EBENE_1
 62
    39
  6
CONTINUOUS
 10
-1.807311
 20
-0.838823
  0
VERTEX
  8
EBENE_1
 62
    39
  6
CONTINUOUS
 10
-1.292122
 20
-0.838823
  0
VERTEX
  8
EBENE_1
 62
    39
  6
CONTINUOUS
 10
-1.292122
 20
-0.057350
  0
VERTEX
  8
EBENE_1
 62
    39
  6
CONTINUOUS
 10
-1.807311
 20
-0.057350
  0
SEQEND
  8
0
  0
POLYLINE
  8
EBENE_1
 62
    39
  6
CONTINUOUS
 66
     1
 40
0.003000
 41
0.003000
 70
     1
  0
VERTEX
  8
EBENE_1
 62
    39
  6
CONTINUOUS
 10
-1.803315
 20
-0.831496
  0
VERTEX
  8
EBENE_1
 62
    39
  6
CONTINUOUS
 10
-1.302425
 20
-0.831496
  0
VERTEX
  8
EBENE_1
 62
    39
  6
CONTINUOUS
 10
-1.302425
 20
-0.064677
  0
VERTEX
  8
EBENE_1
 62
    39
  6
CONTINUOUS
 10
-1.803315
 20
-0.064677
  0
SEQEND
  8
0
  0
SOLID
  8
EBENE_1
 10
-1.280878
 20
-0.838823
 11
-0.765689
 21
-0.838823
 12
-1.280878
 22
-0.057350
 13
-0.765689
 23
-0.057350
  0
POLYLINE
  8
EBENE_1
 62
    39
  6
CONTINUOUS
 66
     1
 40
0.010000
 41
0.010000
 70
     1
  0
VERTEX
  8
EBENE_1
 62
    39
  6
CONTINUOUS
 10
-1.280878
 20
-0.838823
  0
VERTEX
  8
EBENE_1
 62
    39
  6
CONTINUOUS
 10
-0.765689
 20
-0.838823
  0
VERTEX
  8
EBENE_1
 62
    39
  6
CONTINUOUS
 10
-0.765689
 20
-0.057350
  0
VERTEX
  8
EBENE_1
 62
    39
  6
CONTINUOUS
 10
-1.280878
 20
-0.057350
  0
SEQEND
  8
0
  0
POLYLINE
  8
EBENE_1
 62
    39
  6
CONTINUOUS
 66
     1
 40
0.003000
 41
0.003000
 70
     1
  0
VERTEX
  8
EBENE_1
 62
    39
  6
CONTINUOUS
 10
-1.276882
 20
-0.831496
  0
VERTEX
  8
EBENE_1
 62
    39
  6
CONTINUOUS
 10
-0.775992
 20
-0.831496
  0
VERTEX
  8
EBENE_1
 62
    39
  6
CONTINUOUS
 10
-0.775992
 20
-0.064677
  0
VERTEX
  8
EBENE_1
 62
    39
  6
CONTINUOUS
 10
-1.276882
 20
-0.064677
  0
SEQEND
  8
0
  0
SOLID
  8
EBENE_1
 10
-0.754445
 20
-0.838823
 11
-0.239256
 21
-0.838823
 12
-0.754445
 22
-0.057350
 13
-0.239256
 23
-0.057350
  0
POLYLINE
  8
EBENE_1
 62
    39
  6
CONTINUOUS
 66
     1
 40
0.010000
 41
0.010000
 70
     1
  0
VERTEX
  8
EBENE_1
 62
    39
  6
CONTINUOUS
 10
-0.754445
 20
-0.838823
  0
VERTEX
  8
EBENE_1
 62
    39
  6
CONTINUOUS
 10
-0.239256
 20
-0.838823
  0
VERTEX
  8
EBENE_1
 62
    39
  6
CONTINUOUS
 10
-0.239256
 20
-0.057350
  0
VERTEX
  8
EBENE_1
 62
    39
  6
CONTINUOUS
 10
-0.754445
 20
-0.057350
  0
SEQEND
  8
0
  0
POLYLINE
  8
EBENE_1
 62
    39
  6
CONTINUOUS
 66
     1
 40
0.003000
 41
0.003000
 70
     1
  0
VERTEX
  8
EBENE_1
 62
    39
  6
CONTINUOUS
 10
-0.750449
 20
-0.831496
  0
VERTEX
  8
EBENE_1
 62
    39
  6
CONTINUOUS
 10
-0.249559
 20
-0.831496
  0
VERTEX
  8
EBENE_1
 62
    39
  6
CONTINUOUS
 10
-0.249559
 20
-0.064677
  0
VERTEX
  8
EBENE_1
 62
    39
  6
CONTINUOUS
 10
-0.750449
 20
-0.064677
  0
SEQEND
  8
0
  0
SOLID
  8
EBENE_1
 10
-0.228012
 20
-0.838823
 11
0.287177
 21
-0.838823
 12
-0.228012
 22
-0.057350
 13
0.287177
 23
-0.057350
  0
POLYLINE
  8
EBENE_1
 62
    39
  6
CONTINUOUS
 66
     1
 40
0.010000
 41
0.010000
 70
     1
  0
VERTEX
  8
EBENE_1
 62
    39
  6
CONTINUOUS
 10
-0.228012
 20
-0.838823
  0
VERTEX
  8
EBENE_1
 62
    39
  6
CONTINUOUS
 10
0.287177
 20
-0.838823
  0
VERTEX
  8
EBENE_1
 62
    39
  6
CONTINUOUS
 10
0.287177
 20
-0.057350
  0
VERTEX
  8
EBENE_1
 62
    39
  6
CONTINUOUS
 10
-0.228012
 20
-0.057350
  0
SEQEND
  8
0
  0
POLYLINE
  8
EBENE_1
 62
    39
  6
CONTINUOUS
 66
     1
 40
0.003000
 41
0.003000
 70
     1
  0
VERTEX
  8
EBENE_1
 62
    39
  6
CONTINUOUS
 10
-0.224016
 20
-0.831496
  0
VERTEX
  8
EBENE_1
 62
    39
  6
CONTINUOUS
 10
0.276874
 20
-0.831496
  0
VERTEX
  8
EBENE_1
 62
    39
  6
CONTINUOUS
 10
0.276874
 20
-0.064677
  0
VERTEX
  8
EBENE_1
 62
    39
  6
CONTINUOUS
 10
-0.224016
 20
-0.064677
  0
SEQEND
  8
0
  0
SOLID
  8
EBENE_1
 10
0.298421
 20
-0.838823
 11
0.813610
 21
-0.838823
 12
0.298421
 22
-0.057350
 13
0.813610
 23
-0.057350
  0
POLYLINE
  8
EBENE_1
 62
    39
  6
CONTINUOUS
 66
     1
 40
0.010000
 41
0.010000
 70
     1
  0
VERTEX
  8
EBENE_1
 62
    39
  6
CONTINUOUS
 10
0.298421
 20
-0.838823
  0
VERTEX
  8
EBENE_1
 62
    39
  6
CONTINUOUS
 10
0.813610
 20
-0.838823
  0
VERTEX
  8
EBENE_1
 62
    39
  6
CONTINUOUS
 10
0.813610
 20
-0.057350
  0
VERTEX
  8
EBENE_1
 62
    39
  6
CONTINUOUS
 10
0.298421
 20
-0.057350
  0
SEQEND
  8
0
  0
POLYLINE
  8
EBENE_1
 62
    39
  6
CONTINUOUS
 66
     1
 40
0.003000
 41
0.003000
 70
     1
  0
VERTEX
  8
EBENE_1
 62
    39
  6
CONTINUOUS
 10
0.302417
 20
-0.831496
  0
VERTEX
  8
EBENE_1
 62
    39
  6
CONTINUOUS
 10
0.803307
 20
-0.831496
  0
VERTEX
  8
EBENE_1
 62
    39
  6
CONTINUOUS
 10
0.803307
 20
-0.064677
  0
VERTEX
  8
EBENE_1
 62
    39
  6
CONTINUOUS
 10
0.302417
 20
-0.064677
  0
SEQEND
  8
0
  0
SOLID
  8
EBENE_1
 10
0.824854
 20
-0.838823
 11
1.340043
 21
-0.838823
 12
0.824854
 22
-0.057350
 13
1.340043
 23
-0.057350
  0
POLYLINE
  8
EBENE_1
 62
    39
  6
CONTINUOUS
 66
     1
 40
0.010000
 41
0.010000
 70
     1
  0
VERTEX
  8
EBENE_1
 62
    39
  6
CONTINUOUS
 10
0.824854
 20
-0.838823
  0
VERTEX
  8
EBENE_1
 62
    39
  6
CONTINUOUS
 10
1.340043
 20
-0.838823
  0
VERTEX
  8
EBENE_1
 62
    39
  6
CONTINUOUS
 10
1.340043
 20
-0.057350
  0
VERTEX
  8
EBENE_1
 62
    39
  6
CONTINUOUS
 10
0.824854
 20
-0.057350
  0
SEQEND
  8
0
  0
POLYLINE
  8
EBENE_1
 62
    39
  6
CONTINUOUS
 66
     1
 40
0.003000
 41
0.003000
 70
     1
  0
VERTEX
  8
EBENE_1
 62
    39
  6
CONTINUOUS
 10
0.828850
 20
-0.831496
  0
VERTEX
  8
EBENE_1
 62
    39
  6
CONTINUOUS
 10
1.329740
 20
-0.831496
  0
VERTEX
  8
EBENE_1
 62
    39
  6
CONTINUOUS
 10
1.329740
 20
-0.064677
  0
VERTEX
  8
EBENE_1
 62
    39
  6
CONTINUOUS
 10
0.828850
 20
-0.064677
  0
SEQEND
  8
0
  0
SOLID
  8
EBENE_1
 10
1.351287
 20
-0.838823
 11
1.866476
 21
-0.838823
 12
1.351287
 22
-0.057350
 13
1.866476
 23
-0.057350
  0
POLYLINE
  8
EBENE_1
 62
    39
  6
CONTINUOUS
 66
     1
 40
0.010000
 41
0.010000
 70
     1
  0
VERTEX
  8
EBENE_1
 62
    39
  6
CONTINUOUS
 10
1.351287
 20
-0.838823
  0
VERTEX
  8
EBENE_1
 62
    39
  6
CONTINUOUS
 10
1.866476
 20
-0.838823
  0
VERTEX
  8
EBENE_1
 62
    39
  6
CONTINUOUS
 10
1.866476
 20
-0.057350
  0
VERTEX
  8
EBENE_1
 62
    39
  6
CONTINUOUS
 10
1.351287
 20
-0.057350
  0
SEQEND
  8
0
  0
POLYLINE
  8
EBENE_1
 62
    39
  6
CONTINUOUS
 66
     1
 40
0.003000
 41
0.003000
 70
     1
  0
VERTEX
  8
EBENE_1
 62
    39
  6
CONTINUOUS
 10
1.355283
 20
-0.831496
  0
VERTEX
  8
EBENE_1
 62
    39
  6
CONTINUOUS
 10
1.856173
 20
-0.831496
  0
VERTEX
  8
EBENE_1
 62
    39
  6
CONTINUOUS
 10
1.856173
 20
-0.064677
  0
VERTEX
  8
EBENE_1
 62
    39
  6
CONTINUOUS
 10
1.355283
 20
-0.064677
  0
SEQEND
  8
0
  0
SOLID
  8
EBENE_1
 10
-1.544094
 20
-0.533244
 11
-1.028906
 21
-0.533244
 12
-1.544094
 22
0.248228
 13
-1.028906
 23
0.248228
  0
POLYLINE
  8
EBENE_1
 62
    39
  6
CONTINUOUS
 66
     1
 40
0.010000
 41
0.010000
 70
     1
  0
VERTEX
  8
EBENE_1
 62
    39
  6
CONTINUOUS
 10
-1.544094
 20
-0.533244
  0
VERTEX
  8
EBENE_1
 62
    39
  6
CONTINUOUS
 10
-1.028906
 20
-0.533244
  0
VERTEX
  8
EBENE_1
 62
    39
  6
CONTINUOUS
 10
-1.028906
 20
0.248228
  0
VERTEX
  8
EBENE_1
 62
    39
  6
CONTINUOUS
 10
-1.544094
 20
0.248228
  0
SEQEND
  8
0
  0
POLYLINE
  8
EBENE_1
 62
    39
  6
CONTINUOUS
 66
     1
 40
0.003000
 41
0.003000
 70
     1
  0
VERTEX
  8
EBENE_1
 62
    39
  6
CONTINUOUS
 10
-1.540098
 20
-0.525917
  0
VERTEX
  8
EBENE_1
 62
    39
  6
CONTINUOUS
 10
-1.039209
 20
-0.525917
  0
VERTEX
  8
EBENE_1
 62
    39
  6
CONTINUOUS
 10
-1.039209
 20
0.240902
  0
VERTEX
  8
EBENE_1
 62
    39
  6
CONTINUOUS
 10
-1.540098
 20
0.240902
  0
SEQEND
  8
0
  0
SOLID
  8
EBENE_1
 10
-1.017661
 20
-0.533244
 11
-0.502472
 21
-0.533244
 12
-1.017661
 22
0.248228
 13
-0.502472
 23
0.248228
  0
POLYLINE
  8
EBENE_1
 62
    39
  6
CONTINUOUS
 66
     1
 40
0.010000
 41
0.010000
 70
     1
  0
VERTEX
  8
EBENE_1
 62
    39
  6
CONTINUOUS
 10
-1.017661
 20
-0.533244
  0
VERTEX
  8
EBENE_1
 62
    39
  6
CONTINUOUS
 10
-0.502472
 20
-0.533244
  0
VERTEX
  8
EBENE_1
 62
    39
  6
CONTINUOUS
 10
-0.502472
 20
0.248228
  0
VERTEX
  8
EBENE_1
 62
    39
  6
CONTINUOUS
 10
-1.017661
 20
0.248228
  0
SEQEND
  8
0
  0
POLYLINE
  8
EBENE_1
 62
    39
  6
CONTINUOUS
 66
     1
 40
0.003000
 41
0.003000
 70
     1
  0
VERTEX
  8
EBENE_1
 62
    39
  6
CONTINUOUS
 10
-1.013665
 20
-0.525917
  0
VERTEX
  8
EBENE_1
 62
    39
  6
CONTINUOUS
 10
-0.512776
 20
-0.525917
  0
VERTEX
  8
EBENE_1
 62
    39
  6
CONTINUOUS
 10
-0.512776
 20
0.240902
  0
VERTEX
  8
EBENE_1
 62
    39
  6
CONTINUOUS
 10
-1.013665
 20
0.240902
  0
SEQEND
  8
0
  0
SOLID
  8
EBENE_1
 10
-0.491228
 20
-0.533244
 11
0.023961
 21
-0.533244
 12
-0.491228
 22
0.248228
 13
0.023961
 23
0.248228
  0
POLYLINE
  8
EBENE_1
 62
    39
  6
CONTINUOUS
 66
     1
 40
0.010000
 41
0.010000
 70
     1
  0
VERTEX
  8
EBENE_1
 62
    39
  6
CONTINUOUS
 10
-0.491228
 20
-0.533244
  0
VERTEX
  8
EBENE_1
 62
    39
  6
CONTINUOUS
 10
0.023961
 20
-0.533244
  0
VERTEX
  8
EBENE_1
 62
    39
  6
CONTINUOUS
 10
0.023961
 20
0.248228
  0
VERTEX
  8
EBENE_1
 62
    39
  6
CONTINUOUS
 10
-0.491228
 20
0.248228
  0
SEQEND
  8
0
  0
POLYLINE
  8
EBENE_1
 62
    39
  6
CONTINUOUS
 66
     1
 40
0.003000
 41
0.003000
 70
     1
  0
VERTEX
  8
EBENE_1
 62
    39
  6
CONTINUOUS
 10
-0.487232
 20
-0.525917
  0
VERTEX
  8
EBENE_1
 62
    39
  6
CONTINUOUS
 10
0.013657
 20
-0.525917
  0
VERTEX
  8
EBENE_1
 62
    39
  6
CONTINUOUS
 10
0.013657
 20
0.240902
  0
VERTEX
  8
EBENE_1
 62
    39
  6
CONTINUOUS
 10
-0.487232
 20
0.240902
  0
SEQEND
  8
0
  0
SOLID
  8
EBENE_1
 10
0.035205
 20
-0.533244
 11
0.550394
 21
-0.533244
 12
0.035205
 22
0.248228
 13
0.550394
 23
0.248228
  0
POLYLINE
  8
EBENE_1
 62
    39
  6
CONTINUOUS
 66
     1
 40
0.010000
 41
0.010000
 70
     1
  0
VERTEX
  8
EBENE_1
 62
    39
  6
CONTINUOUS
 10
0.035205
 20
-0.533244
  0
VERTEX
  8
EBENE_1
 62
    39
  6
CONTINUOUS
 10
0.550394
 20
-0.533244
  0
VERTEX
  8
EBENE_1
 62
    39
  6
CONTINUOUS
 10
0.550394
 20
0.248228
  0
VERTEX
  8
EBENE_1
 62
    39
  6
CONTINUOUS
 10
0.035205
 20
0.248228
  0
SEQEND
  8
0
  0
POLYLINE
  8
EBENE_1
 62
    39
  6
CONTINUOUS
 66
     1
 40
0.003000
 41
0.003000
 70
     1
  0
VERTEX
  8
EBENE_1
 62
    39
  6
CONTINUOUS
 10
0.039201
 20
-0.525917
  0
VERTEX
  8
EBENE_1
 62
    39
  6
CONTINUOUS
 10
0.540091
 20
-0.525917
  0
VERTEX
  8
EBENE_1
 62
    39
  6
CONTINUOUS
 10
0.540091
 20
0.240902
  0
VERTEX
  8
EBENE_1
 62
    39
  6
CONTINUOUS
 10
0.039201
 20
0.240902
  0
SEQEND
  8
0
  0
SOLID
  8
EBENE_1
 10
0.561638
 20
-0.533244
 11
1.076827
 21
-0.533244
 12
0.561638
 22
0.248228
 13
1.076827
 23
0.248228
  0
POLYLINE
  8
EBENE_1
 62
    39
  6
CONTINUOUS
 66
     1
 40
0.010000
 41
0.010000
 70
     1
  0
VERTEX
  8
EBENE_1
 62
    39
  6
CONTINUOUS
 10
0.561638
 20
-0.533244
  0
VERTEX
  8
EBENE_1
 62
    39
  6
CONTINUOUS
 10
1.076827
 20
-0.533244
  0
VERTEX
  8
EBENE_1
 62
    39
  6
CONTINUOUS
 10
1.076827
 20
0.248228
  0
VERTEX
  8
EBENE_1
 62
    39
  6
CONTINUOUS
 10
0.561638
 20
0.248228
  0
SEQEND
  8
0
  0
POLYLINE
  8
EBENE_1
 62
    39
  6
CONTINUOUS
 66
     1
 40
0.003000
 41
0.003000
 70
     1
  0
VERTEX
  8
EBENE_1
 62
    39
  6
CONTINUOUS
 10
0.565634
 20
-0.525917
  0
VERTEX
  8
EBENE_1
 62
    39
  6
CONTINUOUS
 10
1.066524
 20
-0.525917
  0
VERTEX
  8
EBENE_1
 62
    39
  6
CONTINUOUS
 10
1.066524
 20
0.240902
  0
VERTEX
  8
EBENE_1
 62
    39
  6
CONTINUOUS
 10
0.565634
 20
0.240902
  0
SEQEND
  8
0
  0
SOLID
  8
EBENE_1
 10
1.088071
 20
-0.533244
 11
1.603260
 21
-0.533244
 12
1.088071
 22
0.248228
 13
1.603260
 23
0.248228
  0
POLYLINE
  8
EBENE_1
 62
    39
  6
CONTINUOUS
 66
     1
 40
0.010000
 41
0.010000
 70
     1
  0
VERTEX
  8
EBENE_1
 62
    39
  6
CONTINUOUS
 10
1.088071
 20
-0.533244
  0
VERTEX
  8
EBENE_1
 62
    39
  6
CONTINUOUS
 10
1.603260
 20
-0.533244
  0
VERTEX
  8
EBENE_1
 62
    39
  6
CONTINUOUS
 10
1.603260
 20
0.248228
  0
VERTEX
  8
EBENE_1
 62
    39
  6
CONTINUOUS
 10
1.088071
 20
0.248228
  0
SEQEND
  8
0
  0
POLYLINE
  8
EBENE_1
 62
    39
  6
CONTINUOUS
 66
     1
 40
0.003000
 41
0.003000
 70
     1
  0
VERTEX
  8
EBENE_1
 62
    39
  6
CONTINUOUS
 10
1.092067
 20
-0.525917
  0
VERTEX
  8
EBENE_1
 62
    39
  6
CONTINUOUS
 10
1.592957
 20
-0.525917
  0
VERTEX
  8
EBENE_1
 62
    39
  6
CONTINUOUS
 10
1.592957
 20
0.240902
  0
VERTEX
  8
EBENE_1
 62
    39
  6
CONTINUOUS
 10
1.092067
 20
0.240902
  0
SEQEND
  8
0
  0
SOLID
  8
EBENE_1
 10
1.614504
 20
-0.533244
 11
2.129693
 21
-0.533244
 12
1.614504
 22
0.248228
 13
2.129693
 23
0.248228
  0
POLYLINE
  8
EBENE_1
 62
    39
  6
CONTINUOUS
 66
     1
 40
0.010000
 41
0.010000
 70
     1
  0
VERTEX
  8
EBENE_1
 62
    39
  6
CONTINUOUS
 10
1.614504
 20
-0.533244
  0
VERTEX
  8
EBENE_1
 62
    39
  6
CONTINUOUS
 10
2.129693
 20
-0.533244
  0
VERTEX
  8
EBENE_1
 62
    39
  6
CONTINUOUS
 10
2.129693
 20
0.248228
  0
VERTEX
  8
EBENE_1
 62
    39
  6
CONTINUOUS
 10
1.614504
 20
0.248228
  0
SEQEND
  8
0
  0
POLYLINE
  8
EBENE_1
 62
    39
  6
CONTINUOUS
 66
     1
 40
0.003000
 41
0.003000
 70
     1
  0
VERTEX
  8
EBENE_1
 62
    39
  6
CONTINUOUS
 10
1.618500
 20
-0.525917
  0
VERTEX
  8
EBENE_1
 62
    39
  6
CONTINUOUS
 10
2.119390
 20
-0.525917
  0
VERTEX
  8
EBENE_1
 62
    39
  6
CONTINUOUS
 10
2.119390
 20
0.240902
  0
VERTEX
  8
EBENE_1
 62
    39
  6
CONTINUOUS
 10
1.618500
 20
0.240902
  0
SEQEND
  8
0
  0
SOLID
  8
EBENE_1
 10
-1.280878
 20
-0.227665
 11
-0.765689
 21
-0.227665
 12
-1.280878
 22
0.553807
 13
-0.765689
 23
0.553807
  0
POLYLINE
  8
EBENE_1
 62
    39
  6
CONTINUOUS
 66
     1
 40
0.010000
 41
0.010000
 70
     1
  0
VERTEX
  8
EBENE_1
 62
    39
  6
CONTINUOUS
 10
-1.280878
 20
-0.227665
  0
VERTEX
  8
EBENE_1
 62
    39
  6
CONTINUOUS
 10
-0.765689
 20
-0.227665
  0
VERTEX
  8
EBENE_1
 62
    39
  6
CONTINUOUS
 10
-0.765689
 20
0.553807
  0
VERTEX
  8
EBENE_1
 62
    39
  6
CONTINUOUS
 10
-1.280878
 20
0.553807
  0
SEQEND
  8
0
  0
POLYLINE
  8
EBENE_1
 62
    39
  6
CONTINUOUS
 66
     1
 40
0.003000
 41
0.003000
 70
     1
  0
VERTEX
  8
EBENE_1
 62
    39
  6
CONTINUOUS
 10
-1.276882
 20
-0.220339
  0
VERTEX
  8
EBENE_1
 62
    39
  6
CONTINUOUS
 10
-0.775992
 20
-0.220339
  0
VERTEX
  8
EBENE_1
 62
    39
  6
CONTINUOUS
 10
-0.775992
 20
0.546480
  0
VERTEX
  8
EBENE_1
 62
    39
  6
CONTINUOUS
 10
-1.276882
 20
0.546480
  0
SEQEND
  8
0
  0
SOLID
  8
EBENE_1
 10
-0.754445
 20
-0.227665
 11
-0.239256
 21
-0.227665
 12
-0.754445
 22
0.553807
 13
-0.239256
 23
0.553807
  0
POLYLINE
  8
EBENE_1
 62
    39
  6
CONTINUOUS
 66
     1
 40
0.010000
 41
0.010000
 70
     1
  0
VERTEX
  8
EBENE_1
 62
    39
  6
CONTINUOUS
 10
-0.754445
 20
-0.227665
  0
VERTEX
  8
EBENE_1
 62
    39
  6
CONTINUOUS
 10
-0.239256
 20
-0.227665
  0
VERTEX
  8
EBENE_1
 62
    39
  6
CONTINUOUS
 10
-0.239256
 20
0.553807
  0
VERTEX
  8
EBENE_1
 62
    39
  6
CONTINUOUS
 10
-0.754445
 20
0.553807
  0
SEQEND
  8
0
  0
POLYLINE
  8
EBENE_1
 62
    39
  6
CONTINUOUS
 66
     1
 40
0.003000
 41
0.003000
 70
     1
  0
VERTEX
  8
EBENE_1
 62
    39
  6
CONTINUOUS
 10
-0.750449
 20
-0.220339
  0
VERTEX
  8
EBENE_1
 62
    39
  6
CONTINUOUS
 10
-0.249559
 20
-0.220339
  0
VERTEX
  8
EBENE_1
 62
    39
  6
CONTINUOUS
 10
-0.249559
 20
0.546480
  0
VERTEX
  8
EBENE_1
 62
    39
  6
CONTINUOUS
 10
-0.750449
 20
0.546480
  0
SEQEND
  8
0
  0
SOLID
  8
EBENE_1
 10
-0.228012
 20
-0.227665
 11
0.287177
 21
-0.227665
 12
-0.228012
 22
0.553807
 13
0.287177
 23
0.553807
  0
POLYLINE
  8
EBENE_1
 62
    39
  6
CONTINUOUS
 66
     1
 40
0.010000
 41
0.010000
 70
     1
  0
VERTEX
  8
EBENE_1
 62
    39
  6
CONTINUOUS
 10
-0.228012
 20
-0.227665
  0
VERTEX
  8
EBENE_1
 62
    39
  6
CONTINUOUS
 10
0.287177
 20
-0.227665
  0
VERTEX
  8
EBENE_1
 62
    39
  6
CONTINUOUS
 10
0.287177
 20
0.553807
  0
VERTEX
  8
EBENE_1
 62
    39
  6
CONTINUOUS
 10
-0.228012
 20
0.553807
  0
SEQEND
  8
0
  0
POLYLINE
  8
EBENE_1
 62
    39
  6
CONTINUOUS
 66
     1
 40
0.003000
 41
0.003000
 70
     1
  0
VERTEX
  8
EBENE_1
 62
    39
  6
CONTINUOUS
 10
-0.224016
 20
-0.220339
  0
VERTEX
  8
EBENE_1
 62
    39
  6
CONTINUOUS
 10
0.276874
 20
-0.220339
  0
VERTEX
  8
EBENE_1
 62
    39
  6
CONTINUOUS
 10
0.276874
 20
0.546480
  0
VERTEX
  8
EBENE_1
 62
    39
  6
CONTINUOUS
 10
-0.224016
 20
0.546480
  0
SEQEND
  8
0
  0
SOLID
  8
EBENE_1
 10
0.298421
 20
-0.227665
 11
0.813610
 21
-0.227665
 12
0.298421
 22
0.553807
 13
0.813610
 23
0.553807
  0
POLYLINE
  8
EBENE_1
 62
    39
  6
CONTINUOUS
 66
     1
 40
0.010000
 41
0.010000
 70
     1
  0
VERTEX
  8
EBENE_1
 62
    39
  6
CONTINUOUS
 10
0.298421
 20
-0.227665
  0
VERTEX
  8
EBENE_1
 62
    39
  6
CONTINUOUS
 10
0.813610
 20
-0.227665
  0
VERTEX
  8
EBENE_1
 62
    39
  6
CONTINUOUS
 10
0.813610
 20
0.553807
  0
VERTEX
  8
EBENE_1
 62
    39
  6
CONTINUOUS
 10
0.298421
 20
0.553807
  0
SEQEND
  8
0
  0
POLYLINE
  8
EBENE_1
 62
    39
  6
CONTINUOUS
 66
     1
 40
0.003000
 41
0.003000
 70
     1
  0
VERTEX
  8
EBENE_1
 62
    39
  6
CONTINUOUS
 10
0.302417
 20
-0.220339
  0
VERTEX
  8
EBENE_1
 62
    39
  6
CONTINUOUS
 10
0.803307
 20
-0.220339
  0
VERTEX
  8
EBENE_1
 62
    39
  6
CONTINUOUS
 10
0.803307
 20
0.546480
  0
VERTEX
  8
EBENE_1
 62
    39
  6
CONTINUOUS
 10
0.302417
 20
0.546480
  0
SEQEND
  8
0
  0
SOLID
  8
EBENE_1
 10
0.824854
 20
-0.227665
 11
1.340043
 21
-0.227665
 12
0.824854
 22
0.553807
 13
1.340043
 23
0.553807
  0
POLYLINE
  8
EBENE_1
 62
    39
  6
CONTINUOUS
 66
     1
 40
0.010000
 41
0.010000
 70
     1
  0
VERTEX
  8
EBENE_1
 62
    39
  6
CONTINUOUS
 10
0.824854
 20
-0.227665
  0
VERTEX
  8
EBENE_1
 62
    39
  6
CONTINUOUS
 10
1.340043
 20
-0.227665
  0
VERTEX
  8
EBENE_1
 62
    39
  6
CONTINUOUS
 10
1.340043
 20
0.553807
  0
VERTEX
  8
EBENE_1
 62
    39
  6
CONTINUOUS
 10
0.824854
 20
0.553807
  0
SEQEND
  8
0
  0
POLYLINE
  8
EBENE_1
 62
    39
  6
CONTINUOUS
 66
     1
 40
0.003000
 41
0.003000
 70
     1
  0
VERTEX
  8
EBENE_1
 62
    39
  6
CONTINUOUS
 10
0.828850
 20
-0.220339
  0
VERTEX
  8
EBENE_1
 62
    39
  6
CONTINUOUS
 10
1.329740
 20
-0.220339
  0
VERTEX
  8
EBENE_1
 62
    39
  6
CONTINUOUS
 10
1.329740
 20
0.546480
  0
VERTEX
  8
EBENE_1
 62
    39
  6
CONTINUOUS
 10
0.828850
 20
0.546480
  0
SEQEND
  8
0
  0
SOLID
  8
EBENE_1
 10
1.351287
 20
-0.227665
 11
1.866476
 21
-0.227665
 12
1.351287
 22
0.553807
 13
1.866476
 23
0.553807
  0
POLYLINE
  8
EBENE_1
 62
    39
  6
CONTINUOUS
 66
     1
 40
0.010000
 41
0.010000
 70
     1
  0
VERTEX
  8
EBENE_1
 62
    39
  6
CONTINUOUS
 10
1.351287
 20
-0.227665
  0
VERTEX
  8
EBENE_1
 62
    39
  6
CONTINUOUS
 10
1.866476
 20
-0.227665
  0
VERTEX
  8
EBENE_1
 62
    39
  6
CONTINUOUS
 10
1.866476
 20
0.553807
  0
VERTEX
  8
EBENE_1
 62
    39
  6
CONTINUOUS
 10
1.351287
 20
0.553807
  0
SEQEND
  8
0
  0
POLYLINE
  8
EBENE_1
 62
    39
  6
CONTINUOUS
 66
     1
 40
0.003000
 41
0.003000
 70
     1
  0
VERTEX
  8
EBENE_1
 62
    39
  6
CONTINUOUS
 10
1.355283
 20
-0.220339
  0
VERTEX
  8
EBENE_1
 62
    39
  6
CONTINUOUS
 10
1.856173
 20
-0.220339
  0
VERTEX
  8
EBENE_1
 62
    39
  6
CONTINUOUS
 10
1.856173
 20
0.546480
  0
VERTEX
  8
EBENE_1
 62
    39
  6
CONTINUOUS
 10
1.355283
 20
0.546480
  0
SEQEND
  8
0
  0
SOLID
  8
EBENE_1
 10
-1.017661
 20
0.077913
 11
-0.502472
 21
0.077913
 12
-1.017661
 22
0.859386
 13
-0.502472
 23
0.859386
  0
POLYLINE
  8
EBENE_1
 62
    39
  6
CONTINUOUS
 66
     1
 40
0.010000
 41
0.010000
 70
     1
  0
VERTEX
  8
EBENE_1
 62
    39
  6
CONTINUOUS
 10
-1.017661
 20
0.077913
  0
VERTEX
  8
EBENE_1
 62
    39
  6
CONTINUOUS
 10
-0.502472
 20
0.077913
  0
VERTEX
  8
EBENE_1
 62
    39
  6
CONTINUOUS
 10
-0.502472
 20
0.859386
  0
VERTEX
  8
EBENE_1
 62
    39
  6
CONTINUOUS
 10
-1.017661
 20
0.859386
  0
SEQEND
  8
0
  0
POLYLINE
  8
EBENE_1
 62
    39
  6
CONTINUOUS
 66
     1
 40
0.003000
 41
0.003000
 70
     1
  0
VERTEX
  8
EBENE_1
 62
    39
  6
CONTINUOUS
 10
-1.013665
 20
0.085240
  0
VERTEX
  8
EBENE_1
 62
    39
  6
CONTINUOUS
 10
-0.512776
 20
0.085240
  0
VERTEX
  8
EBENE_1
 62
    39
  6
CONTINUOUS
 10
-0.512776
 20
0.852059
  0
VERTEX
  8
EBENE_1
 62
    39
  6
CONTINUOUS
 10
-1.013665
 20
0.852059
  0
SEQEND
  8
0
  0
SOLID
  8
EBENE_1
 10
-0.491228
 20
0.077913
 11
0.023961
 21
0.077913
 12
-0.491228
 22
0.859386
 13
0.023961
 23
0.859386
  0
POLYLINE
  8
EBENE_1
 62
    39
  6
CONTINUOUS
 66
     1
 40
0.010000
 41
0.010000
 70
     1
  0
VERTEX
  8
EBENE_1
 62
    39
  6
CONTINUOUS
 10
-0.491228
 20
0.077913
  0
VERTEX
  8
EBENE_1
 62
    39
  6
CONTINUOUS
 10
0.023961
 20
0.077913
  0
VERTEX
  8
EBENE_1
 62
    39
  6
CONTINUOUS
 10
0.023961
 20
0.859386
  0
VERTEX
  8
EBENE_1
 62
    39
  6
CONTINUOUS
 10
-0.491228
 20
0.859386
  0
SEQEND
  8
0
  0
POLYLINE
  8
EBENE_1
 62
    39
  6
CONTINUOUS
 66
     1
 40
0.003000
 41
0.003000
 70
     1
  0
VERTEX
  8
EBENE_1
 62
    39
  6
CONTINUOUS
 10
-0.487232
 20
0.085240
  0
VERTEX
  8
EBENE_1
 62
    39
  6
CONTINUOUS
 10
0.013657
 20
0.085240
  0
VERTEX
  8
EBENE_1
 62
    39
  6
CONTINUOUS
 10
0.013657
 20
0.852059
  0
VERTEX
  8
EBENE_1
 62
    39
  6
CONTINUOUS
 10
-0.487232
 20
0.852059
  0
SEQEND
  8
0
  0
SOLID
  8
EBENE_1
 10
0.035205
 20
0.077913
 11
0.550394
 21
0.077913
 12
0.035205
 22
0.859386
 13
0.550394
 23
0.859386
  0
POLYLINE
  8
EBENE_1
 62
    39
  6
CONTINUOUS
 66
     1
 40
0.010000
 41
0.010000
 70
     1
  0
VERTEX
  8
EBENE_1
 62
    39
  6
CONTINUOUS
 10
0.035205
 20
0.077913
  0
VERTEX
  8
EBENE_1
 62
    39
  6
CONTINUOUS
 10
0.550394
 20
0.077913
  0
VERTEX
  8
EBENE_1
 62
    39
  6
CONTINUOUS
 10
0.550394
 20
0.859386
  0
VERTEX
  8
EBENE_1
 62
    39
  6
CONTINUOUS
 10
0.035205
 20
0.859386
  0
SEQEND
  8
0
  0
POLYLINE
  8
EBENE_1
 62
    39
  6
CONTINUOUS
 66
     1
 40
0.003000
 41
0.003000
 70
     1
  0
VERTEX
  8
EBENE_1
 62
    39
  6
CONTINUOUS
 10
0.039201
 20
0.085240
  0
VERTEX
  8
EBENE_1
 62
    39
  6
CONTINUOUS
 10
0.540091
 20
0.085240
  0
VERTEX
  8
EBENE_1
 62
    39
  6
CONTINUOUS
 10
0.540091
 20
0.852059
  0
VERTEX
  8
EBENE_1
 62
    39
  6
CONTINUOUS
 10
0.039201
 20
0.852059
  0
SEQEND
  8
0
  0
SOLID
  8
EBENE_1
 10
0.561638
 20
0.077913
 11
1.076827
 21
0.077913
 12
0.561638
 22
0.859386
 13
1.076827
 23
0.859386
  0
POLYLINE
  8
EBENE_1
 62
    39
  6
CONTINUOUS
 66
     1
 40
0.010000
 41
0.010000
 70
     1
  0
VERTEX
  8
EBENE_1
 62
    39
  6
CONTINUOUS
 10
0.561638
 20
0.077913
  0
VERTEX
  8
EBENE_1
 62
    39
  6
CONTINUOUS
 10
1.076827
 20
0.077913
  0
VERTEX
  8
EBENE_1
 62
    39
  6
CONTINUOUS
 10
1.076827
 20
0.859386
  0
VERTEX
  8
EBENE_1
 62
    39
  6
CONTINUOUS
 10
0.561638
 20
0.859386
  0
SEQEND
  8
0
  0
POLYLINE
  8
EBENE_1
 62
    39
  6
CONTINUOUS
 66
     1
 40
0.003000
 41
0.003000
 70
     1
  0
VERTEX
  8
EBENE_1
 62
    39
  6
CONTINUOUS
 10
0.565634
 20
0.085240
  0
VERTEX
  8
EBENE_1
 62
    39
  6
CONTINUOUS
 10
1.066524
 20
0.085240
  0
VERTEX
  8
EBENE_1
 62
    39
  6
CONTINUOUS
 10
1.066524
 20
0.852059
  0
VERTEX
  8
EBENE_1
 62
    39
  6
CONTINUOUS
 10
0.565634
 20
0.852059
  0
SEQEND
  8
0
  0
SOLID
  8
EBENE_1
 10
1.088071
 20
0.077913
 11
1.603260
 21
0.077913
 12
1.088071
 22
0.859386
 13
1.603260
 23
0.859386
  0
POLYLINE
  8
EBENE_1
 62
    39
  6
CONTINUOUS
 66
     1
 40
0.010000
 41
0.010000
 70
     1
  0
VERTEX
  8
EBENE_1
 62
    39
  6
CONTINUOUS
 10
1.088071
 20
0.077913
  0
VERTEX
  8
EBENE_1
 62
    39
  6
CONTINUOUS
 10
1.603260
 20
0.077913
  0
VERTEX
  8
EBENE_1
 62
    39
  6
CONTINUOUS
 10
1.603260
 20
0.859386
  0
VERTEX
  8
EBENE_1
 62
    39
  6
CONTINUOUS
 10
1.088071
 20
0.859386
  0
SEQEND
  8
0
  0
POLYLINE
  8
EBENE_1
 62
    39
  6
CONTINUOUS
 66
     1
 40
0.003000
 41
0.003000
 70
     1
  0
VERTEX
  8
EBENE_1
 62
    39
  6
CONTINUOUS
 10
1.092067
 20
0.085240
  0
VERTEX
  8
EBENE_1
 62
    39
  6
CONTINUOUS
 10
1.592957
 20
0.085240
  0
VERTEX
  8
EBENE_1
 62
    39
  6
CONTINUOUS
 10
1.592957
 20
0.852059
  0
VERTEX
  8
EBENE_1
 62
    39
  6
CONTINUOUS
 10
1.092067
 20
0.852059
  0
SEQEND
  8
0
  0
SOLID
  8
EBENE_1
 10
-0.754445
 20
0.383496
 11
-0.239256
 21
0.383496
 12
-0.754445
 22
1.164969
 13
-0.239256
 23
1.164969
  0
POLYLINE
  8
EBENE_1
 62
    39
  6
CONTINUOUS
 66
     1
 40
0.010000
 41
0.010000
 70
     1
  0
VERTEX
  8
EBENE_1
 62
    39
  6
CONTINUOUS
 10
-0.754445
 20
0.383496
  0
VERTEX
  8
EBENE_1
 62
    39
  6
CONTINUOUS
 10
-0.239256
 20
0.383496
  0
VERTEX
  8
EBENE_1
 62
    39
  6
CONTINUOUS
 10
-0.239256
 20
1.164969
  0
VERTEX
  8
EBENE_1
 62
    39
  6
CONTINUOUS
 10
-0.754445
 20
1.164969
  0
SEQEND
  8
0
  0
POLYLINE
  8
EBENE_1
 62
    39
  6
CONTINUOUS
 66
     1
 40
0.003000
 41
0.003000
 70
     1
  0
VERTEX
  8
EBENE_1
 62
    39
  6
CONTINUOUS
 10
-0.750449
 20
0.390815
  0
VERTEX
  8
EBENE_1
 62
    39
  6
CONTINUOUS
 10
-0.249559
 20
0.390815
  0
VERTEX
  8
EBENE_1
 62
    39
  6
CONTINUOUS
 10
-0.249559
 20
1.157642
  0
VERTEX
  8
EBENE_1
 62
    39
  6
CONTINUOUS
 10
-0.750449
 20
1.157642
  0
SEQEND
  8
0
  0
SOLID
  8
EBENE_1
 10
-0.228012
 20
0.383496
 11
0.287177
 21
0.383496
 12
-0.228012
 22
1.164969
 13
0.287177
 23
1.164969
  0
POLYLINE
  8
EBENE_1
 62
    39
  6
CONTINUOUS
 66
     1
 40
0.010000
 41
0.010000
 70
     1
  0
VERTEX
  8
EBENE_1
 62
    39
  6
CONTINUOUS
 10
-0.228012
 20
0.383496
  0
VERTEX
  8
EBENE_1
 62
    39
  6
CONTINUOUS
 10
0.287177
 20
0.383496
  0
VERTEX
  8
EBENE_1
 62
    39
  6
CONTINUOUS
 10
0.287177
 20
1.164969
  0
VERTEX
  8
EBENE_1
 62
    39
  6
CONTINUOUS
 10
-0.228012
 20
1.164969
  0
SEQEND
  8
0
  0
POLYLINE
  8
EBENE_1
 62
    39
  6
CONTINUOUS
 66
     1
 40
0.003000
 41
0.003000
 70
     1
  0
VERTEX
  8
EBENE_1
 62
    39
  6
CONTINUOUS
 10
-0.224016
 20
0.390815
  0
VERTEX
  8
EBENE_1
 62
    39
  6
CONTINUOUS
 10
0.276874
 20
0.390815
  0
VERTEX
  8
EBENE_1
 62
    39
  6
CONTINUOUS
 10
0.276874
 20
1.157642
  0
VERTEX
  8
EBENE_1
 62
    39
  6
CONTINUOUS
 10
-0.224016
 20
1.157642
  0
SEQEND
  8
0
  0
SOLID
  8
EBENE_1
 10
0.298421
 20
0.383496
 11
0.813610
 21
0.383496
 12
0.298421
 22
1.164969
 13
0.813610
 23
1.164969
  0
POLYLINE
  8
EBENE_1
 62
    39
  6
CONTINUOUS
 66
     1
 40
0.010000
 41
0.010000
 70
     1
  0
VERTEX
  8
EBENE_1
 62
    39
  6
CONTINUOUS
 10
0.298421
 20
0.383496
  0
VERTEX
  8
EBENE_1
 62
    39
  6
CONTINUOUS
 10
0.813610
 20
0.383496
  0
VERTEX
  8
EBENE_1
 62
    39
  6
CONTINUOUS
 10
0.813610
 20
1.164969
  0
VERTEX
  8
EBENE_1
 62
    39
  6
CONTINUOUS
 10
0.298421
 20
1.164969
  0
SEQEND
  8
0
  0
POLYLINE
  8
EBENE_1
 62
    39
  6
CONTINUOUS
 66
     1
 40
0.003000
 41
0.003000
 70
     1
  0
VERTEX
  8
EBENE_1
 62
    39
  6
CONTINUOUS
 10
0.302417
 20
0.390815
  0
VERTEX
  8
EBENE_1
 62
    39
  6
CONTINUOUS
 10
0.803307
 20
0.390815
  0
VERTEX
  8
EBENE_1
 62
    39
  6
CONTINUOUS
 10
0.803307
 20
1.157642
  0
VERTEX
  8
EBENE_1
 62
    39
  6
CONTINUOUS
 10
0.302417
 20
1.157642
  0
SEQEND
  8
0
  0
SOLID
  8
EBENE_1
 10
0.824854
 20
0.383496
 11
1.340043
 21
0.383496
 12
0.824854
 22
1.164969
 13
1.340043
 23
1.164969
  0
POLYLINE
  8
EBENE_1
 62
    39
  6
CONTINUOUS
 66
     1
 40
0.010000
 41
0.010000
 70
     1
  0
VERTEX
  8
EBENE_1
 62
    39
  6
CONTINUOUS
 10
0.824854
 20
0.383496
  0
VERTEX
  8
EBENE_1
 62
    39
  6
CONTINUOUS
 10
1.340043
 20
0.383496
  0
VERTEX
  8
EBENE_1
 62
    39
  6
CONTINUOUS
 10
1.340043
 20
1.164969
  0
VERTEX
  8
EBENE_1
 62
    39
  6
CONTINUOUS
 10
0.824854
 20
1.164969
  0
SEQEND
  8
0
  0
POLYLINE
  8
EBENE_1
 62
    39
  6
CONTINUOUS
 66
     1
 40
0.003000
 41
0.003000
 70
     1
  0
VERTEX
  8
EBENE_1
 62
    39
  6
CONTINUOUS
 10
0.828850
 20
0.390815
  0
VERTEX
  8
EBENE_1
 62
    39
  6
CONTINUOUS
 10
1.329740
 20
0.390815
  0
VERTEX
  8
EBENE_1
 62
    39
  6
CONTINUOUS
 10
1.329740
 20
1.157642
  0
VERTEX
  8
EBENE_1
 62
    39
  6
CONTINUOUS
 10
0.828850
 20
1.157642
  0
SEQEND
  8
0
  0
SOLID
  8
EBENE_1
 10
-0.491228
 20
0.689075
 11
0.023961
 21
0.689075
 12
-0.491228
 22
1.470547
 13
0.023961
 23
1.470547
  0
POLYLINE
  8
EBENE_1
 62
    39
  6
CONTINUOUS
 66
     1
 40
0.010000
 41
0.010000
 70
     1
  0
VERTEX
  8
EBENE_1
 62
    39
  6
CONTINUOUS
 10
-0.491228
 20
0.689075
  0
VERTEX
  8
EBENE_1
 62
    39
  6
CONTINUOUS
 10
0.023961
 20
0.689075
  0
VERTEX
  8
EBENE_1
 62
    39
  6
CONTINUOUS
 10
0.023961
 20
1.470547
  0
VERTEX
  8
EBENE_1
 62
    39
  6
CONTINUOUS
 10
-0.491228
 20
1.470547
  0
SEQEND
  8
0
  0
POLYLINE
  8
EBENE_1
 62
    39
  6
CONTINUOUS
 66
     1
 40
0.003000
 41
0.003000
 70
     1
  0
VERTEX
  8
EBENE_1
 62
    39
  6
CONTINUOUS
 10
-0.487232
 20
0.696402
  0
VERTEX
  8
EBENE_1
 62
    39
  6
CONTINUOUS
 10
0.013657
 20
0.696402
  0
VERTEX
  8
EBENE_1
 62
    39
  6
CONTINUOUS
 10
0.013657
 20
1.463220
  0
VERTEX
  8
EBENE_1
 62
    39
  6
CONTINUOUS
 10
-0.487232
 20
1.463220
  0
SEQEND
  8
0
  0
SOLID
  8
EBENE_1
 10
0.035205
 20
0.689075
 11
0.550394
 21
0.689075
 12
0.035205
 22
1.470547
 13
0.550394
 23
1.470547
  0
POLYLINE
  8
EBENE_1
 62
    39
  6
CONTINUOUS
 66
     1
 40
0.010000
 41
0.010000
 70
     1
  0
VERTEX
  8
EBENE_1
 62
    39
  6
CONTINUOUS
 10
0.035205
 20
0.689075
  0
VERTEX
  8
EBENE_1
 62
    39
  6
CONTINUOUS
 10
0.550394
 20
0.689075
  0
VERTEX
  8
EBENE_1
 62
    39
  6
CONTINUOUS
 10
0.550394
 20
1.470547
  0
VERTEX
  8
EBENE_1
 62
    39
  6
CONTINUOUS
 10
0.035205
 20
1.470547
  0
SEQEND
  8
0
  0
POLYLINE
  8
EBENE_1
 62
    39
  6
CONTINUOUS
 66
     1
 40
0.003000
 41
0.003000
 70
     1
  0
VERTEX
  8
EBENE_1
 62
    39
  6
CONTINUOUS
 10
0.039201
 20
0.696402
  0
VERTEX
  8
EBENE_1
 62
    39
  6
CONTINUOUS
 10
0.540091
 20
0.696402
  0
VERTEX
  8
EBENE_1
 62
    39
  6
CONTINUOUS
 10
0.540091
 20
1.463220
  0
VERTEX
  8
EBENE_1
 62
    39
  6
CONTINUOUS
 10
0.039201
 20
1.463220
  0
SEQEND
  8
0
  0
SOLID
  8
EBENE_1
 10
0.561638
 20
0.689075
 11
1.076827
 21
0.689075
 12
0.561638
 22
1.470547
 13
1.076827
 23
1.470547
  0
POLYLINE
  8
EBENE_1
 62
    39
  6
CONTINUOUS
 66
     1
 40
0.010000
 41
0.010000
 70
     1
  0
VERTEX
  8
EBENE_1
 62
    39
  6
CONTINUOUS
 10
0.561638
 20
0.689075
  0
VERTEX
  8
EBENE_1
 62
    39
  6
CONTINUOUS
 10
1.076827
 20
0.689075
  0
VERTEX
  8
EBENE_1
 62
    39
  6
CONTINUOUS
 10
1.076827
 20
1.470547
  0
VERTEX
  8
EBENE_1
 62
    39
  6
CONTINUOUS
 10
0.561638
 20
1.470547
  0
SEQEND
  8
0
  0
POLYLINE
  8
EBENE_1
 62
    39
  6
CONTINUOUS
 66
     1
 40
0.003000
 41
0.003000
 70
     1
  0
VERTEX
  8
EBENE_1
 62
    39
  6
CONTINUOUS
 10
0.565634
 20
0.696402
  0
VERTEX
  8
EBENE_1
 62
    39
  6
CONTINUOUS
 10
1.066524
 20
0.696402
  0
VERTEX
  8
EBENE_1
 62
    39
  6
CONTINUOUS
 10
1.066524
 20
1.463220
  0
VERTEX
  8
EBENE_1
 62
    39
  6
CONTINUOUS
 10
0.565634
 20
1.463220
  0
SEQEND
  8
0
  0
TEXT
  8
EBENE_1
 62
    39
 10
-2.952354
 20
2.423846
 40
0.276767
  1
Rechteckdoppeldeckung
 41
1.000000
  7
SN0
 71
     0
 72
     5
 11
0.699894
 21
2.423846
  0
ENDSEC
  0
EOF
