  0
SECTION
  2
HEADER
  9
$ACADVER
  1
AC1006
  9
$EXTMIN
 10
-2.484941
 20
0.405858
  9
$EXTMAX
 10
0.487969
 20
2.352126
  9
$LTSCALE
 40
0.000394
  9
$PDMODE
 70
    35
  9
$PDSIZE
 40
0.000315
  0
ENDSEC
  0
SECTION
  2
TABLES
  0
TABLE
  2
LTYPE
 70
     9
  0
LTYPE
  2
CONTINUOUS
 70
    64
  3
Solid line
 72
    65
 73
     0
 40
0.000000
  0
LTYPE
  2
DASHED
 70
    64
  3
__ __ __ __ __ __ __ __ __ __ __ __ __ __ __
 72
    65
 73
     2
 40
0.000003
 49
0.000002
 49
-0.000001
  0
LTYPE
  2
HIDDEN
 70
    64
  3
 _ _ _ _ _ _ _ _ _ _ _ _ _ _ _ _ _ _ _ _ _ _
 72
    65
 73
     2
 40
0.000001
 49
0.000001
 49
-0.000000
  0
LTYPE
  2
CENTER
 70
    64
  3
____ _ ____ _ ____ _ ____ _ ____ _ ____ _ ____
 72
    65
 73
     4
 40
0.000008
 49
0.000005
 49
-0.000001
 49
0.000001
 49
-0.000001
  0
LTYPE
  2
PHANTOM
 70
    64
  3
_____ _ _ _____ _ _ _____ _ _ _____ _ _ ____
 72
    65
 73
     6
 40
0.000010
 49
0.000005
 49
-0.000001
 49
0.000001
 49
-0.000001
 49
0.000001
 49
-0.000001
  0
LTYPE
  2
DOT
 70
    64
  3
...............................................
 72
    65
 73
     2
 40
0.000001
 49
0.000000
 49
-0.000001
  0
LTYPE
  2
DASHDOT
 70
    64
  3
__ . __ . __ . __ . __ . __ . __ . __ . __ . __
 72
    65
 73
     4
 40
0.000004
 49
0.000002
 49
-0.000001
 49
0.000000
 49
-0.000001
  0
LTYPE
  2
BORDER
 70
    64
  3
__ __ . __ __ . __ __ . __ __ . __ __ . __ __
 72
    65
 73
     6
 40
0.000007
 49
0.000002
 49
-0.000001
 49
0.000002
 49
-0.000001
 49
0.000000
 49
-0.000001
  0
LTYPE
  2
DIVIDE
 70
    64
  3
__ . . __ . . __ . . __ . . __ . . __ . . __
 72
    65
 73
     6
 40
0.000005
 49
0.000002
 49
-0.000001
 49
0.000000
 49
-0.000001
 49
0.000000
 49
-0.000001
  0
LTYPE
  2
DOTDOT
 70
    64
  3
 . .  . .  . .  . .  . .  . . 
 72
    65
 73
     5
 40
0.000002
 49
-0.000001
 49
0.000000
 49
-0.000001
 49
0.000000
 49
-0.000001
  0
ENDTAB
  0
TABLE
  2
STYLE
 70
     2
  0
STYLE
 70
     0
  2
SN0
 40
0.000000
 41
0.000004
 50
0.000000
 71
     0
 42
0.000000
  3
SCRIPTS
  0
STYLE
 70
    68
  2
SV0
 40
0.000000
 41
0.000004
 50
0.000000
 71
     0
 42
0.000000
  3
SCRIPTS
  0
ENDTAB
  0
TABLE
  2
LAYER
 70
     3
  0
LAYER
  2
FOREGROUND
 70
    64
 62
     7
  6
CONTINUOUS
  0
LAYER
  2
BACKGROUND
 70
    65
 62
    -7
  6
CONTINUOUS
  0
LAYER
  2
EBENE_1
 70
    64
 62
     7
  6
CONTINUOUS
  0
ENDTAB
  0
ENDSEC
  0
SECTION
  2
ENTITIES
  0
POLYLINE
  8
EBENE_1
 62
    39
  6
CONTINUOUS
 66
     1
 40
0.003000
 41
0.003000
 70
     1
  0
VERTEX
  8
EBENE_1
 62
    39
  6
CONTINUOUS
 10
-2.047134
 20
0.669516
  0
VERTEX
  8
EBENE_1
 62
    39
  6
CONTINUOUS
 10
-2.133390
 20
0.574630
  0
VERTEX
  8
EBENE_1
 62
    39
  6
CONTINUOUS
 10
-2.133390
 20
0.505622
  0
VERTEX
  8
EBENE_1
 62
    39
  6
CONTINUOUS
 10
-2.047134
 20
0.410736
  0
VERTEX
  8
EBENE_1
 62
    39
  6
CONTINUOUS
 10
-1.960874
 20
0.505622
  0
VERTEX
  8
EBENE_1
 62
    39
  6
CONTINUOUS
 10
-1.960874
 20
0.574630
  0
SEQEND
  8
0
  0
POLYLINE
  8
EBENE_1
 62
    39
  6
CONTINUOUS
 66
     1
 40
0.003000
 41
0.003000
 70
     1
  0
VERTEX
  8
EBENE_1
 62
    39
  6
CONTINUOUS
 10
-2.104925
 20
0.586137
  0
VERTEX
  8
EBENE_1
 62
    39
  6
CONTINUOUS
 10
-2.107073
 20
0.581535
  0
VERTEX
  8
EBENE_1
 62
    39
  6
CONTINUOUS
 10
-2.111055
 20
0.581536
  0
VERTEX
  8
EBENE_1
 62
    39
  6
CONTINUOUS
 10
-2.113201
 20
0.586138
  0
VERTEX
  8
EBENE_1
 62
    39
  6
CONTINUOUS
 10
-2.111054
 20
0.590740
  0
VERTEX
  8
EBENE_1
 62
    39
  6
CONTINUOUS
 10
-2.107071
 20
0.590740
  0
VERTEX
  8
EBENE_1
 62
    39
  6
CONTINUOUS
 10
-2.104925
 20
0.586138
  0
SEQEND
  8
0
  0
POLYLINE
  8
EBENE_1
 62
    39
  6
CONTINUOUS
 66
     1
 40
0.003000
 41
0.003000
 70
     1
  0
VERTEX
  8
EBENE_1
 62
    39
  6
CONTINUOUS
 10
-1.982354
 20
0.588590
  0
VERTEX
  8
EBENE_1
 62
    39
  6
CONTINUOUS
 10
-1.984504
 20
0.583992
  0
VERTEX
  8
EBENE_1
 62
    39
  6
CONTINUOUS
 10
-1.988490
 20
0.583992
  0
VERTEX
  8
EBENE_1
 62
    39
  6
CONTINUOUS
 10
-1.990638
 20
0.588591
  0
VERTEX
  8
EBENE_1
 62
    39
  6
CONTINUOUS
 10
-1.988489
 20
0.593189
  0
VERTEX
  8
EBENE_1
 62
    39
  6
CONTINUOUS
 10
-1.984502
 20
0.593189
  0
VERTEX
  8
EBENE_1
 62
    39
  6
CONTINUOUS
 10
-1.982354
 20
0.588591
  0
SEQEND
  8
0
  0
POLYLINE
  8
EBENE_1
 62
    39
  6
CONTINUOUS
 66
     1
 40
0.003000
 41
0.003000
 70
     1
  0
VERTEX
  8
EBENE_1
 62
    39
  6
CONTINUOUS
 10
-2.222157
 20
0.669516
  0
VERTEX
  8
EBENE_1
 62
    39
  6
CONTINUOUS
 10
-2.308417
 20
0.574630
  0
VERTEX
  8
EBENE_1
 62
    39
  6
CONTINUOUS
 10
-2.308417
 20
0.505622
  0
VERTEX
  8
EBENE_1
 62
    39
  6
CONTINUOUS
 10
-2.222157
 20
0.410736
  0
VERTEX
  8
EBENE_1
 62
    39
  6
CONTINUOUS
 10
-2.135898
 20
0.505622
  0
VERTEX
  8
EBENE_1
 62
    39
  6
CONTINUOUS
 10
-2.135898
 20
0.574630
  0
SEQEND
  8
0
  0
POLYLINE
  8
EBENE_1
 62
    39
  6
CONTINUOUS
 66
     1
 40
0.003000
 41
0.003000
 70
     1
  0
VERTEX
  8
EBENE_1
 62
    39
  6
CONTINUOUS
 10
-2.279949
 20
0.586137
  0
VERTEX
  8
EBENE_1
 62
    39
  6
CONTINUOUS
 10
-2.282098
 20
0.581535
  0
VERTEX
  8
EBENE_1
 62
    39
  6
CONTINUOUS
 10
-2.286085
 20
0.581536
  0
VERTEX
  8
EBENE_1
 62
    39
  6
CONTINUOUS
 10
-2.288232
 20
0.586138
  0
VERTEX
  8
EBENE_1
 62
    39
  6
CONTINUOUS
 10
-2.286083
 20
0.590740
  0
VERTEX
  8
EBENE_1
 62
    39
  6
CONTINUOUS
 10
-2.282097
 20
0.590740
  0
VERTEX
  8
EBENE_1
 62
    39
  6
CONTINUOUS
 10
-2.279949
 20
0.586138
  0
SEQEND
  8
0
  0
POLYLINE
  8
EBENE_1
 62
    39
  6
CONTINUOUS
 66
     1
 40
0.003000
 41
0.003000
 70
     1
  0
VERTEX
  8
EBENE_1
 62
    39
  6
CONTINUOUS
 10
-2.157382
 20
0.588590
  0
VERTEX
  8
EBENE_1
 62
    39
  6
CONTINUOUS
 10
-2.159529
 20
0.583992
  0
VERTEX
  8
EBENE_1
 62
    39
  6
CONTINUOUS
 10
-2.163512
 20
0.583992
  0
VERTEX
  8
EBENE_1
 62
    39
  6
CONTINUOUS
 10
-2.165657
 20
0.588591
  0
VERTEX
  8
EBENE_1
 62
    39
  6
CONTINUOUS
 10
-2.163510
 20
0.593189
  0
VERTEX
  8
EBENE_1
 62
    39
  6
CONTINUOUS
 10
-2.159528
 20
0.593189
  0
VERTEX
  8
EBENE_1
 62
    39
  6
CONTINUOUS
 10
-2.157382
 20
0.588591
  0
SEQEND
  8
0
  0
POLYLINE
  8
EBENE_1
 62
    39
  6
CONTINUOUS
 66
     1
 40
0.003000
 41
0.003000
 70
     1
  0
VERTEX
  8
EBENE_1
 62
    39
  6
CONTINUOUS
 10
-2.397181
 20
0.669516
  0
VERTEX
  8
EBENE_1
 62
    39
  6
CONTINUOUS
 10
-2.483441
 20
0.574630
  0
VERTEX
  8
EBENE_1
 62
    39
  6
CONTINUOUS
 10
-2.483441
 20
0.505622
  0
VERTEX
  8
EBENE_1
 62
    39
  6
CONTINUOUS
 10
-2.397181
 20
0.410736
  0
VERTEX
  8
EBENE_1
 62
    39
  6
CONTINUOUS
 10
-2.310925
 20
0.505622
  0
VERTEX
  8
EBENE_1
 62
    39
  6
CONTINUOUS
 10
-2.310925
 20
0.574630
  0
SEQEND
  8
0
  0
POLYLINE
  8
EBENE_1
 62
    39
  6
CONTINUOUS
 66
     1
 40
0.003000
 41
0.003000
 70
     1
  0
VERTEX
  8
EBENE_1
 62
    39
  6
CONTINUOUS
 10
-2.454976
 20
0.586137
  0
VERTEX
  8
EBENE_1
 62
    39
  6
CONTINUOUS
 10
-2.457124
 20
0.581535
  0
VERTEX
  8
EBENE_1
 62
    39
  6
CONTINUOUS
 10
-2.461106
 20
0.581536
  0
VERTEX
  8
EBENE_1
 62
    39
  6
CONTINUOUS
 10
-2.463252
 20
0.586138
  0
VERTEX
  8
EBENE_1
 62
    39
  6
CONTINUOUS
 10
-2.461105
 20
0.590740
  0
VERTEX
  8
EBENE_1
 62
    39
  6
CONTINUOUS
 10
-2.457122
 20
0.590740
  0
VERTEX
  8
EBENE_1
 62
    39
  6
CONTINUOUS
 10
-2.454976
 20
0.586138
  0
SEQEND
  8
0
  0
POLYLINE
  8
EBENE_1
 62
    39
  6
CONTINUOUS
 66
     1
 40
0.003000
 41
0.003000
 70
     1
  0
VERTEX
  8
EBENE_1
 62
    39
  6
CONTINUOUS
 10
-2.332406
 20
0.588590
  0
VERTEX
  8
EBENE_1
 62
    39
  6
CONTINUOUS
 10
-2.334553
 20
0.583992
  0
VERTEX
  8
EBENE_1
 62
    39
  6
CONTINUOUS
 10
-2.338536
 20
0.583992
  0
VERTEX
  8
EBENE_1
 62
    39
  6
CONTINUOUS
 10
-2.340681
 20
0.588591
  0
VERTEX
  8
EBENE_1
 62
    39
  6
CONTINUOUS
 10
-2.338534
 20
0.593189
  0
VERTEX
  8
EBENE_1
 62
    39
  6
CONTINUOUS
 10
-2.334551
 20
0.593189
  0
VERTEX
  8
EBENE_1
 62
    39
  6
CONTINUOUS
 10
-2.332406
 20
0.588591
  0
SEQEND
  8
0
  0
POLYLINE
  8
EBENE_1
 62
    39
  6
CONTINUOUS
 66
     1
 40
0.003000
 41
0.003000
 70
     1
  0
VERTEX
  8
EBENE_1
 62
    39
  6
CONTINUOUS
 10
-1.869480
 20
0.669512
  0
VERTEX
  8
EBENE_1
 62
    39
  6
CONTINUOUS
 10
-1.955736
 20
0.574630
  0
VERTEX
  8
EBENE_1
 62
    39
  6
CONTINUOUS
 10
-1.955736
 20
0.505622
  0
VERTEX
  8
EBENE_1
 62
    39
  6
CONTINUOUS
 10
-1.869480
 20
0.410736
  0
VERTEX
  8
EBENE_1
 62
    39
  6
CONTINUOUS
 10
-1.783220
 20
0.505622
  0
VERTEX
  8
EBENE_1
 62
    39
  6
CONTINUOUS
 10
-1.783220
 20
0.574630
  0
SEQEND
  8
0
  0
POLYLINE
  8
EBENE_1
 62
    39
  6
CONTINUOUS
 66
     1
 40
0.003000
 41
0.003000
 70
     1
  0
VERTEX
  8
EBENE_1
 62
    39
  6
CONTINUOUS
 10
-1.693886
 20
0.666854
  0
VERTEX
  8
EBENE_1
 62
    39
  6
CONTINUOUS
 10
-1.780142
 20
0.571969
  0
VERTEX
  8
EBENE_1
 62
    39
  6
CONTINUOUS
 10
-1.780142
 20
0.502961
  0
VERTEX
  8
EBENE_1
 62
    39
  6
CONTINUOUS
 10
-1.693886
 20
0.408079
  0
VERTEX
  8
EBENE_1
 62
    39
  6
CONTINUOUS
 10
-1.607626
 20
0.502961
  0
VERTEX
  8
EBENE_1
 62
    39
  6
CONTINUOUS
 10
-1.607626
 20
0.571969
  0
SEQEND
  8
0
  0
POLYLINE
  8
EBENE_1
 62
    39
  6
CONTINUOUS
 66
     1
 40
0.003000
 41
0.003000
 70
     1
  0
VERTEX
  8
EBENE_1
 62
    39
  6
CONTINUOUS
 10
-1.751677
 20
0.583479
  0
VERTEX
  8
EBENE_1
 62
    39
  6
CONTINUOUS
 10
-1.753825
 20
0.578882
  0
VERTEX
  8
EBENE_1
 62
    39
  6
CONTINUOUS
 10
-1.757807
 20
0.578882
  0
VERTEX
  8
EBENE_1
 62
    39
  6
CONTINUOUS
 10
-1.759953
 20
0.583481
  0
VERTEX
  8
EBENE_1
 62
    39
  6
CONTINUOUS
 10
-1.757806
 20
0.588079
  0
VERTEX
  8
EBENE_1
 62
    39
  6
CONTINUOUS
 10
-1.753823
 20
0.588079
  0
VERTEX
  8
EBENE_1
 62
    39
  6
CONTINUOUS
 10
-1.751677
 20
0.583480
  0
SEQEND
  8
0
  0
POLYLINE
  8
EBENE_1
 62
    39
  6
CONTINUOUS
 66
     1
 40
0.003000
 41
0.003000
 70
     1
  0
VERTEX
  8
EBENE_1
 62
    39
  6
CONTINUOUS
 10
-1.629110
 20
0.585928
  0
VERTEX
  8
EBENE_1
 62
    39
  6
CONTINUOUS
 10
-1.631258
 20
0.581330
  0
VERTEX
  8
EBENE_1
 62
    39
  6
CONTINUOUS
 10
-1.635240
 20
0.581331
  0
VERTEX
  8
EBENE_1
 62
    39
  6
CONTINUOUS
 10
-1.637386
 20
0.585930
  0
VERTEX
  8
EBENE_1
 62
    39
  6
CONTINUOUS
 10
-1.635239
 20
0.590528
  0
VERTEX
  8
EBENE_1
 62
    39
  6
CONTINUOUS
 10
-1.631256
 20
0.590527
  0
VERTEX
  8
EBENE_1
 62
    39
  6
CONTINUOUS
 10
-1.629110
 20
0.585929
  0
SEQEND
  8
0
  0
POLYLINE
  8
EBENE_1
 62
    39
  6
CONTINUOUS
 66
     1
 40
0.003000
 41
0.003000
 70
     1
  0
VERTEX
  8
EBENE_1
 62
    39
  6
CONTINUOUS
 10
-1.518291
 20
0.669929
  0
VERTEX
  8
EBENE_1
 62
    39
  6
CONTINUOUS
 10
-1.604551
 20
0.575043
  0
VERTEX
  8
EBENE_1
 62
    39
  6
CONTINUOUS
 10
-1.604551
 20
0.506035
  0
VERTEX
  8
EBENE_1
 62
    39
  6
CONTINUOUS
 10
-1.518291
 20
0.411154
  0
VERTEX
  8
EBENE_1
 62
    39
  6
CONTINUOUS
 10
-1.432031
 20
0.506035
  0
VERTEX
  8
EBENE_1
 62
    39
  6
CONTINUOUS
 10
-1.432031
 20
0.575043
  0
SEQEND
  8
0
  0
POLYLINE
  8
EBENE_1
 62
    39
  6
CONTINUOUS
 66
     1
 40
0.003000
 41
0.003000
 70
     1
  0
VERTEX
  8
EBENE_1
 62
    39
  6
CONTINUOUS
 10
-1.339815
 20
0.668350
  0
VERTEX
  8
EBENE_1
 62
    39
  6
CONTINUOUS
 10
-1.426071
 20
0.573465
  0
VERTEX
  8
EBENE_1
 62
    39
  6
CONTINUOUS
 10
-1.426071
 20
0.504461
  0
VERTEX
  8
EBENE_1
 62
    39
  6
CONTINUOUS
 10
-1.339815
 20
0.409575
  0
VERTEX
  8
EBENE_1
 62
    39
  6
CONTINUOUS
 10
-1.253555
 20
0.504461
  0
VERTEX
  8
EBENE_1
 62
    39
  6
CONTINUOUS
 10
-1.253555
 20
0.573465
  0
SEQEND
  8
0
  0
POLYLINE
  8
EBENE_1
 62
    39
  6
CONTINUOUS
 66
     1
 40
0.003000
 41
0.003000
 70
     1
  0
VERTEX
  8
EBENE_1
 62
    39
  6
CONTINUOUS
 10
-1.162984
 20
0.669516
  0
VERTEX
  8
EBENE_1
 62
    39
  6
CONTINUOUS
 10
-1.249240
 20
0.574630
  0
VERTEX
  8
EBENE_1
 62
    39
  6
CONTINUOUS
 10
-1.249240
 20
0.505622
  0
VERTEX
  8
EBENE_1
 62
    39
  6
CONTINUOUS
 10
-1.162984
 20
0.410736
  0
VERTEX
  8
EBENE_1
 62
    39
  6
CONTINUOUS
 10
-1.076724
 20
0.505622
  0
VERTEX
  8
EBENE_1
 62
    39
  6
CONTINUOUS
 10
-1.076724
 20
0.574630
  0
SEQEND
  8
0
  0
POLYLINE
  8
EBENE_1
 62
    39
  6
CONTINUOUS
 66
     1
 40
0.003000
 41
0.003000
 70
     1
  0
VERTEX
  8
EBENE_1
 62
    39
  6
CONTINUOUS
 10
-1.220776
 20
0.586137
  0
VERTEX
  8
EBENE_1
 62
    39
  6
CONTINUOUS
 10
-1.222923
 20
0.581535
  0
VERTEX
  8
EBENE_1
 62
    39
  6
CONTINUOUS
 10
-1.226906
 20
0.581536
  0
VERTEX
  8
EBENE_1
 62
    39
  6
CONTINUOUS
 10
-1.229051
 20
0.586138
  0
VERTEX
  8
EBENE_1
 62
    39
  6
CONTINUOUS
 10
-1.226904
 20
0.590740
  0
VERTEX
  8
EBENE_1
 62
    39
  6
CONTINUOUS
 10
-1.222921
 20
0.590740
  0
VERTEX
  8
EBENE_1
 62
    39
  6
CONTINUOUS
 10
-1.220776
 20
0.586138
  0
SEQEND
  8
0
  0
POLYLINE
  8
EBENE_1
 62
    39
  6
CONTINUOUS
 66
     1
 40
0.003000
 41
0.003000
 70
     1
  0
VERTEX
  8
EBENE_1
 62
    39
  6
CONTINUOUS
 10
-1.098205
 20
0.588590
  0
VERTEX
  8
EBENE_1
 62
    39
  6
CONTINUOUS
 10
-1.100354
 20
0.583992
  0
VERTEX
  8
EBENE_1
 62
    39
  6
CONTINUOUS
 10
-1.104341
 20
0.583992
  0
VERTEX
  8
EBENE_1
 62
    39
  6
CONTINUOUS
 10
-1.106488
 20
0.588591
  0
VERTEX
  8
EBENE_1
 62
    39
  6
CONTINUOUS
 10
-1.104339
 20
0.593189
  0
VERTEX
  8
EBENE_1
 62
    39
  6
CONTINUOUS
 10
-1.100353
 20
0.593189
  0
VERTEX
  8
EBENE_1
 62
    39
  6
CONTINUOUS
 10
-1.098205
 20
0.588591
  0
SEQEND
  8
0
  0
POLYLINE
  8
EBENE_1
 62
    39
  6
CONTINUOUS
 66
     1
 40
0.003000
 41
0.003000
 70
     1
  0
VERTEX
  8
EBENE_1
 62
    39
  6
CONTINUOUS
 10
-0.986154
 20
0.669516
  0
VERTEX
  8
EBENE_1
 62
    39
  6
CONTINUOUS
 10
-1.072409
 20
0.574630
  0
VERTEX
  8
EBENE_1
 62
    39
  6
CONTINUOUS
 10
-1.072409
 20
0.505622
  0
VERTEX
  8
EBENE_1
 62
    39
  6
CONTINUOUS
 10
-0.986154
 20
0.410736
  0
VERTEX
  8
EBENE_1
 62
    39
  6
CONTINUOUS
 10
-0.899894
 20
0.505622
  0
VERTEX
  8
EBENE_1
 62
    39
  6
CONTINUOUS
 10
-0.899894
 20
0.574630
  0
SEQEND
  8
0
  0
POLYLINE
  8
EBENE_1
 62
    39
  6
CONTINUOUS
 66
     1
 40
0.003000
 41
0.003000
 70
     1
  0
VERTEX
  8
EBENE_1
 62
    39
  6
CONTINUOUS
 10
-1.043945
 20
0.586137
  0
VERTEX
  8
EBENE_1
 62
    39
  6
CONTINUOUS
 10
-1.046092
 20
0.581535
  0
VERTEX
  8
EBENE_1
 62
    39
  6
CONTINUOUS
 10
-1.050075
 20
0.581536
  0
VERTEX
  8
EBENE_1
 62
    39
  6
CONTINUOUS
 10
-1.052220
 20
0.586138
  0
VERTEX
  8
EBENE_1
 62
    39
  6
CONTINUOUS
 10
-1.050073
 20
0.590740
  0
VERTEX
  8
EBENE_1
 62
    39
  6
CONTINUOUS
 10
-1.046091
 20
0.590740
  0
VERTEX
  8
EBENE_1
 62
    39
  6
CONTINUOUS
 10
-1.043945
 20
0.586138
  0
SEQEND
  8
0
  0
POLYLINE
  8
EBENE_1
 62
    39
  6
CONTINUOUS
 66
     1
 40
0.003000
 41
0.003000
 70
     1
  0
VERTEX
  8
EBENE_1
 62
    39
  6
CONTINUOUS
 10
-0.921374
 20
0.588590
  0
VERTEX
  8
EBENE_1
 62
    39
  6
CONTINUOUS
 10
-0.923524
 20
0.583992
  0
VERTEX
  8
EBENE_1
 62
    39
  6
CONTINUOUS
 10
-0.927510
 20
0.583992
  0
VERTEX
  8
EBENE_1
 62
    39
  6
CONTINUOUS
 10
-0.929657
 20
0.588591
  0
VERTEX
  8
EBENE_1
 62
    39
  6
CONTINUOUS
 10
-0.927508
 20
0.593189
  0
VERTEX
  8
EBENE_1
 62
    39
  6
CONTINUOUS
 10
-0.923522
 20
0.593189
  0
VERTEX
  8
EBENE_1
 62
    39
  6
CONTINUOUS
 10
-0.921374
 20
0.588591
  0
SEQEND
  8
0
  0
POLYLINE
  8
EBENE_1
 62
    39
  6
CONTINUOUS
 66
     1
 40
0.003000
 41
0.003000
 70
     1
  0
VERTEX
  8
EBENE_1
 62
    39
  6
CONTINUOUS
 10
-2.134760
 20
0.757752
  0
VERTEX
  8
EBENE_1
 62
    39
  6
CONTINUOUS
 10
-2.221020
 20
0.662866
  0
VERTEX
  8
EBENE_1
 62
    39
  6
CONTINUOUS
 10
-2.221020
 20
0.593862
  0
VERTEX
  8
EBENE_1
 62
    39
  6
CONTINUOUS
 10
-2.134760
 20
0.498976
  0
VERTEX
  8
EBENE_1
 62
    39
  6
CONTINUOUS
 10
-2.048500
 20
0.593862
  0
VERTEX
  8
EBENE_1
 62
    39
  6
CONTINUOUS
 10
-2.048500
 20
0.662866
  0
SEQEND
  8
0
  0
POLYLINE
  8
EBENE_1
 62
    39
  6
CONTINUOUS
 66
     1
 40
0.003000
 41
0.003000
 70
     1
  0
VERTEX
  8
EBENE_1
 62
    39
  6
CONTINUOUS
 10
-2.192551
 20
0.674377
  0
VERTEX
  8
EBENE_1
 62
    39
  6
CONTINUOUS
 10
-2.194701
 20
0.669779
  0
VERTEX
  8
EBENE_1
 62
    39
  6
CONTINUOUS
 10
-2.198687
 20
0.669780
  0
VERTEX
  8
EBENE_1
 62
    39
  6
CONTINUOUS
 10
-2.200835
 20
0.674378
  0
VERTEX
  8
EBENE_1
 62
    39
  6
CONTINUOUS
 10
-2.198685
 20
0.678977
  0
VERTEX
  8
EBENE_1
 62
    39
  6
CONTINUOUS
 10
-2.194699
 20
0.678976
  0
VERTEX
  8
EBENE_1
 62
    39
  6
CONTINUOUS
 10
-2.192551
 20
0.674378
  0
SEQEND
  8
0
  0
POLYLINE
  8
EBENE_1
 62
    39
  6
CONTINUOUS
 66
     1
 40
0.003000
 41
0.003000
 70
     1
  0
VERTEX
  8
EBENE_1
 62
    39
  6
CONTINUOUS
 10
-2.069984
 20
0.676826
  0
VERTEX
  8
EBENE_1
 62
    39
  6
CONTINUOUS
 10
-2.072132
 20
0.672224
  0
VERTEX
  8
EBENE_1
 62
    39
  6
CONTINUOUS
 10
-2.076114
 20
0.672225
  0
VERTEX
  8
EBENE_1
 62
    39
  6
CONTINUOUS
 10
-2.078260
 20
0.676827
  0
VERTEX
  8
EBENE_1
 62
    39
  6
CONTINUOUS
 10
-2.076113
 20
0.681429
  0
VERTEX
  8
EBENE_1
 62
    39
  6
CONTINUOUS
 10
-2.072130
 20
0.681429
  0
VERTEX
  8
EBENE_1
 62
    39
  6
CONTINUOUS
 10
-2.069984
 20
0.676827
  0
SEQEND
  8
0
  0
POLYLINE
  8
EBENE_1
 62
    39
  6
CONTINUOUS
 66
     1
 40
0.003000
 41
0.003000
 70
     1
  0
VERTEX
  8
EBENE_1
 62
    39
  6
CONTINUOUS
 10
-2.309783
 20
0.757752
  0
VERTEX
  8
EBENE_1
 62
    39
  6
CONTINUOUS
 10
-2.396043
 20
0.662866
  0
VERTEX
  8
EBENE_1
 62
    39
  6
CONTINUOUS
 10
-2.396043
 20
0.593862
  0
VERTEX
  8
EBENE_1
 62
    39
  6
CONTINUOUS
 10
-2.309783
 20
0.498976
  0
VERTEX
  8
EBENE_1
 62
    39
  6
CONTINUOUS
 10
-2.223528
 20
0.593862
  0
VERTEX
  8
EBENE_1
 62
    39
  6
CONTINUOUS
 10
-2.223528
 20
0.662866
  0
SEQEND
  8
0
  0
POLYLINE
  8
EBENE_1
 62
    39
  6
CONTINUOUS
 66
     1
 40
0.003000
 41
0.003000
 70
     1
  0
VERTEX
  8
EBENE_1
 62
    39
  6
CONTINUOUS
 10
-2.367579
 20
0.674377
  0
VERTEX
  8
EBENE_1
 62
    39
  6
CONTINUOUS
 10
-2.369726
 20
0.669779
  0
VERTEX
  8
EBENE_1
 62
    39
  6
CONTINUOUS
 10
-2.373709
 20
0.669780
  0
VERTEX
  8
EBENE_1
 62
    39
  6
CONTINUOUS
 10
-2.375854
 20
0.674378
  0
VERTEX
  8
EBENE_1
 62
    39
  6
CONTINUOUS
 10
-2.373707
 20
0.678977
  0
VERTEX
  8
EBENE_1
 62
    39
  6
CONTINUOUS
 10
-2.369725
 20
0.678976
  0
VERTEX
  8
EBENE_1
 62
    39
  6
CONTINUOUS
 10
-2.367579
 20
0.674378
  0
SEQEND
  8
0
  0
POLYLINE
  8
EBENE_1
 62
    39
  6
CONTINUOUS
 66
     1
 40
0.003000
 41
0.003000
 70
     1
  0
VERTEX
  8
EBENE_1
 62
    39
  6
CONTINUOUS
 10
-2.245008
 20
0.676826
  0
VERTEX
  8
EBENE_1
 62
    39
  6
CONTINUOUS
 10
-2.247155
 20
0.672224
  0
VERTEX
  8
EBENE_1
 62
    39
  6
CONTINUOUS
 10
-2.251138
 20
0.672225
  0
VERTEX
  8
EBENE_1
 62
    39
  6
CONTINUOUS
 10
-2.253283
 20
0.676827
  0
VERTEX
  8
EBENE_1
 62
    39
  6
CONTINUOUS
 10
-2.251136
 20
0.681429
  0
VERTEX
  8
EBENE_1
 62
    39
  6
CONTINUOUS
 10
-2.247154
 20
0.681429
  0
VERTEX
  8
EBENE_1
 62
    39
  6
CONTINUOUS
 10
-2.245008
 20
0.676827
  0
SEQEND
  8
0
  0
POLYLINE
  8
EBENE_1
 62
    39
  6
CONTINUOUS
 66
     1
 40
0.003000
 41
0.003000
 70
     1
  0
VERTEX
  8
EBENE_1
 62
    39
  6
CONTINUOUS
 10
-1.957929
 20
0.757752
  0
VERTEX
  8
EBENE_1
 62
    39
  6
CONTINUOUS
 10
-2.044189
 20
0.662866
  0
VERTEX
  8
EBENE_1
 62
    39
  6
CONTINUOUS
 10
-2.044189
 20
0.593862
  0
VERTEX
  8
EBENE_1
 62
    39
  6
CONTINUOUS
 10
-1.957929
 20
0.498976
  0
VERTEX
  8
EBENE_1
 62
    39
  6
CONTINUOUS
 10
-1.871673
 20
0.593862
  0
VERTEX
  8
EBENE_1
 62
    39
  6
CONTINUOUS
 10
-1.871673
 20
0.662866
  0
SEQEND
  8
0
  0
POLYLINE
  8
EBENE_1
 62
    39
  6
CONTINUOUS
 66
     1
 40
0.003000
 41
0.003000
 70
     1
  0
VERTEX
  8
EBENE_1
 62
    39
  6
CONTINUOUS
 10
-2.015724
 20
0.674377
  0
VERTEX
  8
EBENE_1
 62
    39
  6
CONTINUOUS
 10
-2.017872
 20
0.669779
  0
VERTEX
  8
EBENE_1
 62
    39
  6
CONTINUOUS
 10
-2.021854
 20
0.669780
  0
VERTEX
  8
EBENE_1
 62
    39
  6
CONTINUOUS
 10
-2.024000
 20
0.674378
  0
VERTEX
  8
EBENE_1
 62
    39
  6
CONTINUOUS
 10
-2.021853
 20
0.678977
  0
VERTEX
  8
EBENE_1
 62
    39
  6
CONTINUOUS
 10
-2.017870
 20
0.678976
  0
VERTEX
  8
EBENE_1
 62
    39
  6
CONTINUOUS
 10
-2.015724
 20
0.674378
  0
SEQEND
  8
0
  0
POLYLINE
  8
EBENE_1
 62
    39
  6
CONTINUOUS
 66
     1
 40
0.003000
 41
0.003000
 70
     1
  0
VERTEX
  8
EBENE_1
 62
    39
  6
CONTINUOUS
 10
-1.893154
 20
0.676826
  0
VERTEX
  8
EBENE_1
 62
    39
  6
CONTINUOUS
 10
-1.895301
 20
0.672224
  0
VERTEX
  8
EBENE_1
 62
    39
  6
CONTINUOUS
 10
-1.899284
 20
0.672225
  0
VERTEX
  8
EBENE_1
 62
    39
  6
CONTINUOUS
 10
-1.901429
 20
0.676827
  0
VERTEX
  8
EBENE_1
 62
    39
  6
CONTINUOUS
 10
-1.899282
 20
0.681429
  0
VERTEX
  8
EBENE_1
 62
    39
  6
CONTINUOUS
 10
-1.895299
 20
0.681429
  0
VERTEX
  8
EBENE_1
 62
    39
  6
CONTINUOUS
 10
-1.893154
 20
0.676827
  0
SEQEND
  8
0
  0
POLYLINE
  8
EBENE_1
 62
    39
  6
CONTINUOUS
 66
     1
 40
0.003000
 41
0.003000
 70
     1
  0
VERTEX
  8
EBENE_1
 62
    39
  6
CONTINUOUS
 10
-1.780689
 20
0.754854
  0
VERTEX
  8
EBENE_1
 62
    39
  6
CONTINUOUS
 10
-1.866945
 20
0.659969
  0
VERTEX
  8
EBENE_1
 62
    39
  6
CONTINUOUS
 10
-1.866945
 20
0.590961
  0
VERTEX
  8
EBENE_1
 62
    39
  6
CONTINUOUS
 10
-1.780689
 20
0.496075
  0
VERTEX
  8
EBENE_1
 62
    39
  6
CONTINUOUS
 10
-1.694429
 20
0.590961
  0
VERTEX
  8
EBENE_1
 62
    39
  6
CONTINUOUS
 10
-1.694429
 20
0.659969
  0
SEQEND
  8
0
  0
POLYLINE
  8
EBENE_1
 62
    39
  6
CONTINUOUS
 66
     1
 40
0.003000
 41
0.003000
 70
     1
  0
VERTEX
  8
EBENE_1
 62
    39
  6
CONTINUOUS
 10
-1.607567
 20
0.753610
  0
VERTEX
  8
EBENE_1
 62
    39
  6
CONTINUOUS
 10
-1.693827
 20
0.658724
  0
VERTEX
  8
EBENE_1
 62
    39
  6
CONTINUOUS
 10
-1.693827
 20
0.589717
  0
VERTEX
  8
EBENE_1
 62
    39
  6
CONTINUOUS
 10
-1.607567
 20
0.494831
  0
VERTEX
  8
EBENE_1
 62
    39
  6
CONTINUOUS
 10
-1.521311
 20
0.589717
  0
VERTEX
  8
EBENE_1
 62
    39
  6
CONTINUOUS
 10
-1.521311
 20
0.658724
  0
SEQEND
  8
0
  0
POLYLINE
  8
EBENE_1
 62
    39
  6
CONTINUOUS
 66
     1
 40
0.003000
 41
0.003000
 70
     1
  0
VERTEX
  8
EBENE_1
 62
    39
  6
CONTINUOUS
 10
-1.427441
 20
0.757752
  0
VERTEX
  8
EBENE_1
 62
    39
  6
CONTINUOUS
 10
-1.513697
 20
0.662866
  0
VERTEX
  8
EBENE_1
 62
    39
  6
CONTINUOUS
 10
-1.513697
 20
0.593862
  0
VERTEX
  8
EBENE_1
 62
    39
  6
CONTINUOUS
 10
-1.427441
 20
0.498976
  0
VERTEX
  8
EBENE_1
 62
    39
  6
CONTINUOUS
 10
-1.341181
 20
0.593862
  0
VERTEX
  8
EBENE_1
 62
    39
  6
CONTINUOUS
 10
-1.341181
 20
0.662866
  0
SEQEND
  8
0
  0
POLYLINE
  8
EBENE_1
 62
    39
  6
CONTINUOUS
 66
     1
 40
0.003000
 41
0.003000
 70
     1
  0
VERTEX
  8
EBENE_1
 62
    39
  6
CONTINUOUS
 10
-1.485232
 20
0.674377
  0
VERTEX
  8
EBENE_1
 62
    39
  6
CONTINUOUS
 10
-1.487380
 20
0.669779
  0
VERTEX
  8
EBENE_1
 62
    39
  6
CONTINUOUS
 10
-1.491362
 20
0.669780
  0
VERTEX
  8
EBENE_1
 62
    39
  6
CONTINUOUS
 10
-1.493508
 20
0.674378
  0
VERTEX
  8
EBENE_1
 62
    39
  6
CONTINUOUS
 10
-1.491361
 20
0.678977
  0
VERTEX
  8
EBENE_1
 62
    39
  6
CONTINUOUS
 10
-1.487378
 20
0.678976
  0
VERTEX
  8
EBENE_1
 62
    39
  6
CONTINUOUS
 10
-1.485232
 20
0.674378
  0
SEQEND
  8
0
  0
POLYLINE
  8
EBENE_1
 62
    39
  6
CONTINUOUS
 66
     1
 40
0.003000
 41
0.003000
 70
     1
  0
VERTEX
  8
EBENE_1
 62
    39
  6
CONTINUOUS
 10
-1.362661
 20
0.676826
  0
VERTEX
  8
EBENE_1
 62
    39
  6
CONTINUOUS
 10
-1.364811
 20
0.672224
  0
VERTEX
  8
EBENE_1
 62
    39
  6
CONTINUOUS
 10
-1.368797
 20
0.672225
  0
VERTEX
  8
EBENE_1
 62
    39
  6
CONTINUOUS
 10
-1.370945
 20
0.676827
  0
VERTEX
  8
EBENE_1
 62
    39
  6
CONTINUOUS
 10
-1.368796
 20
0.681429
  0
VERTEX
  8
EBENE_1
 62
    39
  6
CONTINUOUS
 10
-1.364809
 20
0.681429
  0
VERTEX
  8
EBENE_1
 62
    39
  6
CONTINUOUS
 10
-1.362661
 20
0.676827
  0
SEQEND
  8
0
  0
POLYLINE
  8
EBENE_1
 62
    39
  6
CONTINUOUS
 66
     1
 40
0.003000
 41
0.003000
 70
     1
  0
VERTEX
  8
EBENE_1
 62
    39
  6
CONTINUOUS
 10
-1.250610
 20
0.757752
  0
VERTEX
  8
EBENE_1
 62
    39
  6
CONTINUOUS
 10
-1.336870
 20
0.662866
  0
VERTEX
  8
EBENE_1
 62
    39
  6
CONTINUOUS
 10
-1.336870
 20
0.593862
  0
VERTEX
  8
EBENE_1
 62
    39
  6
CONTINUOUS
 10
-1.250610
 20
0.498976
  0
VERTEX
  8
EBENE_1
 62
    39
  6
CONTINUOUS
 10
-1.164350
 20
0.593862
  0
VERTEX
  8
EBENE_1
 62
    39
  6
CONTINUOUS
 10
-1.164350
 20
0.662866
  0
SEQEND
  8
0
  0
POLYLINE
  8
EBENE_1
 62
    39
  6
CONTINUOUS
 66
     1
 40
0.003000
 41
0.003000
 70
     1
  0
VERTEX
  8
EBENE_1
 62
    39
  6
CONTINUOUS
 10
-1.308402
 20
0.674377
  0
VERTEX
  8
EBENE_1
 62
    39
  6
CONTINUOUS
 10
-1.310551
 20
0.669779
  0
VERTEX
  8
EBENE_1
 62
    39
  6
CONTINUOUS
 10
-1.314537
 20
0.669780
  0
VERTEX
  8
EBENE_1
 62
    39
  6
CONTINUOUS
 10
-1.316685
 20
0.674378
  0
VERTEX
  8
EBENE_1
 62
    39
  6
CONTINUOUS
 10
-1.314536
 20
0.678977
  0
VERTEX
  8
EBENE_1
 62
    39
  6
CONTINUOUS
 10
-1.310550
 20
0.678976
  0
VERTEX
  8
EBENE_1
 62
    39
  6
CONTINUOUS
 10
-1.308402
 20
0.674378
  0
SEQEND
  8
0
  0
POLYLINE
  8
EBENE_1
 62
    39
  6
CONTINUOUS
 66
     1
 40
0.003000
 41
0.003000
 70
     1
  0
VERTEX
  8
EBENE_1
 62
    39
  6
CONTINUOUS
 10
-1.185835
 20
0.676826
  0
VERTEX
  8
EBENE_1
 62
    39
  6
CONTINUOUS
 10
-1.187982
 20
0.672224
  0
VERTEX
  8
EBENE_1
 62
    39
  6
CONTINUOUS
 10
-1.191965
 20
0.672225
  0
VERTEX
  8
EBENE_1
 62
    39
  6
CONTINUOUS
 10
-1.194110
 20
0.676827
  0
VERTEX
  8
EBENE_1
 62
    39
  6
CONTINUOUS
 10
-1.191963
 20
0.681429
  0
VERTEX
  8
EBENE_1
 62
    39
  6
CONTINUOUS
 10
-1.187981
 20
0.681429
  0
VERTEX
  8
EBENE_1
 62
    39
  6
CONTINUOUS
 10
-1.185835
 20
0.676827
  0
SEQEND
  8
0
  0
POLYLINE
  8
EBENE_1
 62
    39
  6
CONTINUOUS
 66
     1
 40
0.003000
 41
0.003000
 70
     1
  0
VERTEX
  8
EBENE_1
 62
    39
  6
CONTINUOUS
 10
-1.073780
 20
0.757752
  0
VERTEX
  8
EBENE_1
 62
    39
  6
CONTINUOUS
 10
-1.160039
 20
0.662866
  0
VERTEX
  8
EBENE_1
 62
    39
  6
CONTINUOUS
 10
-1.160039
 20
0.593862
  0
VERTEX
  8
EBENE_1
 62
    39
  6
CONTINUOUS
 10
-1.073780
 20
0.498976
  0
VERTEX
  8
EBENE_1
 62
    39
  6
CONTINUOUS
 10
-0.987520
 20
0.593862
  0
VERTEX
  8
EBENE_1
 62
    39
  6
CONTINUOUS
 10
-0.987520
 20
0.662866
  0
SEQEND
  8
0
  0
POLYLINE
  8
EBENE_1
 62
    39
  6
CONTINUOUS
 66
     1
 40
0.003000
 41
0.003000
 70
     1
  0
VERTEX
  8
EBENE_1
 62
    39
  6
CONTINUOUS
 10
-1.131571
 20
0.674377
  0
VERTEX
  8
EBENE_1
 62
    39
  6
CONTINUOUS
 10
-1.133720
 20
0.669779
  0
VERTEX
  8
EBENE_1
 62
    39
  6
CONTINUOUS
 10
-1.137707
 20
0.669780
  0
VERTEX
  8
EBENE_1
 62
    39
  6
CONTINUOUS
 10
-1.139854
 20
0.674378
  0
VERTEX
  8
EBENE_1
 62
    39
  6
CONTINUOUS
 10
-1.137705
 20
0.678977
  0
VERTEX
  8
EBENE_1
 62
    39
  6
CONTINUOUS
 10
-1.133719
 20
0.678976
  0
VERTEX
  8
EBENE_1
 62
    39
  6
CONTINUOUS
 10
-1.131571
 20
0.674378
  0
SEQEND
  8
0
  0
POLYLINE
  8
EBENE_1
 62
    39
  6
CONTINUOUS
 66
     1
 40
0.003000
 41
0.003000
 70
     1
  0
VERTEX
  8
EBENE_1
 62
    39
  6
CONTINUOUS
 10
-1.009004
 20
0.676826
  0
VERTEX
  8
EBENE_1
 62
    39
  6
CONTINUOUS
 10
-1.011151
 20
0.672224
  0
VERTEX
  8
EBENE_1
 62
    39
  6
CONTINUOUS
 10
-1.015134
 20
0.672225
  0
VERTEX
  8
EBENE_1
 62
    39
  6
CONTINUOUS
 10
-1.017280
 20
0.676827
  0
VERTEX
  8
EBENE_1
 62
    39
  6
CONTINUOUS
 10
-1.015132
 20
0.681429
  0
VERTEX
  8
EBENE_1
 62
    39
  6
CONTINUOUS
 10
-1.011150
 20
0.681429
  0
VERTEX
  8
EBENE_1
 62
    39
  6
CONTINUOUS
 10
-1.009004
 20
0.676827
  0
SEQEND
  8
0
  0
POLYLINE
  8
EBENE_1
 62
    39
  6
CONTINUOUS
 66
     1
 40
0.003000
 41
0.003000
 70
     1
  0
VERTEX
  8
EBENE_1
 62
    39
  6
CONTINUOUS
 10
-2.046917
 20
0.842925
  0
VERTEX
  8
EBENE_1
 62
    39
  6
CONTINUOUS
 10
-2.133177
 20
0.748039
  0
VERTEX
  8
EBENE_1
 62
    39
  6
CONTINUOUS
 10
-2.133177
 20
0.679035
  0
VERTEX
  8
EBENE_1
 62
    39
  6
CONTINUOUS
 10
-2.046917
 20
0.584150
  0
VERTEX
  8
EBENE_1
 62
    39
  6
CONTINUOUS
 10
-1.960661
 20
0.679035
  0
VERTEX
  8
EBENE_1
 62
    39
  6
CONTINUOUS
 10
-1.960661
 20
0.748039
  0
SEQEND
  8
0
  0
POLYLINE
  8
EBENE_1
 62
    39
  6
CONTINUOUS
 66
     1
 40
0.003000
 41
0.003000
 70
     1
  0
VERTEX
  8
EBENE_1
 62
    39
  6
CONTINUOUS
 10
-2.104713
 20
0.759550
  0
VERTEX
  8
EBENE_1
 62
    39
  6
CONTINUOUS
 10
-2.106860
 20
0.754952
  0
VERTEX
  8
EBENE_1
 62
    39
  6
CONTINUOUS
 10
-2.110843
 20
0.754953
  0
VERTEX
  8
EBENE_1
 62
    39
  6
CONTINUOUS
 10
-2.112988
 20
0.759552
  0
VERTEX
  8
EBENE_1
 62
    39
  6
CONTINUOUS
 10
-2.110841
 20
0.764150
  0
VERTEX
  8
EBENE_1
 62
    39
  6
CONTINUOUS
 10
-2.106858
 20
0.764150
  0
VERTEX
  8
EBENE_1
 62
    39
  6
CONTINUOUS
 10
-2.104713
 20
0.759551
  0
SEQEND
  8
0
  0
POLYLINE
  8
EBENE_1
 62
    39
  6
CONTINUOUS
 66
     1
 40
0.003000
 41
0.003000
 70
     1
  0
VERTEX
  8
EBENE_1
 62
    39
  6
CONTINUOUS
 10
-1.982142
 20
0.762003
  0
VERTEX
  8
EBENE_1
 62
    39
  6
CONTINUOUS
 10
-1.984289
 20
0.757405
  0
VERTEX
  8
EBENE_1
 62
    39
  6
CONTINUOUS
 10
-1.988272
 20
0.757406
  0
VERTEX
  8
EBENE_1
 62
    39
  6
CONTINUOUS
 10
-1.990417
 20
0.762004
  0
VERTEX
  8
EBENE_1
 62
    39
  6
CONTINUOUS
 10
-1.988270
 20
0.766603
  0
VERTEX
  8
EBENE_1
 62
    39
  6
CONTINUOUS
 10
-1.984288
 20
0.766602
  0
VERTEX
  8
EBENE_1
 62
    39
  6
CONTINUOUS
 10
-1.982142
 20
0.762004
  0
SEQEND
  8
0
  0
POLYLINE
  8
EBENE_1
 62
    39
  6
CONTINUOUS
 66
     1
 40
0.003000
 41
0.003000
 70
     1
  0
VERTEX
  8
EBENE_1
 62
    39
  6
CONTINUOUS
 10
-2.221945
 20
0.842925
  0
VERTEX
  8
EBENE_1
 62
    39
  6
CONTINUOUS
 10
-2.308201
 20
0.748039
  0
VERTEX
  8
EBENE_1
 62
    39
  6
CONTINUOUS
 10
-2.308201
 20
0.679035
  0
VERTEX
  8
EBENE_1
 62
    39
  6
CONTINUOUS
 10
-2.221945
 20
0.584150
  0
VERTEX
  8
EBENE_1
 62
    39
  6
CONTINUOUS
 10
-2.135685
 20
0.679035
  0
VERTEX
  8
EBENE_1
 62
    39
  6
CONTINUOUS
 10
-2.135685
 20
0.748039
  0
SEQEND
  8
0
  0
POLYLINE
  8
EBENE_1
 62
    39
  6
CONTINUOUS
 66
     1
 40
0.003000
 41
0.003000
 70
     1
  0
VERTEX
  8
EBENE_1
 62
    39
  6
CONTINUOUS
 10
-2.279736
 20
0.759550
  0
VERTEX
  8
EBENE_1
 62
    39
  6
CONTINUOUS
 10
-2.281884
 20
0.754952
  0
VERTEX
  8
EBENE_1
 62
    39
  6
CONTINUOUS
 10
-2.285866
 20
0.754953
  0
VERTEX
  8
EBENE_1
 62
    39
  6
CONTINUOUS
 10
-2.288012
 20
0.759552
  0
VERTEX
  8
EBENE_1
 62
    39
  6
CONTINUOUS
 10
-2.285865
 20
0.764150
  0
VERTEX
  8
EBENE_1
 62
    39
  6
CONTINUOUS
 10
-2.281882
 20
0.764150
  0
VERTEX
  8
EBENE_1
 62
    39
  6
CONTINUOUS
 10
-2.279736
 20
0.759551
  0
SEQEND
  8
0
  0
POLYLINE
  8
EBENE_1
 62
    39
  6
CONTINUOUS
 66
     1
 40
0.003000
 41
0.003000
 70
     1
  0
VERTEX
  8
EBENE_1
 62
    39
  6
CONTINUOUS
 10
-2.157165
 20
0.762003
  0
VERTEX
  8
EBENE_1
 62
    39
  6
CONTINUOUS
 10
-2.159315
 20
0.757405
  0
VERTEX
  8
EBENE_1
 62
    39
  6
CONTINUOUS
 10
-2.163301
 20
0.757406
  0
VERTEX
  8
EBENE_1
 62
    39
  6
CONTINUOUS
 10
-2.165449
 20
0.762004
  0
VERTEX
  8
EBENE_1
 62
    39
  6
CONTINUOUS
 10
-2.163300
 20
0.766603
  0
VERTEX
  8
EBENE_1
 62
    39
  6
CONTINUOUS
 10
-2.159313
 20
0.766602
  0
VERTEX
  8
EBENE_1
 62
    39
  6
CONTINUOUS
 10
-2.157165
 20
0.762004
  0
SEQEND
  8
0
  0
POLYLINE
  8
EBENE_1
 62
    39
  6
CONTINUOUS
 66
     1
 40
0.003000
 41
0.003000
 70
     1
  0
VERTEX
  8
EBENE_1
 62
    39
  6
CONTINUOUS
 10
-2.396969
 20
0.842925
  0
VERTEX
  8
EBENE_1
 62
    39
  6
CONTINUOUS
 10
-2.483228
 20
0.748039
  0
VERTEX
  8
EBENE_1
 62
    39
  6
CONTINUOUS
 10
-2.483228
 20
0.679035
  0
VERTEX
  8
EBENE_1
 62
    39
  6
CONTINUOUS
 10
-2.396969
 20
0.584150
  0
VERTEX
  8
EBENE_1
 62
    39
  6
CONTINUOUS
 10
-2.310709
 20
0.679035
  0
VERTEX
  8
EBENE_1
 62
    39
  6
CONTINUOUS
 10
-2.310709
 20
0.748039
  0
SEQEND
  8
0
  0
POLYLINE
  8
EBENE_1
 62
    39
  6
CONTINUOUS
 66
     1
 40
0.003000
 41
0.003000
 70
     1
  0
VERTEX
  8
EBENE_1
 62
    39
  6
CONTINUOUS
 10
-2.454760
 20
0.759550
  0
VERTEX
  8
EBENE_1
 62
    39
  6
CONTINUOUS
 10
-2.456909
 20
0.754952
  0
VERTEX
  8
EBENE_1
 62
    39
  6
CONTINUOUS
 10
-2.460896
 20
0.754953
  0
VERTEX
  8
EBENE_1
 62
    39
  6
CONTINUOUS
 10
-2.463043
 20
0.759552
  0
VERTEX
  8
EBENE_1
 62
    39
  6
CONTINUOUS
 10
-2.460894
 20
0.764150
  0
VERTEX
  8
EBENE_1
 62
    39
  6
CONTINUOUS
 10
-2.456908
 20
0.764150
  0
VERTEX
  8
EBENE_1
 62
    39
  6
CONTINUOUS
 10
-2.454760
 20
0.759551
  0
SEQEND
  8
0
  0
POLYLINE
  8
EBENE_1
 62
    39
  6
CONTINUOUS
 66
     1
 40
0.003000
 41
0.003000
 70
     1
  0
VERTEX
  8
EBENE_1
 62
    39
  6
CONTINUOUS
 10
-2.332193
 20
0.762003
  0
VERTEX
  8
EBENE_1
 62
    39
  6
CONTINUOUS
 10
-2.334340
 20
0.757405
  0
VERTEX
  8
EBENE_1
 62
    39
  6
CONTINUOUS
 10
-2.338323
 20
0.757406
  0
VERTEX
  8
EBENE_1
 62
    39
  6
CONTINUOUS
 10
-2.340469
 20
0.762004
  0
VERTEX
  8
EBENE_1
 62
    39
  6
CONTINUOUS
 10
-2.338321
 20
0.766603
  0
VERTEX
  8
EBENE_1
 62
    39
  6
CONTINUOUS
 10
-2.334339
 20
0.766602
  0
VERTEX
  8
EBENE_1
 62
    39
  6
CONTINUOUS
 10
-2.332193
 20
0.762004
  0
SEQEND
  8
0
  0
POLYLINE
  8
EBENE_1
 62
    39
  6
CONTINUOUS
 66
     1
 40
0.003000
 41
0.003000
 70
     1
  0
VERTEX
  8
EBENE_1
 62
    39
  6
CONTINUOUS
 10
-1.870091
 20
0.842925
  0
VERTEX
  8
EBENE_1
 62
    39
  6
CONTINUOUS
 10
-1.956346
 20
0.748039
  0
VERTEX
  8
EBENE_1
 62
    39
  6
CONTINUOUS
 10
-1.956346
 20
0.679035
  0
VERTEX
  8
EBENE_1
 62
    39
  6
CONTINUOUS
 10
-1.870091
 20
0.584150
  0
VERTEX
  8
EBENE_1
 62
    39
  6
CONTINUOUS
 10
-1.783831
 20
0.679035
  0
VERTEX
  8
EBENE_1
 62
    39
  6
CONTINUOUS
 10
-1.783831
 20
0.748039
  0
SEQEND
  8
0
  0
POLYLINE
  8
EBENE_1
 62
    39
  6
CONTINUOUS
 66
     1
 40
0.003000
 41
0.003000
 70
     1
  0
VERTEX
  8
EBENE_1
 62
    39
  6
CONTINUOUS
 10
-1.927882
 20
0.759550
  0
VERTEX
  8
EBENE_1
 62
    39
  6
CONTINUOUS
 10
-1.930029
 20
0.754952
  0
VERTEX
  8
EBENE_1
 62
    39
  6
CONTINUOUS
 10
-1.934012
 20
0.754953
  0
VERTEX
  8
EBENE_1
 62
    39
  6
CONTINUOUS
 10
-1.936157
 20
0.759552
  0
VERTEX
  8
EBENE_1
 62
    39
  6
CONTINUOUS
 10
-1.934010
 20
0.764150
  0
VERTEX
  8
EBENE_1
 62
    39
  6
CONTINUOUS
 10
-1.930028
 20
0.764150
  0
VERTEX
  8
EBENE_1
 62
    39
  6
CONTINUOUS
 10
-1.927882
 20
0.759551
  0
SEQEND
  8
0
  0
POLYLINE
  8
EBENE_1
 62
    39
  6
CONTINUOUS
 66
     1
 40
0.003000
 41
0.003000
 70
     1
  0
VERTEX
  8
EBENE_1
 62
    39
  6
CONTINUOUS
 10
-1.805311
 20
0.762003
  0
VERTEX
  8
EBENE_1
 62
    39
  6
CONTINUOUS
 10
-1.807461
 20
0.757405
  0
VERTEX
  8
EBENE_1
 62
    39
  6
CONTINUOUS
 10
-1.811447
 20
0.757406
  0
VERTEX
  8
EBENE_1
 62
    39
  6
CONTINUOUS
 10
-1.813594
 20
0.762004
  0
VERTEX
  8
EBENE_1
 62
    39
  6
CONTINUOUS
 10
-1.811445
 20
0.766603
  0
VERTEX
  8
EBENE_1
 62
    39
  6
CONTINUOUS
 10
-1.807459
 20
0.766602
  0
VERTEX
  8
EBENE_1
 62
    39
  6
CONTINUOUS
 10
-1.805311
 20
0.762004
  0
SEQEND
  8
0
  0
POLYLINE
  8
EBENE_1
 62
    39
  6
CONTINUOUS
 66
     1
 40
0.003000
 41
0.003000
 70
     1
  0
VERTEX
  8
EBENE_1
 62
    39
  6
CONTINUOUS
 10
-1.694996
 20
0.840020
  0
VERTEX
  8
EBENE_1
 62
    39
  6
CONTINUOUS
 10
-1.781252
 20
0.745134
  0
VERTEX
  8
EBENE_1
 62
    39
  6
CONTINUOUS
 10
-1.781252
 20
0.676126
  0
VERTEX
  8
EBENE_1
 62
    39
  6
CONTINUOUS
 10
-1.694996
 20
0.581240
  0
VERTEX
  8
EBENE_1
 62
    39
  6
CONTINUOUS
 10
-1.608736
 20
0.676126
  0
VERTEX
  8
EBENE_1
 62
    39
  6
CONTINUOUS
 10
-1.608736
 20
0.745134
  0
SEQEND
  8
0
  0
POLYLINE
  8
EBENE_1
 62
    39
  6
CONTINUOUS
 66
     1
 40
0.003000
 41
0.003000
 70
     1
  0
VERTEX
  8
EBENE_1
 62
    39
  6
CONTINUOUS
 10
-1.752787
 20
0.756641
  0
VERTEX
  8
EBENE_1
 62
    39
  6
CONTINUOUS
 10
-1.754935
 20
0.752043
  0
VERTEX
  8
EBENE_1
 62
    39
  6
CONTINUOUS
 10
-1.758917
 20
0.752044
  0
VERTEX
  8
EBENE_1
 62
    39
  6
CONTINUOUS
 10
-1.761063
 20
0.756642
  0
VERTEX
  8
EBENE_1
 62
    39
  6
CONTINUOUS
 10
-1.758916
 20
0.761240
  0
VERTEX
  8
EBENE_1
 62
    39
  6
CONTINUOUS
 10
-1.754933
 20
0.761240
  0
VERTEX
  8
EBENE_1
 62
    39
  6
CONTINUOUS
 10
-1.752787
 20
0.756642
  0
SEQEND
  8
0
  0
POLYLINE
  8
EBENE_1
 62
    39
  6
CONTINUOUS
 66
     1
 40
0.003000
 41
0.003000
 70
     1
  0
VERTEX
  8
EBENE_1
 62
    39
  6
CONTINUOUS
 10
-1.630217
 20
0.759094
  0
VERTEX
  8
EBENE_1
 62
    39
  6
CONTINUOUS
 10
-1.632366
 20
0.754496
  0
VERTEX
  8
EBENE_1
 62
    39
  6
CONTINUOUS
 10
-1.636352
 20
0.754496
  0
VERTEX
  8
EBENE_1
 62
    39
  6
CONTINUOUS
 10
-1.638500
 20
0.759095
  0
VERTEX
  8
EBENE_1
 62
    39
  6
CONTINUOUS
 10
-1.636351
 20
0.763693
  0
VERTEX
  8
EBENE_1
 62
    39
  6
CONTINUOUS
 10
-1.632364
 20
0.763693
  0
VERTEX
  8
EBENE_1
 62
    39
  6
CONTINUOUS
 10
-1.630217
 20
0.759094
  0
SEQEND
  8
0
  0
POLYLINE
  8
EBENE_1
 62
    39
  6
CONTINUOUS
 66
     1
 40
0.003000
 41
0.003000
 70
     1
  0
VERTEX
  8
EBENE_1
 62
    39
  6
CONTINUOUS
 10
-1.516429
 20
0.842925
  0
VERTEX
  8
EBENE_1
 62
    39
  6
CONTINUOUS
 10
-1.602689
 20
0.748039
  0
VERTEX
  8
EBENE_1
 62
    39
  6
CONTINUOUS
 10
-1.602689
 20
0.679035
  0
VERTEX
  8
EBENE_1
 62
    39
  6
CONTINUOUS
 10
-1.516429
 20
0.584150
  0
VERTEX
  8
EBENE_1
 62
    39
  6
CONTINUOUS
 10
-1.430169
 20
0.679035
  0
VERTEX
  8
EBENE_1
 62
    39
  6
CONTINUOUS
 10
-1.430169
 20
0.748039
  0
SEQEND
  8
0
  0
POLYLINE
  8
EBENE_1
 62
    39
  6
CONTINUOUS
 66
     1
 40
0.003000
 41
0.003000
 70
     1
  0
VERTEX
  8
EBENE_1
 62
    39
  6
CONTINUOUS
 10
-1.574220
 20
0.759550
  0
VERTEX
  8
EBENE_1
 62
    39
  6
CONTINUOUS
 10
-1.576370
 20
0.754952
  0
VERTEX
  8
EBENE_1
 62
    39
  6
CONTINUOUS
 10
-1.580356
 20
0.754953
  0
VERTEX
  8
EBENE_1
 62
    39
  6
CONTINUOUS
 10
-1.582504
 20
0.759552
  0
VERTEX
  8
EBENE_1
 62
    39
  6
CONTINUOUS
 10
-1.580355
 20
0.764150
  0
VERTEX
  8
EBENE_1
 62
    39
  6
CONTINUOUS
 10
-1.576368
 20
0.764150
  0
VERTEX
  8
EBENE_1
 62
    39
  6
CONTINUOUS
 10
-1.574220
 20
0.759551
  0
SEQEND
  8
0
  0
POLYLINE
  8
EBENE_1
 62
    39
  6
CONTINUOUS
 66
     1
 40
0.003000
 41
0.003000
 70
     1
  0
VERTEX
  8
EBENE_1
 62
    39
  6
CONTINUOUS
 10
-1.451654
 20
0.762003
  0
VERTEX
  8
EBENE_1
 62
    39
  6
CONTINUOUS
 10
-1.453801
 20
0.757405
  0
VERTEX
  8
EBENE_1
 62
    39
  6
CONTINUOUS
 10
-1.457784
 20
0.757406
  0
VERTEX
  8
EBENE_1
 62
    39
  6
CONTINUOUS
 10
-1.459929
 20
0.762004
  0
VERTEX
  8
EBENE_1
 62
    39
  6
CONTINUOUS
 10
-1.457782
 20
0.766603
  0
VERTEX
  8
EBENE_1
 62
    39
  6
CONTINUOUS
 10
-1.453799
 20
0.766602
  0
VERTEX
  8
EBENE_1
 62
    39
  6
CONTINUOUS
 10
-1.451654
 20
0.762004
  0
SEQEND
  8
0
  0
POLYLINE
  8
EBENE_1
 62
    39
  6
CONTINUOUS
 66
     1
 40
0.003000
 41
0.003000
 70
     1
  0
VERTEX
  8
EBENE_1
 62
    39
  6
CONTINUOUS
 10
-1.339598
 20
0.842925
  0
VERTEX
  8
EBENE_1
 62
    39
  6
CONTINUOUS
 10
-1.425858
 20
0.748039
  0
VERTEX
  8
EBENE_1
 62
    39
  6
CONTINUOUS
 10
-1.425858
 20
0.679035
  0
VERTEX
  8
EBENE_1
 62
    39
  6
CONTINUOUS
 10
-1.339598
 20
0.584150
  0
VERTEX
  8
EBENE_1
 62
    39
  6
CONTINUOUS
 10
-1.253339
 20
0.679035
  0
VERTEX
  8
EBENE_1
 62
    39
  6
CONTINUOUS
 10
-1.253339
 20
0.748039
  0
SEQEND
  8
0
  0
POLYLINE
  8
EBENE_1
 62
    39
  6
CONTINUOUS
 66
     1
 40
0.003000
 41
0.003000
 70
     1
  0
VERTEX
  8
EBENE_1
 62
    39
  6
CONTINUOUS
 10
-1.397390
 20
0.759550
  0
VERTEX
  8
EBENE_1
 62
    39
  6
CONTINUOUS
 10
-1.399539
 20
0.754952
  0
VERTEX
  8
EBENE_1
 62
    39
  6
CONTINUOUS
 10
-1.403526
 20
0.754953
  0
VERTEX
  8
EBENE_1
 62
    39
  6
CONTINUOUS
 10
-1.405673
 20
0.759552
  0
VERTEX
  8
EBENE_1
 62
    39
  6
CONTINUOUS
 10
-1.403524
 20
0.764150
  0
VERTEX
  8
EBENE_1
 62
    39
  6
CONTINUOUS
 10
-1.399538
 20
0.764150
  0
VERTEX
  8
EBENE_1
 62
    39
  6
CONTINUOUS
 10
-1.397390
 20
0.759551
  0
SEQEND
  8
0
  0
POLYLINE
  8
EBENE_1
 62
    39
  6
CONTINUOUS
 66
     1
 40
0.003000
 41
0.003000
 70
     1
  0
VERTEX
  8
EBENE_1
 62
    39
  6
CONTINUOUS
 10
-1.274823
 20
0.762003
  0
VERTEX
  8
EBENE_1
 62
    39
  6
CONTINUOUS
 10
-1.276970
 20
0.757405
  0
VERTEX
  8
EBENE_1
 62
    39
  6
CONTINUOUS
 10
-1.280953
 20
0.757406
  0
VERTEX
  8
EBENE_1
 62
    39
  6
CONTINUOUS
 10
-1.283098
 20
0.762004
  0
VERTEX
  8
EBENE_1
 62
    39
  6
CONTINUOUS
 10
-1.280951
 20
0.766603
  0
VERTEX
  8
EBENE_1
 62
    39
  6
CONTINUOUS
 10
-1.276969
 20
0.766602
  0
VERTEX
  8
EBENE_1
 62
    39
  6
CONTINUOUS
 10
-1.274823
 20
0.762004
  0
SEQEND
  8
0
  0
POLYLINE
  8
EBENE_1
 62
    39
  6
CONTINUOUS
 66
     1
 40
0.003000
 41
0.003000
 70
     1
  0
VERTEX
  8
EBENE_1
 62
    39
  6
CONTINUOUS
 10
-1.162768
 20
0.842925
  0
VERTEX
  8
EBENE_1
 62
    39
  6
CONTINUOUS
 10
-1.249028
 20
0.748039
  0
VERTEX
  8
EBENE_1
 62
    39
  6
CONTINUOUS
 10
-1.249028
 20
0.679035
  0
VERTEX
  8
EBENE_1
 62
    39
  6
CONTINUOUS
 10
-1.162768
 20
0.584150
  0
VERTEX
  8
EBENE_1
 62
    39
  6
CONTINUOUS
 10
-1.076512
 20
0.679035
  0
VERTEX
  8
EBENE_1
 62
    39
  6
CONTINUOUS
 10
-1.076512
 20
0.748039
  0
SEQEND
  8
0
  0
POLYLINE
  8
EBENE_1
 62
    39
  6
CONTINUOUS
 66
     1
 40
0.003000
 41
0.003000
 70
     1
  0
VERTEX
  8
EBENE_1
 62
    39
  6
CONTINUOUS
 10
-1.220559
 20
0.759550
  0
VERTEX
  8
EBENE_1
 62
    39
  6
CONTINUOUS
 10
-1.222709
 20
0.754952
  0
VERTEX
  8
EBENE_1
 62
    39
  6
CONTINUOUS
 10
-1.226695
 20
0.754953
  0
VERTEX
  8
EBENE_1
 62
    39
  6
CONTINUOUS
 10
-1.228843
 20
0.759552
  0
VERTEX
  8
EBENE_1
 62
    39
  6
CONTINUOUS
 10
-1.226693
 20
0.764150
  0
VERTEX
  8
EBENE_1
 62
    39
  6
CONTINUOUS
 10
-1.222707
 20
0.764150
  0
VERTEX
  8
EBENE_1
 62
    39
  6
CONTINUOUS
 10
-1.220559
 20
0.759551
  0
SEQEND
  8
0
  0
POLYLINE
  8
EBENE_1
 62
    39
  6
CONTINUOUS
 66
     1
 40
0.003000
 41
0.003000
 70
     1
  0
VERTEX
  8
EBENE_1
 62
    39
  6
CONTINUOUS
 10
-1.097992
 20
0.762003
  0
VERTEX
  8
EBENE_1
 62
    39
  6
CONTINUOUS
 10
-1.100140
 20
0.757405
  0
VERTEX
  8
EBENE_1
 62
    39
  6
CONTINUOUS
 10
-1.104122
 20
0.757406
  0
VERTEX
  8
EBENE_1
 62
    39
  6
CONTINUOUS
 10
-1.106268
 20
0.762004
  0
VERTEX
  8
EBENE_1
 62
    39
  6
CONTINUOUS
 10
-1.104120
 20
0.766603
  0
VERTEX
  8
EBENE_1
 62
    39
  6
CONTINUOUS
 10
-1.100138
 20
0.766602
  0
VERTEX
  8
EBENE_1
 62
    39
  6
CONTINUOUS
 10
-1.097992
 20
0.762004
  0
SEQEND
  8
0
  0
POLYLINE
  8
EBENE_1
 62
    39
  6
CONTINUOUS
 66
     1
 40
0.003000
 41
0.003000
 70
     1
  0
VERTEX
  8
EBENE_1
 62
    39
  6
CONTINUOUS
 10
-0.985937
 20
0.842925
  0
VERTEX
  8
EBENE_1
 62
    39
  6
CONTINUOUS
 10
-1.072197
 20
0.748039
  0
VERTEX
  8
EBENE_1
 62
    39
  6
CONTINUOUS
 10
-1.072197
 20
0.679035
  0
VERTEX
  8
EBENE_1
 62
    39
  6
CONTINUOUS
 10
-0.985937
 20
0.584150
  0
VERTEX
  8
EBENE_1
 62
    39
  6
CONTINUOUS
 10
-0.899681
 20
0.679035
  0
VERTEX
  8
EBENE_1
 62
    39
  6
CONTINUOUS
 10
-0.899681
 20
0.748039
  0
SEQEND
  8
0
  0
POLYLINE
  8
EBENE_1
 62
    39
  6
CONTINUOUS
 66
     1
 40
0.003000
 41
0.003000
 70
     1
  0
VERTEX
  8
EBENE_1
 62
    39
  6
CONTINUOUS
 10
-1.043732
 20
0.759550
  0
VERTEX
  8
EBENE_1
 62
    39
  6
CONTINUOUS
 10
-1.045880
 20
0.754952
  0
VERTEX
  8
EBENE_1
 62
    39
  6
CONTINUOUS
 10
-1.049862
 20
0.754953
  0
VERTEX
  8
EBENE_1
 62
    39
  6
CONTINUOUS
 10
-1.052008
 20
0.759552
  0
VERTEX
  8
EBENE_1
 62
    39
  6
CONTINUOUS
 10
-1.049861
 20
0.764150
  0
VERTEX
  8
EBENE_1
 62
    39
  6
CONTINUOUS
 10
-1.045878
 20
0.764150
  0
VERTEX
  8
EBENE_1
 62
    39
  6
CONTINUOUS
 10
-1.043732
 20
0.759551
  0
SEQEND
  8
0
  0
POLYLINE
  8
EBENE_1
 62
    39
  6
CONTINUOUS
 66
     1
 40
0.003000
 41
0.003000
 70
     1
  0
VERTEX
  8
EBENE_1
 62
    39
  6
CONTINUOUS
 10
-0.921161
 20
0.762003
  0
VERTEX
  8
EBENE_1
 62
    39
  6
CONTINUOUS
 10
-0.923309
 20
0.757405
  0
VERTEX
  8
EBENE_1
 62
    39
  6
CONTINUOUS
 10
-0.927291
 20
0.757406
  0
VERTEX
  8
EBENE_1
 62
    39
  6
CONTINUOUS
 10
-0.929437
 20
0.762004
  0
VERTEX
  8
EBENE_1
 62
    39
  6
CONTINUOUS
 10
-0.927290
 20
0.766603
  0
VERTEX
  8
EBENE_1
 62
    39
  6
CONTINUOUS
 10
-0.923307
 20
0.766602
  0
VERTEX
  8
EBENE_1
 62
    39
  6
CONTINUOUS
 10
-0.921161
 20
0.762004
  0
SEQEND
  8
0
  0
POLYLINE
  8
EBENE_1
 62
    39
  6
CONTINUOUS
 66
     1
 40
0.003000
 41
0.003000
 70
     1
  0
VERTEX
  8
EBENE_1
 62
    39
  6
CONTINUOUS
 10
-1.957264
 20
0.926449
  0
VERTEX
  8
EBENE_1
 62
    39
  6
CONTINUOUS
 10
-2.043524
 20
0.831563
  0
VERTEX
  8
EBENE_1
 62
    39
  6
CONTINUOUS
 10
-2.043524
 20
0.762559
  0
VERTEX
  8
EBENE_1
 62
    39
  6
CONTINUOUS
 10
-1.957264
 20
0.667673
  0
VERTEX
  8
EBENE_1
 62
    39
  6
CONTINUOUS
 10
-1.871004
 20
0.762559
  0
VERTEX
  8
EBENE_1
 62
    39
  6
CONTINUOUS
 10
-1.871004
 20
0.831563
  0
SEQEND
  8
0
  0
POLYLINE
  8
EBENE_1
 62
    39
  6
CONTINUOUS
 66
     1
 40
0.003000
 41
0.003000
 70
     1
  0
VERTEX
  8
EBENE_1
 62
    39
  6
CONTINUOUS
 10
-2.015055
 20
0.843074
  0
VERTEX
  8
EBENE_1
 62
    39
  6
CONTINUOUS
 10
-2.017205
 20
0.838476
  0
VERTEX
  8
EBENE_1
 62
    39
  6
CONTINUOUS
 10
-2.021191
 20
0.838477
  0
VERTEX
  8
EBENE_1
 62
    39
  6
CONTINUOUS
 10
-2.023339
 20
0.843075
  0
VERTEX
  8
EBENE_1
 62
    39
  6
CONTINUOUS
 10
-2.021189
 20
0.847673
  0
VERTEX
  8
EBENE_1
 62
    39
  6
CONTINUOUS
 10
-2.017203
 20
0.847673
  0
VERTEX
  8
EBENE_1
 62
    39
  6
CONTINUOUS
 10
-2.015055
 20
0.843075
  0
SEQEND
  8
0
  0
POLYLINE
  8
EBENE_1
 62
    39
  6
CONTINUOUS
 66
     1
 40
0.003000
 41
0.003000
 70
     1
  0
VERTEX
  8
EBENE_1
 62
    39
  6
CONTINUOUS
 10
-1.892488
 20
0.845523
  0
VERTEX
  8
EBENE_1
 62
    39
  6
CONTINUOUS
 10
-1.894636
 20
0.840921
  0
VERTEX
  8
EBENE_1
 62
    39
  6
CONTINUOUS
 10
-1.898618
 20
0.840922
  0
VERTEX
  8
EBENE_1
 62
    39
  6
CONTINUOUS
 10
-1.900764
 20
0.845524
  0
VERTEX
  8
EBENE_1
 62
    39
  6
CONTINUOUS
 10
-1.898617
 20
0.850126
  0
VERTEX
  8
EBENE_1
 62
    39
  6
CONTINUOUS
 10
-1.894634
 20
0.850125
  0
VERTEX
  8
EBENE_1
 62
    39
  6
CONTINUOUS
 10
-1.892488
 20
0.845524
  0
SEQEND
  8
0
  0
POLYLINE
  8
EBENE_1
 62
    39
  6
CONTINUOUS
 66
     1
 40
0.003000
 41
0.003000
 70
     1
  0
VERTEX
  8
EBENE_1
 62
    39
  6
CONTINUOUS
 10
-2.132287
 20
0.926449
  0
VERTEX
  8
EBENE_1
 62
    39
  6
CONTINUOUS
 10
-2.218547
 20
0.831563
  0
VERTEX
  8
EBENE_1
 62
    39
  6
CONTINUOUS
 10
-2.218547
 20
0.762559
  0
VERTEX
  8
EBENE_1
 62
    39
  6
CONTINUOUS
 10
-2.132287
 20
0.667673
  0
VERTEX
  8
EBENE_1
 62
    39
  6
CONTINUOUS
 10
-2.046031
 20
0.762559
  0
VERTEX
  8
EBENE_1
 62
    39
  6
CONTINUOUS
 10
-2.046031
 20
0.831563
  0
SEQEND
  8
0
  0
POLYLINE
  8
EBENE_1
 62
    39
  6
CONTINUOUS
 66
     1
 40
0.003000
 41
0.003000
 70
     1
  0
VERTEX
  8
EBENE_1
 62
    39
  6
CONTINUOUS
 10
-2.190083
 20
0.843074
  0
VERTEX
  8
EBENE_1
 62
    39
  6
CONTINUOUS
 10
-2.192230
 20
0.838476
  0
VERTEX
  8
EBENE_1
 62
    39
  6
CONTINUOUS
 10
-2.196213
 20
0.838477
  0
VERTEX
  8
EBENE_1
 62
    39
  6
CONTINUOUS
 10
-2.198358
 20
0.843075
  0
VERTEX
  8
EBENE_1
 62
    39
  6
CONTINUOUS
 10
-2.196211
 20
0.847673
  0
VERTEX
  8
EBENE_1
 62
    39
  6
CONTINUOUS
 10
-2.192229
 20
0.847673
  0
VERTEX
  8
EBENE_1
 62
    39
  6
CONTINUOUS
 10
-2.190083
 20
0.843075
  0
SEQEND
  8
0
  0
POLYLINE
  8
EBENE_1
 62
    39
  6
CONTINUOUS
 66
     1
 40
0.003000
 41
0.003000
 70
     1
  0
VERTEX
  8
EBENE_1
 62
    39
  6
CONTINUOUS
 10
-2.067512
 20
0.845523
  0
VERTEX
  8
EBENE_1
 62
    39
  6
CONTINUOUS
 10
-2.069659
 20
0.840921
  0
VERTEX
  8
EBENE_1
 62
    39
  6
CONTINUOUS
 10
-2.073642
 20
0.840922
  0
VERTEX
  8
EBENE_1
 62
    39
  6
CONTINUOUS
 10
-2.075787
 20
0.845524
  0
VERTEX
  8
EBENE_1
 62
    39
  6
CONTINUOUS
 10
-2.073640
 20
0.850126
  0
VERTEX
  8
EBENE_1
 62
    39
  6
CONTINUOUS
 10
-2.069658
 20
0.850125
  0
VERTEX
  8
EBENE_1
 62
    39
  6
CONTINUOUS
 10
-2.067512
 20
0.845524
  0
SEQEND
  8
0
  0
POLYLINE
  8
EBENE_1
 62
    39
  6
CONTINUOUS
 66
     1
 40
0.003000
 41
0.003000
 70
     1
  0
VERTEX
  8
EBENE_1
 62
    39
  6
CONTINUOUS
 10
-2.307315
 20
0.926449
  0
VERTEX
  8
EBENE_1
 62
    39
  6
CONTINUOUS
 10
-2.393571
 20
0.831563
  0
VERTEX
  8
EBENE_1
 62
    39
  6
CONTINUOUS
 10
-2.393571
 20
0.762559
  0
VERTEX
  8
EBENE_1
 62
    39
  6
CONTINUOUS
 10
-2.307315
 20
0.667673
  0
VERTEX
  8
EBENE_1
 62
    39
  6
CONTINUOUS
 10
-2.221055
 20
0.762559
  0
VERTEX
  8
EBENE_1
 62
    39
  6
CONTINUOUS
 10
-2.221055
 20
0.831563
  0
SEQEND
  8
0
  0
POLYLINE
  8
EBENE_1
 62
    39
  6
CONTINUOUS
 66
     1
 40
0.003000
 41
0.003000
 70
     1
  0
VERTEX
  8
EBENE_1
 62
    39
  6
CONTINUOUS
 10
-2.365106
 20
0.843074
  0
VERTEX
  8
EBENE_1
 62
    39
  6
CONTINUOUS
 10
-2.367254
 20
0.838476
  0
VERTEX
  8
EBENE_1
 62
    39
  6
CONTINUOUS
 10
-2.371236
 20
0.838477
  0
VERTEX
  8
EBENE_1
 62
    39
  6
CONTINUOUS
 10
-2.373382
 20
0.843075
  0
VERTEX
  8
EBENE_1
 62
    39
  6
CONTINUOUS
 10
-2.371235
 20
0.847673
  0
VERTEX
  8
EBENE_1
 62
    39
  6
CONTINUOUS
 10
-2.367252
 20
0.847673
  0
VERTEX
  8
EBENE_1
 62
    39
  6
CONTINUOUS
 10
-2.365106
 20
0.843075
  0
SEQEND
  8
0
  0
POLYLINE
  8
EBENE_1
 62
    39
  6
CONTINUOUS
 66
     1
 40
0.003000
 41
0.003000
 70
     1
  0
VERTEX
  8
EBENE_1
 62
    39
  6
CONTINUOUS
 10
-2.242535
 20
0.845523
  0
VERTEX
  8
EBENE_1
 62
    39
  6
CONTINUOUS
 10
-2.244685
 20
0.840921
  0
VERTEX
  8
EBENE_1
 62
    39
  6
CONTINUOUS
 10
-2.248671
 20
0.840922
  0
VERTEX
  8
EBENE_1
 62
    39
  6
CONTINUOUS
 10
-2.250819
 20
0.845524
  0
VERTEX
  8
EBENE_1
 62
    39
  6
CONTINUOUS
 10
-2.248670
 20
0.850126
  0
VERTEX
  8
EBENE_1
 62
    39
  6
CONTINUOUS
 10
-2.244683
 20
0.850125
  0
VERTEX
  8
EBENE_1
 62
    39
  6
CONTINUOUS
 10
-2.242535
 20
0.845524
  0
SEQEND
  8
0
  0
POLYLINE
  8
EBENE_1
 62
    39
  6
CONTINUOUS
 66
     1
 40
0.003000
 41
0.003000
 70
     1
  0
VERTEX
  8
EBENE_1
 62
    39
  6
CONTINUOUS
 10
-1.780433
 20
0.926449
  0
VERTEX
  8
EBENE_1
 62
    39
  6
CONTINUOUS
 10
-1.866693
 20
0.831563
  0
VERTEX
  8
EBENE_1
 62
    39
  6
CONTINUOUS
 10
-1.866693
 20
0.762559
  0
VERTEX
  8
EBENE_1
 62
    39
  6
CONTINUOUS
 10
-1.780433
 20
0.667673
  0
VERTEX
  8
EBENE_1
 62
    39
  6
CONTINUOUS
 10
-1.694173
 20
0.762559
  0
VERTEX
  8
EBENE_1
 62
    39
  6
CONTINUOUS
 10
-1.694173
 20
0.831563
  0
SEQEND
  8
0
  0
POLYLINE
  8
EBENE_1
 62
    39
  6
CONTINUOUS
 66
     1
 40
0.003000
 41
0.003000
 70
     1
  0
VERTEX
  8
EBENE_1
 62
    39
  6
CONTINUOUS
 10
-1.838224
 20
0.843074
  0
VERTEX
  8
EBENE_1
 62
    39
  6
CONTINUOUS
 10
-1.840374
 20
0.838476
  0
VERTEX
  8
EBENE_1
 62
    39
  6
CONTINUOUS
 10
-1.844360
 20
0.838477
  0
VERTEX
  8
EBENE_1
 62
    39
  6
CONTINUOUS
 10
-1.846508
 20
0.843075
  0
VERTEX
  8
EBENE_1
 62
    39
  6
CONTINUOUS
 10
-1.844359
 20
0.847673
  0
VERTEX
  8
EBENE_1
 62
    39
  6
CONTINUOUS
 10
-1.840372
 20
0.847673
  0
VERTEX
  8
EBENE_1
 62
    39
  6
CONTINUOUS
 10
-1.838224
 20
0.843075
  0
SEQEND
  8
0
  0
POLYLINE
  8
EBENE_1
 62
    39
  6
CONTINUOUS
 66
     1
 40
0.003000
 41
0.003000
 70
     1
  0
VERTEX
  8
EBENE_1
 62
    39
  6
CONTINUOUS
 10
-1.715657
 20
0.845523
  0
VERTEX
  8
EBENE_1
 62
    39
  6
CONTINUOUS
 10
-1.717805
 20
0.840921
  0
VERTEX
  8
EBENE_1
 62
    39
  6
CONTINUOUS
 10
-1.721788
 20
0.840922
  0
VERTEX
  8
EBENE_1
 62
    39
  6
CONTINUOUS
 10
-1.723933
 20
0.845524
  0
VERTEX
  8
EBENE_1
 62
    39
  6
CONTINUOUS
 10
-1.721786
 20
0.850126
  0
VERTEX
  8
EBENE_1
 62
    39
  6
CONTINUOUS
 10
-1.717803
 20
0.850125
  0
VERTEX
  8
EBENE_1
 62
    39
  6
CONTINUOUS
 10
-1.715657
 20
0.845524
  0
SEQEND
  8
0
  0
POLYLINE
  8
EBENE_1
 62
    39
  6
CONTINUOUS
 66
     1
 40
0.003000
 41
0.003000
 70
     1
  0
VERTEX
  8
EBENE_1
 62
    39
  6
CONTINUOUS
 10
-1.603602
 20
0.926449
  0
VERTEX
  8
EBENE_1
 62
    39
  6
CONTINUOUS
 10
-1.689862
 20
0.831563
  0
VERTEX
  8
EBENE_1
 62
    39
  6
CONTINUOUS
 10
-1.689862
 20
0.762559
  0
VERTEX
  8
EBENE_1
 62
    39
  6
CONTINUOUS
 10
-1.603602
 20
0.667673
  0
VERTEX
  8
EBENE_1
 62
    39
  6
CONTINUOUS
 10
-1.517346
 20
0.762559
  0
VERTEX
  8
EBENE_1
 62
    39
  6
CONTINUOUS
 10
-1.517346
 20
0.831563
  0
SEQEND
  8
0
  0
POLYLINE
  8
EBENE_1
 62
    39
  6
CONTINUOUS
 66
     1
 40
0.003000
 41
0.003000
 70
     1
  0
VERTEX
  8
EBENE_1
 62
    39
  6
CONTINUOUS
 10
-1.661398
 20
0.843074
  0
VERTEX
  8
EBENE_1
 62
    39
  6
CONTINUOUS
 10
-1.663545
 20
0.838476
  0
VERTEX
  8
EBENE_1
 62
    39
  6
CONTINUOUS
 10
-1.667528
 20
0.838477
  0
VERTEX
  8
EBENE_1
 62
    39
  6
CONTINUOUS
 10
-1.669673
 20
0.843075
  0
VERTEX
  8
EBENE_1
 62
    39
  6
CONTINUOUS
 10
-1.667526
 20
0.847673
  0
VERTEX
  8
EBENE_1
 62
    39
  6
CONTINUOUS
 10
-1.663544
 20
0.847673
  0
VERTEX
  8
EBENE_1
 62
    39
  6
CONTINUOUS
 10
-1.661398
 20
0.843075
  0
SEQEND
  8
0
  0
POLYLINE
  8
EBENE_1
 62
    39
  6
CONTINUOUS
 66
     1
 40
0.003000
 41
0.003000
 70
     1
  0
VERTEX
  8
EBENE_1
 62
    39
  6
CONTINUOUS
 10
-1.538827
 20
0.845523
  0
VERTEX
  8
EBENE_1
 62
    39
  6
CONTINUOUS
 10
-1.540974
 20
0.840921
  0
VERTEX
  8
EBENE_1
 62
    39
  6
CONTINUOUS
 10
-1.544957
 20
0.840922
  0
VERTEX
  8
EBENE_1
 62
    39
  6
CONTINUOUS
 10
-1.547102
 20
0.845524
  0
VERTEX
  8
EBENE_1
 62
    39
  6
CONTINUOUS
 10
-1.544955
 20
0.850126
  0
VERTEX
  8
EBENE_1
 62
    39
  6
CONTINUOUS
 10
-1.540973
 20
0.850125
  0
VERTEX
  8
EBENE_1
 62
    39
  6
CONTINUOUS
 10
-1.538827
 20
0.845524
  0
SEQEND
  8
0
  0
POLYLINE
  8
EBENE_1
 62
    39
  6
CONTINUOUS
 66
     1
 40
0.003000
 41
0.003000
 70
     1
  0
VERTEX
  8
EBENE_1
 62
    39
  6
CONTINUOUS
 10
-1.427929
 20
0.929937
  0
VERTEX
  8
EBENE_1
 62
    39
  6
CONTINUOUS
 10
-1.514189
 20
0.835055
  0
VERTEX
  8
EBENE_1
 62
    39
  6
CONTINUOUS
 10
-1.514189
 20
0.766047
  0
VERTEX
  8
EBENE_1
 62
    39
  6
CONTINUOUS
 10
-1.427929
 20
0.671161
  0
VERTEX
  8
EBENE_1
 62
    39
  6
CONTINUOUS
 10
-1.341673
 20
0.766047
  0
VERTEX
  8
EBENE_1
 62
    39
  6
CONTINUOUS
 10
-1.341673
 20
0.835055
  0
SEQEND
  8
0
  0
POLYLINE
  8
EBENE_1
 62
    39
  6
CONTINUOUS
 66
     1
 40
0.003000
 41
0.003000
 70
     1
  0
VERTEX
  8
EBENE_1
 62
    39
  6
CONTINUOUS
 10
-1.485724
 20
0.846562
  0
VERTEX
  8
EBENE_1
 62
    39
  6
CONTINUOUS
 10
-1.487872
 20
0.841964
  0
VERTEX
  8
EBENE_1
 62
    39
  6
CONTINUOUS
 10
-1.491854
 20
0.841965
  0
VERTEX
  8
EBENE_1
 62
    39
  6
CONTINUOUS
 10
-1.494000
 20
0.846563
  0
VERTEX
  8
EBENE_1
 62
    39
  6
CONTINUOUS
 10
-1.491853
 20
0.851162
  0
VERTEX
  8
EBENE_1
 62
    39
  6
CONTINUOUS
 10
-1.487870
 20
0.851161
  0
VERTEX
  8
EBENE_1
 62
    39
  6
CONTINUOUS
 10
-1.485724
 20
0.846563
  0
SEQEND
  8
0
  0
POLYLINE
  8
EBENE_1
 62
    39
  6
CONTINUOUS
 66
     1
 40
0.003000
 41
0.003000
 70
     1
  0
VERTEX
  8
EBENE_1
 62
    39
  6
CONTINUOUS
 10
-1.363154
 20
0.849015
  0
VERTEX
  8
EBENE_1
 62
    39
  6
CONTINUOUS
 10
-1.365301
 20
0.844417
  0
VERTEX
  8
EBENE_1
 62
    39
  6
CONTINUOUS
 10
-1.369284
 20
0.844418
  0
VERTEX
  8
EBENE_1
 62
    39
  6
CONTINUOUS
 10
-1.371429
 20
0.849016
  0
VERTEX
  8
EBENE_1
 62
    39
  6
CONTINUOUS
 10
-1.369282
 20
0.853614
  0
VERTEX
  8
EBENE_1
 62
    39
  6
CONTINUOUS
 10
-1.365299
 20
0.853614
  0
VERTEX
  8
EBENE_1
 62
    39
  6
CONTINUOUS
 10
-1.363154
 20
0.849016
  0
SEQEND
  8
0
  0
POLYLINE
  8
EBENE_1
 62
    39
  6
CONTINUOUS
 66
     1
 40
0.003000
 41
0.003000
 70
     1
  0
VERTEX
  8
EBENE_1
 62
    39
  6
CONTINUOUS
 10
-1.251102
 20
0.929937
  0
VERTEX
  8
EBENE_1
 62
    39
  6
CONTINUOUS
 10
-1.337358
 20
0.835055
  0
VERTEX
  8
EBENE_1
 62
    39
  6
CONTINUOUS
 10
-1.337358
 20
0.766047
  0
VERTEX
  8
EBENE_1
 62
    39
  6
CONTINUOUS
 10
-1.251102
 20
0.671161
  0
VERTEX
  8
EBENE_1
 62
    39
  6
CONTINUOUS
 10
-1.164843
 20
0.766047
  0
VERTEX
  8
EBENE_1
 62
    39
  6
CONTINUOUS
 10
-1.164843
 20
0.835055
  0
SEQEND
  8
0
  0
POLYLINE
  8
EBENE_1
 62
    39
  6
CONTINUOUS
 66
     1
 40
0.003000
 41
0.003000
 70
     1
  0
VERTEX
  8
EBENE_1
 62
    39
  6
CONTINUOUS
 10
-1.308894
 20
0.846562
  0
VERTEX
  8
EBENE_1
 62
    39
  6
CONTINUOUS
 10
-1.311041
 20
0.841964
  0
VERTEX
  8
EBENE_1
 62
    39
  6
CONTINUOUS
 10
-1.315024
 20
0.841965
  0
VERTEX
  8
EBENE_1
 62
    39
  6
CONTINUOUS
 10
-1.317169
 20
0.846563
  0
VERTEX
  8
EBENE_1
 62
    39
  6
CONTINUOUS
 10
-1.315022
 20
0.851162
  0
VERTEX
  8
EBENE_1
 62
    39
  6
CONTINUOUS
 10
-1.311040
 20
0.851161
  0
VERTEX
  8
EBENE_1
 62
    39
  6
CONTINUOUS
 10
-1.308894
 20
0.846563
  0
SEQEND
  8
0
  0
POLYLINE
  8
EBENE_1
 62
    39
  6
CONTINUOUS
 66
     1
 40
0.003000
 41
0.003000
 70
     1
  0
VERTEX
  8
EBENE_1
 62
    39
  6
CONTINUOUS
 10
-1.186323
 20
0.849015
  0
VERTEX
  8
EBENE_1
 62
    39
  6
CONTINUOUS
 10
-1.188472
 20
0.844417
  0
VERTEX
  8
EBENE_1
 62
    39
  6
CONTINUOUS
 10
-1.192459
 20
0.844418
  0
VERTEX
  8
EBENE_1
 62
    39
  6
CONTINUOUS
 10
-1.194606
 20
0.849016
  0
VERTEX
  8
EBENE_1
 62
    39
  6
CONTINUOUS
 10
-1.192457
 20
0.853614
  0
VERTEX
  8
EBENE_1
 62
    39
  6
CONTINUOUS
 10
-1.188471
 20
0.853614
  0
VERTEX
  8
EBENE_1
 62
    39
  6
CONTINUOUS
 10
-1.186323
 20
0.849016
  0
SEQEND
  8
0
  0
POLYLINE
  8
EBENE_1
 62
    39
  6
CONTINUOUS
 66
     1
 40
0.003000
 41
0.003000
 70
     1
  0
VERTEX
  8
EBENE_1
 62
    39
  6
CONTINUOUS
 10
-1.074272
 20
0.929937
  0
VERTEX
  8
EBENE_1
 62
    39
  6
CONTINUOUS
 10
-1.160528
 20
0.835055
  0
VERTEX
  8
EBENE_1
 62
    39
  6
CONTINUOUS
 10
-1.160528
 20
0.766047
  0
VERTEX
  8
EBENE_1
 62
    39
  6
CONTINUOUS
 10
-1.074272
 20
0.671161
  0
VERTEX
  8
EBENE_1
 62
    39
  6
CONTINUOUS
 10
-0.988012
 20
0.766047
  0
VERTEX
  8
EBENE_1
 62
    39
  6
CONTINUOUS
 10
-0.988012
 20
0.835055
  0
SEQEND
  8
0
  0
POLYLINE
  8
EBENE_1
 62
    39
  6
CONTINUOUS
 66
     1
 40
0.003000
 41
0.003000
 70
     1
  0
VERTEX
  8
EBENE_1
 62
    39
  6
CONTINUOUS
 10
-1.132063
 20
0.846562
  0
VERTEX
  8
EBENE_1
 62
    39
  6
CONTINUOUS
 10
-1.134211
 20
0.841964
  0
VERTEX
  8
EBENE_1
 62
    39
  6
CONTINUOUS
 10
-1.138193
 20
0.841965
  0
VERTEX
  8
EBENE_1
 62
    39
  6
CONTINUOUS
 10
-1.140339
 20
0.846563
  0
VERTEX
  8
EBENE_1
 62
    39
  6
CONTINUOUS
 10
-1.138191
 20
0.851162
  0
VERTEX
  8
EBENE_1
 62
    39
  6
CONTINUOUS
 10
-1.134209
 20
0.851161
  0
VERTEX
  8
EBENE_1
 62
    39
  6
CONTINUOUS
 10
-1.132063
 20
0.846563
  0
SEQEND
  8
0
  0
POLYLINE
  8
EBENE_1
 62
    39
  6
CONTINUOUS
 66
     1
 40
0.003000
 41
0.003000
 70
     1
  0
VERTEX
  8
EBENE_1
 62
    39
  6
CONTINUOUS
 10
-1.009492
 20
0.849015
  0
VERTEX
  8
EBENE_1
 62
    39
  6
CONTINUOUS
 10
-1.011642
 20
0.844417
  0
VERTEX
  8
EBENE_1
 62
    39
  6
CONTINUOUS
 10
-1.015628
 20
0.844418
  0
VERTEX
  8
EBENE_1
 62
    39
  6
CONTINUOUS
 10
-1.017776
 20
0.849016
  0
VERTEX
  8
EBENE_1
 62
    39
  6
CONTINUOUS
 10
-1.015626
 20
0.853614
  0
VERTEX
  8
EBENE_1
 62
    39
  6
CONTINUOUS
 10
-1.011640
 20
0.853614
  0
VERTEX
  8
EBENE_1
 62
    39
  6
CONTINUOUS
 10
-1.009492
 20
0.849016
  0
SEQEND
  8
0
  0
POLYLINE
  8
EBENE_1
 62
    39
  6
CONTINUOUS
 66
     1
 40
0.003000
 41
0.003000
 70
     1
  0
VERTEX
  8
EBENE_1
 62
    39
  6
CONTINUOUS
 10
-1.869421
 20
1.010398
  0
VERTEX
  8
EBENE_1
 62
    39
  6
CONTINUOUS
 10
-1.955681
 20
0.915512
  0
VERTEX
  8
EBENE_1
 62
    39
  6
CONTINUOUS
 10
-1.955681
 20
0.846504
  0
VERTEX
  8
EBENE_1
 62
    39
  6
CONTINUOUS
 10
-1.869421
 20
0.751622
  0
VERTEX
  8
EBENE_1
 62
    39
  6
CONTINUOUS
 10
-1.783161
 20
0.846504
  0
VERTEX
  8
EBENE_1
 62
    39
  6
CONTINUOUS
 10
-1.783161
 20
0.915512
  0
SEQEND
  8
0
  0
POLYLINE
  8
EBENE_1
 62
    39
  6
CONTINUOUS
 66
     1
 40
0.003000
 41
0.003000
 70
     1
  0
VERTEX
  8
EBENE_1
 62
    39
  6
CONTINUOUS
 10
-1.927213
 20
0.927019
  0
VERTEX
  8
EBENE_1
 62
    39
  6
CONTINUOUS
 10
-1.929360
 20
0.922417
  0
VERTEX
  8
EBENE_1
 62
    39
  6
CONTINUOUS
 10
-1.933343
 20
0.922418
  0
VERTEX
  8
EBENE_1
 62
    39
  6
CONTINUOUS
 10
-1.935488
 20
0.927020
  0
VERTEX
  8
EBENE_1
 62
    39
  6
CONTINUOUS
 10
-1.933341
 20
0.931622
  0
VERTEX
  8
EBENE_1
 62
    39
  6
CONTINUOUS
 10
-1.929358
 20
0.931622
  0
VERTEX
  8
EBENE_1
 62
    39
  6
CONTINUOUS
 10
-1.927213
 20
0.927020
  0
SEQEND
  8
0
  0
POLYLINE
  8
EBENE_1
 62
    39
  6
CONTINUOUS
 66
     1
 40
0.003000
 41
0.003000
 70
     1
  0
VERTEX
  8
EBENE_1
 62
    39
  6
CONTINUOUS
 10
-1.804646
 20
0.929471
  0
VERTEX
  8
EBENE_1
 62
    39
  6
CONTINUOUS
 10
-1.806793
 20
0.924874
  0
VERTEX
  8
EBENE_1
 62
    39
  6
CONTINUOUS
 10
-1.810776
 20
0.924874
  0
VERTEX
  8
EBENE_1
 62
    39
  6
CONTINUOUS
 10
-1.812921
 20
0.929473
  0
VERTEX
  8
EBENE_1
 62
    39
  6
CONTINUOUS
 10
-1.810774
 20
0.934071
  0
VERTEX
  8
EBENE_1
 62
    39
  6
CONTINUOUS
 10
-1.806792
 20
0.934071
  0
VERTEX
  8
EBENE_1
 62
    39
  6
CONTINUOUS
 10
-1.804646
 20
0.929472
  0
SEQEND
  8
0
  0
POLYLINE
  8
EBENE_1
 62
    39
  6
CONTINUOUS
 66
     1
 40
0.003000
 41
0.003000
 70
     1
  0
VERTEX
  8
EBENE_1
 62
    39
  6
CONTINUOUS
 10
-2.044445
 20
1.010398
  0
VERTEX
  8
EBENE_1
 62
    39
  6
CONTINUOUS
 10
-2.130705
 20
0.915512
  0
VERTEX
  8
EBENE_1
 62
    39
  6
CONTINUOUS
 10
-2.130705
 20
0.846504
  0
VERTEX
  8
EBENE_1
 62
    39
  6
CONTINUOUS
 10
-2.044445
 20
0.751622
  0
VERTEX
  8
EBENE_1
 62
    39
  6
CONTINUOUS
 10
-1.958185
 20
0.846504
  0
VERTEX
  8
EBENE_1
 62
    39
  6
CONTINUOUS
 10
-1.958185
 20
0.915512
  0
SEQEND
  8
0
  0
POLYLINE
  8
EBENE_1
 62
    39
  6
CONTINUOUS
 66
     1
 40
0.003000
 41
0.003000
 70
     1
  0
VERTEX
  8
EBENE_1
 62
    39
  6
CONTINUOUS
 10
-2.102236
 20
0.927019
  0
VERTEX
  8
EBENE_1
 62
    39
  6
CONTINUOUS
 10
-2.104386
 20
0.922417
  0
VERTEX
  8
EBENE_1
 62
    39
  6
CONTINUOUS
 10
-2.108372
 20
0.922418
  0
VERTEX
  8
EBENE_1
 62
    39
  6
CONTINUOUS
 10
-2.110520
 20
0.927020
  0
VERTEX
  8
EBENE_1
 62
    39
  6
CONTINUOUS
 10
-2.108370
 20
0.931622
  0
VERTEX
  8
EBENE_1
 62
    39
  6
CONTINUOUS
 10
-2.104384
 20
0.931622
  0
VERTEX
  8
EBENE_1
 62
    39
  6
CONTINUOUS
 10
-2.102236
 20
0.927020
  0
SEQEND
  8
0
  0
POLYLINE
  8
EBENE_1
 62
    39
  6
CONTINUOUS
 66
     1
 40
0.003000
 41
0.003000
 70
     1
  0
VERTEX
  8
EBENE_1
 62
    39
  6
CONTINUOUS
 10
-1.979669
 20
0.929471
  0
VERTEX
  8
EBENE_1
 62
    39
  6
CONTINUOUS
 10
-1.981817
 20
0.924874
  0
VERTEX
  8
EBENE_1
 62
    39
  6
CONTINUOUS
 10
-1.985799
 20
0.924874
  0
VERTEX
  8
EBENE_1
 62
    39
  6
CONTINUOUS
 10
-1.987945
 20
0.929473
  0
VERTEX
  8
EBENE_1
 62
    39
  6
CONTINUOUS
 10
-1.985798
 20
0.934071
  0
VERTEX
  8
EBENE_1
 62
    39
  6
CONTINUOUS
 10
-1.981815
 20
0.934071
  0
VERTEX
  8
EBENE_1
 62
    39
  6
CONTINUOUS
 10
-1.979669
 20
0.929472
  0
SEQEND
  8
0
  0
POLYLINE
  8
EBENE_1
 62
    39
  6
CONTINUOUS
 66
     1
 40
0.003000
 41
0.003000
 70
     1
  0
VERTEX
  8
EBENE_1
 62
    39
  6
CONTINUOUS
 10
-2.219469
 20
1.010398
  0
VERTEX
  8
EBENE_1
 62
    39
  6
CONTINUOUS
 10
-2.305728
 20
0.915512
  0
VERTEX
  8
EBENE_1
 62
    39
  6
CONTINUOUS
 10
-2.305728
 20
0.846504
  0
VERTEX
  8
EBENE_1
 62
    39
  6
CONTINUOUS
 10
-2.219469
 20
0.751622
  0
VERTEX
  8
EBENE_1
 62
    39
  6
CONTINUOUS
 10
-2.133213
 20
0.846504
  0
VERTEX
  8
EBENE_1
 62
    39
  6
CONTINUOUS
 10
-2.133213
 20
0.915512
  0
SEQEND
  8
0
  0
POLYLINE
  8
EBENE_1
 62
    39
  6
CONTINUOUS
 66
     1
 40
0.003000
 41
0.003000
 70
     1
  0
VERTEX
  8
EBENE_1
 62
    39
  6
CONTINUOUS
 10
-2.277264
 20
0.927019
  0
VERTEX
  8
EBENE_1
 62
    39
  6
CONTINUOUS
 10
-2.279411
 20
0.922417
  0
VERTEX
  8
EBENE_1
 62
    39
  6
CONTINUOUS
 10
-2.283394
 20
0.922418
  0
VERTEX
  8
EBENE_1
 62
    39
  6
CONTINUOUS
 10
-2.285539
 20
0.927020
  0
VERTEX
  8
EBENE_1
 62
    39
  6
CONTINUOUS
 10
-2.283392
 20
0.931622
  0
VERTEX
  8
EBENE_1
 62
    39
  6
CONTINUOUS
 10
-2.279410
 20
0.931622
  0
VERTEX
  8
EBENE_1
 62
    39
  6
CONTINUOUS
 10
-2.277264
 20
0.927020
  0
SEQEND
  8
0
  0
POLYLINE
  8
EBENE_1
 62
    39
  6
CONTINUOUS
 66
     1
 40
0.003000
 41
0.003000
 70
     1
  0
VERTEX
  8
EBENE_1
 62
    39
  6
CONTINUOUS
 10
-2.154693
 20
0.929471
  0
VERTEX
  8
EBENE_1
 62
    39
  6
CONTINUOUS
 10
-2.156840
 20
0.924874
  0
VERTEX
  8
EBENE_1
 62
    39
  6
CONTINUOUS
 10
-2.160823
 20
0.924874
  0
VERTEX
  8
EBENE_1
 62
    39
  6
CONTINUOUS
 10
-2.162969
 20
0.929473
  0
VERTEX
  8
EBENE_1
 62
    39
  6
CONTINUOUS
 10
-2.160821
 20
0.934071
  0
VERTEX
  8
EBENE_1
 62
    39
  6
CONTINUOUS
 10
-2.156839
 20
0.934071
  0
VERTEX
  8
EBENE_1
 62
    39
  6
CONTINUOUS
 10
-2.154693
 20
0.929472
  0
SEQEND
  8
0
  0
POLYLINE
  8
EBENE_1
 62
    39
  6
CONTINUOUS
 66
     1
 40
0.003000
 41
0.003000
 70
     1
  0
VERTEX
  8
EBENE_1
 62
    39
  6
CONTINUOUS
 10
-2.394496
 20
1.010398
  0
VERTEX
  8
EBENE_1
 62
    39
  6
CONTINUOUS
 10
-2.480752
 20
0.915512
  0
VERTEX
  8
EBENE_1
 62
    39
  6
CONTINUOUS
 10
-2.480752
 20
0.846504
  0
VERTEX
  8
EBENE_1
 62
    39
  6
CONTINUOUS
 10
-2.394496
 20
0.751622
  0
VERTEX
  8
EBENE_1
 62
    39
  6
CONTINUOUS
 10
-2.308236
 20
0.846504
  0
VERTEX
  8
EBENE_1
 62
    39
  6
CONTINUOUS
 10
-2.308236
 20
0.915512
  0
SEQEND
  8
0
  0
POLYLINE
  8
EBENE_1
 62
    39
  6
CONTINUOUS
 66
     1
 40
0.003000
 41
0.003000
 70
     1
  0
VERTEX
  8
EBENE_1
 62
    39
  6
CONTINUOUS
 10
-2.452287
 20
0.927019
  0
VERTEX
  8
EBENE_1
 62
    39
  6
CONTINUOUS
 10
-2.454435
 20
0.922417
  0
VERTEX
  8
EBENE_1
 62
    39
  6
CONTINUOUS
 10
-2.458417
 20
0.922418
  0
VERTEX
  8
EBENE_1
 62
    39
  6
CONTINUOUS
 10
-2.460563
 20
0.927020
  0
VERTEX
  8
EBENE_1
 62
    39
  6
CONTINUOUS
 10
-2.458416
 20
0.931622
  0
VERTEX
  8
EBENE_1
 62
    39
  6
CONTINUOUS
 10
-2.454433
 20
0.931622
  0
VERTEX
  8
EBENE_1
 62
    39
  6
CONTINUOUS
 10
-2.452287
 20
0.927020
  0
SEQEND
  8
0
  0
POLYLINE
  8
EBENE_1
 62
    39
  6
CONTINUOUS
 66
     1
 40
0.003000
 41
0.003000
 70
     1
  0
VERTEX
  8
EBENE_1
 62
    39
  6
CONTINUOUS
 10
-2.329717
 20
0.929471
  0
VERTEX
  8
EBENE_1
 62
    39
  6
CONTINUOUS
 10
-2.331866
 20
0.924874
  0
VERTEX
  8
EBENE_1
 62
    39
  6
CONTINUOUS
 10
-2.335852
 20
0.924874
  0
VERTEX
  8
EBENE_1
 62
    39
  6
CONTINUOUS
 10
-2.338000
 20
0.929473
  0
VERTEX
  8
EBENE_1
 62
    39
  6
CONTINUOUS
 10
-2.335851
 20
0.934071
  0
VERTEX
  8
EBENE_1
 62
    39
  6
CONTINUOUS
 10
-2.331864
 20
0.934071
  0
VERTEX
  8
EBENE_1
 62
    39
  6
CONTINUOUS
 10
-2.329717
 20
0.929472
  0
SEQEND
  8
0
  0
POLYLINE
  8
EBENE_1
 62
    39
  6
CONTINUOUS
 66
     1
 40
0.003000
 41
0.003000
 70
     1
  0
VERTEX
  8
EBENE_1
 62
    39
  6
CONTINUOUS
 10
-1.692591
 20
1.010398
  0
VERTEX
  8
EBENE_1
 62
    39
  6
CONTINUOUS
 10
-1.778850
 20
0.915512
  0
VERTEX
  8
EBENE_1
 62
    39
  6
CONTINUOUS
 10
-1.778850
 20
0.846504
  0
VERTEX
  8
EBENE_1
 62
    39
  6
CONTINUOUS
 10
-1.692591
 20
0.751622
  0
VERTEX
  8
EBENE_1
 62
    39
  6
CONTINUOUS
 10
-1.606331
 20
0.846504
  0
VERTEX
  8
EBENE_1
 62
    39
  6
CONTINUOUS
 10
-1.606331
 20
0.915512
  0
SEQEND
  8
0
  0
POLYLINE
  8
EBENE_1
 62
    39
  6
CONTINUOUS
 66
     1
 40
0.003000
 41
0.003000
 70
     1
  0
VERTEX
  8
EBENE_1
 62
    39
  6
CONTINUOUS
 10
-1.750382
 20
0.927019
  0
VERTEX
  8
EBENE_1
 62
    39
  6
CONTINUOUS
 10
-1.752531
 20
0.922417
  0
VERTEX
  8
EBENE_1
 62
    39
  6
CONTINUOUS
 10
-1.756518
 20
0.922418
  0
VERTEX
  8
EBENE_1
 62
    39
  6
CONTINUOUS
 10
-1.758665
 20
0.927020
  0
VERTEX
  8
EBENE_1
 62
    39
  6
CONTINUOUS
 10
-1.756516
 20
0.931622
  0
VERTEX
  8
EBENE_1
 62
    39
  6
CONTINUOUS
 10
-1.752530
 20
0.931622
  0
VERTEX
  8
EBENE_1
 62
    39
  6
CONTINUOUS
 10
-1.750382
 20
0.927020
  0
SEQEND
  8
0
  0
POLYLINE
  8
EBENE_1
 62
    39
  6
CONTINUOUS
 66
     1
 40
0.003000
 41
0.003000
 70
     1
  0
VERTEX
  8
EBENE_1
 62
    39
  6
CONTINUOUS
 10
-1.627815
 20
0.929471
  0
VERTEX
  8
EBENE_1
 62
    39
  6
CONTINUOUS
 10
-1.629963
 20
0.924874
  0
VERTEX
  8
EBENE_1
 62
    39
  6
CONTINUOUS
 10
-1.633945
 20
0.924874
  0
VERTEX
  8
EBENE_1
 62
    39
  6
CONTINUOUS
 10
-1.636091
 20
0.929473
  0
VERTEX
  8
EBENE_1
 62
    39
  6
CONTINUOUS
 10
-1.633943
 20
0.934071
  0
VERTEX
  8
EBENE_1
 62
    39
  6
CONTINUOUS
 10
-1.629961
 20
0.934071
  0
VERTEX
  8
EBENE_1
 62
    39
  6
CONTINUOUS
 10
-1.627815
 20
0.929472
  0
SEQEND
  8
0
  0
POLYLINE
  8
EBENE_1
 62
    39
  6
CONTINUOUS
 66
     1
 40
0.003000
 41
0.003000
 70
     1
  0
VERTEX
  8
EBENE_1
 62
    39
  6
CONTINUOUS
 10
-1.516917
 20
1.013886
  0
VERTEX
  8
EBENE_1
 62
    39
  6
CONTINUOUS
 10
-1.603177
 20
0.919000
  0
VERTEX
  8
EBENE_1
 62
    39
  6
CONTINUOUS
 10
-1.603177
 20
0.849996
  0
VERTEX
  8
EBENE_1
 62
    39
  6
CONTINUOUS
 10
-1.516917
 20
0.755110
  0
VERTEX
  8
EBENE_1
 62
    39
  6
CONTINUOUS
 10
-1.430657
 20
0.849996
  0
VERTEX
  8
EBENE_1
 62
    39
  6
CONTINUOUS
 10
-1.430657
 20
0.919000
  0
SEQEND
  8
0
  0
POLYLINE
  8
EBENE_1
 62
    39
  6
CONTINUOUS
 66
     1
 40
0.003000
 41
0.003000
 70
     1
  0
VERTEX
  8
EBENE_1
 62
    39
  6
CONTINUOUS
 10
-1.574709
 20
0.930511
  0
VERTEX
  8
EBENE_1
 62
    39
  6
CONTINUOUS
 10
-1.576858
 20
0.925913
  0
VERTEX
  8
EBENE_1
 62
    39
  6
CONTINUOUS
 10
-1.580845
 20
0.925914
  0
VERTEX
  8
EBENE_1
 62
    39
  6
CONTINUOUS
 10
-1.582992
 20
0.930512
  0
VERTEX
  8
EBENE_1
 62
    39
  6
CONTINUOUS
 10
-1.580843
 20
0.935110
  0
VERTEX
  8
EBENE_1
 62
    39
  6
CONTINUOUS
 10
-1.576857
 20
0.935110
  0
VERTEX
  8
EBENE_1
 62
    39
  6
CONTINUOUS
 10
-1.574709
 20
0.930512
  0
SEQEND
  8
0
  0
POLYLINE
  8
EBENE_1
 62
    39
  6
CONTINUOUS
 66
     1
 40
0.003000
 41
0.003000
 70
     1
  0
VERTEX
  8
EBENE_1
 62
    39
  6
CONTINUOUS
 10
-1.452142
 20
0.932964
  0
VERTEX
  8
EBENE_1
 62
    39
  6
CONTINUOUS
 10
-1.454289
 20
0.928366
  0
VERTEX
  8
EBENE_1
 62
    39
  6
CONTINUOUS
 10
-1.458272
 20
0.928366
  0
VERTEX
  8
EBENE_1
 62
    39
  6
CONTINUOUS
 10
-1.460417
 20
0.932965
  0
VERTEX
  8
EBENE_1
 62
    39
  6
CONTINUOUS
 10
-1.458270
 20
0.937563
  0
VERTEX
  8
EBENE_1
 62
    39
  6
CONTINUOUS
 10
-1.454288
 20
0.937563
  0
VERTEX
  8
EBENE_1
 62
    39
  6
CONTINUOUS
 10
-1.452142
 20
0.932965
  0
SEQEND
  8
0
  0
POLYLINE
  8
EBENE_1
 62
    39
  6
CONTINUOUS
 66
     1
 40
0.003000
 41
0.003000
 70
     1
  0
VERTEX
  8
EBENE_1
 62
    39
  6
CONTINUOUS
 10
-1.340087
 20
1.013886
  0
VERTEX
  8
EBENE_1
 62
    39
  6
CONTINUOUS
 10
-1.426346
 20
0.919000
  0
VERTEX
  8
EBENE_1
 62
    39
  6
CONTINUOUS
 10
-1.426346
 20
0.849996
  0
VERTEX
  8
EBENE_1
 62
    39
  6
CONTINUOUS
 10
-1.340087
 20
0.755110
  0
VERTEX
  8
EBENE_1
 62
    39
  6
CONTINUOUS
 10
-1.253831
 20
0.849996
  0
VERTEX
  8
EBENE_1
 62
    39
  6
CONTINUOUS
 10
-1.253831
 20
0.919000
  0
SEQEND
  8
0
  0
POLYLINE
  8
EBENE_1
 62
    39
  6
CONTINUOUS
 66
     1
 40
0.003000
 41
0.003000
 70
     1
  0
VERTEX
  8
EBENE_1
 62
    39
  6
CONTINUOUS
 10
-1.397882
 20
0.930511
  0
VERTEX
  8
EBENE_1
 62
    39
  6
CONTINUOUS
 10
-1.400029
 20
0.925913
  0
VERTEX
  8
EBENE_1
 62
    39
  6
CONTINUOUS
 10
-1.404012
 20
0.925914
  0
VERTEX
  8
EBENE_1
 62
    39
  6
CONTINUOUS
 10
-1.406157
 20
0.930512
  0
VERTEX
  8
EBENE_1
 62
    39
  6
CONTINUOUS
 10
-1.404010
 20
0.935110
  0
VERTEX
  8
EBENE_1
 62
    39
  6
CONTINUOUS
 10
-1.400028
 20
0.935110
  0
VERTEX
  8
EBENE_1
 62
    39
  6
CONTINUOUS
 10
-1.397882
 20
0.930512
  0
SEQEND
  8
0
  0
POLYLINE
  8
EBENE_1
 62
    39
  6
CONTINUOUS
 66
     1
 40
0.003000
 41
0.003000
 70
     1
  0
VERTEX
  8
EBENE_1
 62
    39
  6
CONTINUOUS
 10
-1.275311
 20
0.932964
  0
VERTEX
  8
EBENE_1
 62
    39
  6
CONTINUOUS
 10
-1.277459
 20
0.928366
  0
VERTEX
  8
EBENE_1
 62
    39
  6
CONTINUOUS
 10
-1.281441
 20
0.928366
  0
VERTEX
  8
EBENE_1
 62
    39
  6
CONTINUOUS
 10
-1.283587
 20
0.932965
  0
VERTEX
  8
EBENE_1
 62
    39
  6
CONTINUOUS
 10
-1.281439
 20
0.937563
  0
VERTEX
  8
EBENE_1
 62
    39
  6
CONTINUOUS
 10
-1.277457
 20
0.937563
  0
VERTEX
  8
EBENE_1
 62
    39
  6
CONTINUOUS
 10
-1.275311
 20
0.932965
  0
SEQEND
  8
0
  0
POLYLINE
  8
EBENE_1
 62
    39
  6
CONTINUOUS
 66
     1
 40
0.003000
 41
0.003000
 70
     1
  0
VERTEX
  8
EBENE_1
 62
    39
  6
CONTINUOUS
 10
-1.163256
 20
1.013886
  0
VERTEX
  8
EBENE_1
 62
    39
  6
CONTINUOUS
 10
-1.249516
 20
0.919000
  0
VERTEX
  8
EBENE_1
 62
    39
  6
CONTINUOUS
 10
-1.249516
 20
0.849996
  0
VERTEX
  8
EBENE_1
 62
    39
  6
CONTINUOUS
 10
-1.163256
 20
0.755110
  0
VERTEX
  8
EBENE_1
 62
    39
  6
CONTINUOUS
 10
-1.077000
 20
0.849996
  0
VERTEX
  8
EBENE_1
 62
    39
  6
CONTINUOUS
 10
-1.077000
 20
0.919000
  0
SEQEND
  8
0
  0
POLYLINE
  8
EBENE_1
 62
    39
  6
CONTINUOUS
 66
     1
 40
0.003000
 41
0.003000
 70
     1
  0
VERTEX
  8
EBENE_1
 62
    39
  6
CONTINUOUS
 10
-1.221051
 20
0.930511
  0
VERTEX
  8
EBENE_1
 62
    39
  6
CONTINUOUS
 10
-1.223199
 20
0.925913
  0
VERTEX
  8
EBENE_1
 62
    39
  6
CONTINUOUS
 10
-1.227181
 20
0.925914
  0
VERTEX
  8
EBENE_1
 62
    39
  6
CONTINUOUS
 10
-1.229327
 20
0.930512
  0
VERTEX
  8
EBENE_1
 62
    39
  6
CONTINUOUS
 10
-1.227180
 20
0.935110
  0
VERTEX
  8
EBENE_1
 62
    39
  6
CONTINUOUS
 10
-1.223197
 20
0.935110
  0
VERTEX
  8
EBENE_1
 62
    39
  6
CONTINUOUS
 10
-1.221051
 20
0.930512
  0
SEQEND
  8
0
  0
POLYLINE
  8
EBENE_1
 62
    39
  6
CONTINUOUS
 66
     1
 40
0.003000
 41
0.003000
 70
     1
  0
VERTEX
  8
EBENE_1
 62
    39
  6
CONTINUOUS
 10
-1.098480
 20
0.932964
  0
VERTEX
  8
EBENE_1
 62
    39
  6
CONTINUOUS
 10
-1.100628
 20
0.928366
  0
VERTEX
  8
EBENE_1
 62
    39
  6
CONTINUOUS
 10
-1.104610
 20
0.928366
  0
VERTEX
  8
EBENE_1
 62
    39
  6
CONTINUOUS
 10
-1.106756
 20
0.932965
  0
VERTEX
  8
EBENE_1
 62
    39
  6
CONTINUOUS
 10
-1.104609
 20
0.937563
  0
VERTEX
  8
EBENE_1
 62
    39
  6
CONTINUOUS
 10
-1.100626
 20
0.937563
  0
VERTEX
  8
EBENE_1
 62
    39
  6
CONTINUOUS
 10
-1.098480
 20
0.932965
  0
SEQEND
  8
0
  0
POLYLINE
  8
EBENE_1
 62
    39
  6
CONTINUOUS
 66
     1
 40
0.003000
 41
0.003000
 70
     1
  0
VERTEX
  8
EBENE_1
 62
    39
  6
CONTINUOUS
 10
-0.986429
 20
1.013886
  0
VERTEX
  8
EBENE_1
 62
    39
  6
CONTINUOUS
 10
-1.072685
 20
0.919000
  0
VERTEX
  8
EBENE_1
 62
    39
  6
CONTINUOUS
 10
-1.072685
 20
0.849996
  0
VERTEX
  8
EBENE_1
 62
    39
  6
CONTINUOUS
 10
-0.986429
 20
0.755110
  0
VERTEX
  8
EBENE_1
 62
    39
  6
CONTINUOUS
 10
-0.900169
 20
0.849996
  0
VERTEX
  8
EBENE_1
 62
    39
  6
CONTINUOUS
 10
-0.900169
 20
0.919000
  0
SEQEND
  8
0
  0
POLYLINE
  8
EBENE_1
 62
    39
  6
CONTINUOUS
 66
     1
 40
0.003000
 41
0.003000
 70
     1
  0
VERTEX
  8
EBENE_1
 62
    39
  6
CONTINUOUS
 10
-1.044220
 20
0.930511
  0
VERTEX
  8
EBENE_1
 62
    39
  6
CONTINUOUS
 10
-1.046368
 20
0.925913
  0
VERTEX
  8
EBENE_1
 62
    39
  6
CONTINUOUS
 10
-1.050351
 20
0.925914
  0
VERTEX
  8
EBENE_1
 62
    39
  6
CONTINUOUS
 10
-1.052496
 20
0.930512
  0
VERTEX
  8
EBENE_1
 62
    39
  6
CONTINUOUS
 10
-1.050349
 20
0.935110
  0
VERTEX
  8
EBENE_1
 62
    39
  6
CONTINUOUS
 10
-1.046366
 20
0.935110
  0
VERTEX
  8
EBENE_1
 62
    39
  6
CONTINUOUS
 10
-1.044220
 20
0.930512
  0
SEQEND
  8
0
  0
POLYLINE
  8
EBENE_1
 62
    39
  6
CONTINUOUS
 66
     1
 40
0.003000
 41
0.003000
 70
     1
  0
VERTEX
  8
EBENE_1
 62
    39
  6
CONTINUOUS
 10
-0.921650
 20
0.932964
  0
VERTEX
  8
EBENE_1
 62
    39
  6
CONTINUOUS
 10
-0.923799
 20
0.928366
  0
VERTEX
  8
EBENE_1
 62
    39
  6
CONTINUOUS
 10
-0.927785
 20
0.928366
  0
VERTEX
  8
EBENE_1
 62
    39
  6
CONTINUOUS
 10
-0.929933
 20
0.932965
  0
VERTEX
  8
EBENE_1
 62
    39
  6
CONTINUOUS
 10
-0.927784
 20
0.937563
  0
VERTEX
  8
EBENE_1
 62
    39
  6
CONTINUOUS
 10
-0.923798
 20
0.937563
  0
VERTEX
  8
EBENE_1
 62
    39
  6
CONTINUOUS
 10
-0.921650
 20
0.932965
  0
SEQEND
  8
0
  0
POLYLINE
  8
EBENE_1
 62
    39
  6
CONTINUOUS
 66
     1
 40
0.003000
 41
0.003000
 70
     1
  0
VERTEX
  8
EBENE_1
 62
    39
  6
CONTINUOUS
 10
-1.781039
 20
1.097409
  0
VERTEX
  8
EBENE_1
 62
    39
  6
CONTINUOUS
 10
-1.867299
 20
1.002524
  0
VERTEX
  8
EBENE_1
 62
    39
  6
CONTINUOUS
 10
-1.867299
 20
0.933516
  0
VERTEX
  8
EBENE_1
 62
    39
  6
CONTINUOUS
 10
-1.781039
 20
0.838634
  0
VERTEX
  8
EBENE_1
 62
    39
  6
CONTINUOUS
 10
-1.694783
 20
0.933516
  0
VERTEX
  8
EBENE_1
 62
    39
  6
CONTINUOUS
 10
-1.694783
 20
1.002524
  0
SEQEND
  8
0
  0
POLYLINE
  8
EBENE_1
 62
    39
  6
CONTINUOUS
 66
     1
 40
0.003000
 41
0.003000
 70
     1
  0
VERTEX
  8
EBENE_1
 62
    39
  6
CONTINUOUS
 10
-1.838835
 20
1.014034
  0
VERTEX
  8
EBENE_1
 62
    39
  6
CONTINUOUS
 10
-1.840982
 20
1.009437
  0
VERTEX
  8
EBENE_1
 62
    39
  6
CONTINUOUS
 10
-1.844965
 20
1.009437
  0
VERTEX
  8
EBENE_1
 62
    39
  6
CONTINUOUS
 10
-1.847110
 20
1.014036
  0
VERTEX
  8
EBENE_1
 62
    39
  6
CONTINUOUS
 10
-1.844963
 20
1.018634
  0
VERTEX
  8
EBENE_1
 62
    39
  6
CONTINUOUS
 10
-1.840981
 20
1.018634
  0
VERTEX
  8
EBENE_1
 62
    39
  6
CONTINUOUS
 10
-1.838835
 20
1.014035
  0
SEQEND
  8
0
  0
POLYLINE
  8
EBENE_1
 62
    39
  6
CONTINUOUS
 66
     1
 40
0.003000
 41
0.003000
 70
     1
  0
VERTEX
  8
EBENE_1
 62
    39
  6
CONTINUOUS
 10
-1.716264
 20
1.016483
  0
VERTEX
  8
EBENE_1
 62
    39
  6
CONTINUOUS
 10
-1.718411
 20
1.011885
  0
VERTEX
  8
EBENE_1
 62
    39
  6
CONTINUOUS
 10
-1.722394
 20
1.011886
  0
VERTEX
  8
EBENE_1
 62
    39
  6
CONTINUOUS
 10
-1.724539
 20
1.016485
  0
VERTEX
  8
EBENE_1
 62
    39
  6
CONTINUOUS
 10
-1.722392
 20
1.021083
  0
VERTEX
  8
EBENE_1
 62
    39
  6
CONTINUOUS
 10
-1.718410
 20
1.021083
  0
VERTEX
  8
EBENE_1
 62
    39
  6
CONTINUOUS
 10
-1.716264
 20
1.016484
  0
SEQEND
  8
0
  0
POLYLINE
  8
EBENE_1
 62
    39
  6
CONTINUOUS
 66
     1
 40
0.003000
 41
0.003000
 70
     1
  0
VERTEX
  8
EBENE_1
 62
    39
  6
CONTINUOUS
 10
-1.956067
 20
1.097409
  0
VERTEX
  8
EBENE_1
 62
    39
  6
CONTINUOUS
 10
-2.042323
 20
1.002524
  0
VERTEX
  8
EBENE_1
 62
    39
  6
CONTINUOUS
 10
-2.042323
 20
0.933516
  0
VERTEX
  8
EBENE_1
 62
    39
  6
CONTINUOUS
 10
-1.956067
 20
0.838634
  0
VERTEX
  8
EBENE_1
 62
    39
  6
CONTINUOUS
 10
-1.869807
 20
0.933516
  0
VERTEX
  8
EBENE_1
 62
    39
  6
CONTINUOUS
 10
-1.869807
 20
1.002524
  0
SEQEND
  8
0
  0
POLYLINE
  8
EBENE_1
 62
    39
  6
CONTINUOUS
 66
     1
 40
0.003000
 41
0.003000
 70
     1
  0
VERTEX
  8
EBENE_1
 62
    39
  6
CONTINUOUS
 10
-2.013858
 20
1.014034
  0
VERTEX
  8
EBENE_1
 62
    39
  6
CONTINUOUS
 10
-2.016006
 20
1.009437
  0
VERTEX
  8
EBENE_1
 62
    39
  6
CONTINUOUS
 10
-2.019988
 20
1.009437
  0
VERTEX
  8
EBENE_1
 62
    39
  6
CONTINUOUS
 10
-2.022134
 20
1.014036
  0
VERTEX
  8
EBENE_1
 62
    39
  6
CONTINUOUS
 10
-2.019987
 20
1.018634
  0
VERTEX
  8
EBENE_1
 62
    39
  6
CONTINUOUS
 10
-2.016004
 20
1.018634
  0
VERTEX
  8
EBENE_1
 62
    39
  6
CONTINUOUS
 10
-2.013858
 20
1.014035
  0
SEQEND
  8
0
  0
POLYLINE
  8
EBENE_1
 62
    39
  6
CONTINUOUS
 66
     1
 40
0.003000
 41
0.003000
 70
     1
  0
VERTEX
  8
EBENE_1
 62
    39
  6
CONTINUOUS
 10
-1.891287
 20
1.016483
  0
VERTEX
  8
EBENE_1
 62
    39
  6
CONTINUOUS
 10
-1.893437
 20
1.011885
  0
VERTEX
  8
EBENE_1
 62
    39
  6
CONTINUOUS
 10
-1.897423
 20
1.011886
  0
VERTEX
  8
EBENE_1
 62
    39
  6
CONTINUOUS
 10
-1.899571
 20
1.016485
  0
VERTEX
  8
EBENE_1
 62
    39
  6
CONTINUOUS
 10
-1.897422
 20
1.021083
  0
VERTEX
  8
EBENE_1
 62
    39
  6
CONTINUOUS
 10
-1.893435
 20
1.021083
  0
VERTEX
  8
EBENE_1
 62
    39
  6
CONTINUOUS
 10
-1.891287
 20
1.016484
  0
SEQEND
  8
0
  0
POLYLINE
  8
EBENE_1
 62
    39
  6
CONTINUOUS
 66
     1
 40
0.003000
 41
0.003000
 70
     1
  0
VERTEX
  8
EBENE_1
 62
    39
  6
CONTINUOUS
 10
-2.131091
 20
1.097409
  0
VERTEX
  8
EBENE_1
 62
    39
  6
CONTINUOUS
 10
-2.217350
 20
1.002524
  0
VERTEX
  8
EBENE_1
 62
    39
  6
CONTINUOUS
 10
-2.217350
 20
0.933516
  0
VERTEX
  8
EBENE_1
 62
    39
  6
CONTINUOUS
 10
-2.131091
 20
0.838634
  0
VERTEX
  8
EBENE_1
 62
    39
  6
CONTINUOUS
 10
-2.044831
 20
0.933516
  0
VERTEX
  8
EBENE_1
 62
    39
  6
CONTINUOUS
 10
-2.044831
 20
1.002524
  0
SEQEND
  8
0
  0
POLYLINE
  8
EBENE_1
 62
    39
  6
CONTINUOUS
 66
     1
 40
0.003000
 41
0.003000
 70
     1
  0
VERTEX
  8
EBENE_1
 62
    39
  6
CONTINUOUS
 10
-2.188882
 20
1.014034
  0
VERTEX
  8
EBENE_1
 62
    39
  6
CONTINUOUS
 10
-2.191031
 20
1.009437
  0
VERTEX
  8
EBENE_1
 62
    39
  6
CONTINUOUS
 10
-2.195018
 20
1.009437
  0
VERTEX
  8
EBENE_1
 62
    39
  6
CONTINUOUS
 10
-2.197165
 20
1.014036
  0
VERTEX
  8
EBENE_1
 62
    39
  6
CONTINUOUS
 10
-2.195016
 20
1.018634
  0
VERTEX
  8
EBENE_1
 62
    39
  6
CONTINUOUS
 10
-2.191030
 20
1.018634
  0
VERTEX
  8
EBENE_1
 62
    39
  6
CONTINUOUS
 10
-2.188882
 20
1.014035
  0
SEQEND
  8
0
  0
POLYLINE
  8
EBENE_1
 62
    39
  6
CONTINUOUS
 66
     1
 40
0.003000
 41
0.003000
 70
     1
  0
VERTEX
  8
EBENE_1
 62
    39
  6
CONTINUOUS
 10
-2.066315
 20
1.016483
  0
VERTEX
  8
EBENE_1
 62
    39
  6
CONTINUOUS
 10
-2.068463
 20
1.011885
  0
VERTEX
  8
EBENE_1
 62
    39
  6
CONTINUOUS
 10
-2.072445
 20
1.011886
  0
VERTEX
  8
EBENE_1
 62
    39
  6
CONTINUOUS
 10
-2.074591
 20
1.016485
  0
VERTEX
  8
EBENE_1
 62
    39
  6
CONTINUOUS
 10
-2.072443
 20
1.021083
  0
VERTEX
  8
EBENE_1
 62
    39
  6
CONTINUOUS
 10
-2.068461
 20
1.021083
  0
VERTEX
  8
EBENE_1
 62
    39
  6
CONTINUOUS
 10
-2.066315
 20
1.016484
  0
SEQEND
  8
0
  0
POLYLINE
  8
EBENE_1
 62
    39
  6
CONTINUOUS
 66
     1
 40
0.003000
 41
0.003000
 70
     1
  0
VERTEX
  8
EBENE_1
 62
    39
  6
CONTINUOUS
 10
-2.306114
 20
1.097409
  0
VERTEX
  8
EBENE_1
 62
    39
  6
CONTINUOUS
 10
-2.392374
 20
1.002524
  0
VERTEX
  8
EBENE_1
 62
    39
  6
CONTINUOUS
 10
-2.392374
 20
0.933516
  0
VERTEX
  8
EBENE_1
 62
    39
  6
CONTINUOUS
 10
-2.306114
 20
0.838634
  0
VERTEX
  8
EBENE_1
 62
    39
  6
CONTINUOUS
 10
-2.219858
 20
0.933516
  0
VERTEX
  8
EBENE_1
 62
    39
  6
CONTINUOUS
 10
-2.219858
 20
1.002524
  0
SEQEND
  8
0
  0
POLYLINE
  8
EBENE_1
 62
    39
  6
CONTINUOUS
 66
     1
 40
0.003000
 41
0.003000
 70
     1
  0
VERTEX
  8
EBENE_1
 62
    39
  6
CONTINUOUS
 10
-2.363909
 20
1.014034
  0
VERTEX
  8
EBENE_1
 62
    39
  6
CONTINUOUS
 10
-2.366057
 20
1.009437
  0
VERTEX
  8
EBENE_1
 62
    39
  6
CONTINUOUS
 10
-2.370039
 20
1.009437
  0
VERTEX
  8
EBENE_1
 62
    39
  6
CONTINUOUS
 10
-2.372185
 20
1.014036
  0
VERTEX
  8
EBENE_1
 62
    39
  6
CONTINUOUS
 10
-2.370038
 20
1.018634
  0
VERTEX
  8
EBENE_1
 62
    39
  6
CONTINUOUS
 10
-2.366055
 20
1.018634
  0
VERTEX
  8
EBENE_1
 62
    39
  6
CONTINUOUS
 10
-2.363909
 20
1.014035
  0
SEQEND
  8
0
  0
POLYLINE
  8
EBENE_1
 62
    39
  6
CONTINUOUS
 66
     1
 40
0.003000
 41
0.003000
 70
     1
  0
VERTEX
  8
EBENE_1
 62
    39
  6
CONTINUOUS
 10
-2.241339
 20
1.016483
  0
VERTEX
  8
EBENE_1
 62
    39
  6
CONTINUOUS
 10
-2.243486
 20
1.011885
  0
VERTEX
  8
EBENE_1
 62
    39
  6
CONTINUOUS
 10
-2.247469
 20
1.011886
  0
VERTEX
  8
EBENE_1
 62
    39
  6
CONTINUOUS
 10
-2.249614
 20
1.016485
  0
VERTEX
  8
EBENE_1
 62
    39
  6
CONTINUOUS
 10
-2.247467
 20
1.021083
  0
VERTEX
  8
EBENE_1
 62
    39
  6
CONTINUOUS
 10
-2.243484
 20
1.021083
  0
VERTEX
  8
EBENE_1
 62
    39
  6
CONTINUOUS
 10
-2.241339
 20
1.016484
  0
SEQEND
  8
0
  0
POLYLINE
  8
EBENE_1
 62
    39
  6
CONTINUOUS
 66
     1
 40
0.003000
 41
0.003000
 70
     1
  0
VERTEX
  8
EBENE_1
 62
    39
  6
CONTINUOUS
 10
-2.219614
 20
1.183138
  0
VERTEX
  8
EBENE_1
 62
    39
  6
CONTINUOUS
 10
-2.305874
 20
1.088252
  0
VERTEX
  8
EBENE_1
 62
    39
  6
CONTINUOUS
 10
-2.305874
 20
1.019248
  0
VERTEX
  8
EBENE_1
 62
    39
  6
CONTINUOUS
 10
-2.219614
 20
0.924362
  0
VERTEX
  8
EBENE_1
 62
    39
  6
CONTINUOUS
 10
-2.133358
 20
1.019248
  0
VERTEX
  8
EBENE_1
 62
    39
  6
CONTINUOUS
 10
-2.133358
 20
1.088252
  0
SEQEND
  8
0
  0
POLYLINE
  8
EBENE_1
 62
    39
  6
CONTINUOUS
 66
     1
 40
0.003000
 41
0.003000
 70
     1
  0
VERTEX
  8
EBENE_1
 62
    39
  6
CONTINUOUS
 10
-2.277409
 20
1.099763
  0
VERTEX
  8
EBENE_1
 62
    39
  6
CONTINUOUS
 10
-2.279557
 20
1.095165
  0
VERTEX
  8
EBENE_1
 62
    39
  6
CONTINUOUS
 10
-2.283539
 20
1.095166
  0
VERTEX
  8
EBENE_1
 62
    39
  6
CONTINUOUS
 10
-2.285685
 20
1.099764
  0
VERTEX
  8
EBENE_1
 62
    39
  6
CONTINUOUS
 10
-2.283538
 20
1.104362
  0
VERTEX
  8
EBENE_1
 62
    39
  6
CONTINUOUS
 10
-2.279555
 20
1.104362
  0
VERTEX
  8
EBENE_1
 62
    39
  6
CONTINUOUS
 10
-2.277409
 20
1.099764
  0
SEQEND
  8
0
  0
POLYLINE
  8
EBENE_1
 62
    39
  6
CONTINUOUS
 66
     1
 40
0.003000
 41
0.003000
 70
     1
  0
VERTEX
  8
EBENE_1
 62
    39
  6
CONTINUOUS
 10
-2.154839
 20
1.102212
  0
VERTEX
  8
EBENE_1
 62
    39
  6
CONTINUOUS
 10
-2.156986
 20
1.097610
  0
VERTEX
  8
EBENE_1
 62
    39
  6
CONTINUOUS
 10
-2.160969
 20
1.097611
  0
VERTEX
  8
EBENE_1
 62
    39
  6
CONTINUOUS
 10
-2.163114
 20
1.102213
  0
VERTEX
  8
EBENE_1
 62
    39
  6
CONTINUOUS
 10
-2.160967
 20
1.106815
  0
VERTEX
  8
EBENE_1
 62
    39
  6
CONTINUOUS
 10
-2.156984
 20
1.106814
  0
VERTEX
  8
EBENE_1
 62
    39
  6
CONTINUOUS
 10
-2.154839
 20
1.102213
  0
SEQEND
  8
0
  0
POLYLINE
  8
EBENE_1
 62
    39
  6
CONTINUOUS
 66
     1
 40
0.003000
 41
0.003000
 70
     1
  0
VERTEX
  8
EBENE_1
 62
    39
  6
CONTINUOUS
 10
-2.394642
 20
1.183138
  0
VERTEX
  8
EBENE_1
 62
    39
  6
CONTINUOUS
 10
-2.480898
 20
1.088252
  0
VERTEX
  8
EBENE_1
 62
    39
  6
CONTINUOUS
 10
-2.480898
 20
1.019248
  0
VERTEX
  8
EBENE_1
 62
    39
  6
CONTINUOUS
 10
-2.394642
 20
0.924362
  0
VERTEX
  8
EBENE_1
 62
    39
  6
CONTINUOUS
 10
-2.308382
 20
1.019248
  0
VERTEX
  8
EBENE_1
 62
    39
  6
CONTINUOUS
 10
-2.308382
 20
1.088252
  0
SEQEND
  8
0
  0
POLYLINE
  8
EBENE_1
 62
    39
  6
CONTINUOUS
 66
     1
 40
0.003000
 41
0.003000
 70
     1
  0
VERTEX
  8
EBENE_1
 62
    39
  6
CONTINUOUS
 10
-2.452433
 20
1.099763
  0
VERTEX
  8
EBENE_1
 62
    39
  6
CONTINUOUS
 10
-2.454581
 20
1.095165
  0
VERTEX
  8
EBENE_1
 62
    39
  6
CONTINUOUS
 10
-2.458563
 20
1.095166
  0
VERTEX
  8
EBENE_1
 62
    39
  6
CONTINUOUS
 10
-2.460709
 20
1.099764
  0
VERTEX
  8
EBENE_1
 62
    39
  6
CONTINUOUS
 10
-2.458561
 20
1.104362
  0
VERTEX
  8
EBENE_1
 62
    39
  6
CONTINUOUS
 10
-2.454579
 20
1.104362
  0
VERTEX
  8
EBENE_1
 62
    39
  6
CONTINUOUS
 10
-2.452433
 20
1.099764
  0
SEQEND
  8
0
  0
POLYLINE
  8
EBENE_1
 62
    39
  6
CONTINUOUS
 66
     1
 40
0.003000
 41
0.003000
 70
     1
  0
VERTEX
  8
EBENE_1
 62
    39
  6
CONTINUOUS
 10
-2.329862
 20
1.102212
  0
VERTEX
  8
EBENE_1
 62
    39
  6
CONTINUOUS
 10
-2.332012
 20
1.097610
  0
VERTEX
  8
EBENE_1
 62
    39
  6
CONTINUOUS
 10
-2.335998
 20
1.097611
  0
VERTEX
  8
EBENE_1
 62
    39
  6
CONTINUOUS
 10
-2.338146
 20
1.102213
  0
VERTEX
  8
EBENE_1
 62
    39
  6
CONTINUOUS
 10
-2.335996
 20
1.106815
  0
VERTEX
  8
EBENE_1
 62
    39
  6
CONTINUOUS
 10
-2.332010
 20
1.106814
  0
VERTEX
  8
EBENE_1
 62
    39
  6
CONTINUOUS
 10
-2.329862
 20
1.102213
  0
SEQEND
  8
0
  0
POLYLINE
  8
EBENE_1
 62
    39
  6
CONTINUOUS
 66
     1
 40
0.003000
 41
0.003000
 70
     1
  0
VERTEX
  8
EBENE_1
 62
    39
  6
CONTINUOUS
 10
-2.044591
 20
1.183138
  0
VERTEX
  8
EBENE_1
 62
    39
  6
CONTINUOUS
 10
-2.130850
 20
1.088252
  0
VERTEX
  8
EBENE_1
 62
    39
  6
CONTINUOUS
 10
-2.130850
 20
1.019248
  0
VERTEX
  8
EBENE_1
 62
    39
  6
CONTINUOUS
 10
-2.044591
 20
0.924362
  0
VERTEX
  8
EBENE_1
 62
    39
  6
CONTINUOUS
 10
-1.958331
 20
1.019248
  0
VERTEX
  8
EBENE_1
 62
    39
  6
CONTINUOUS
 10
-1.958331
 20
1.088252
  0
SEQEND
  8
0
  0
POLYLINE
  8
EBENE_1
 62
    39
  6
CONTINUOUS
 66
     1
 40
0.003000
 41
0.003000
 70
     1
  0
VERTEX
  8
EBENE_1
 62
    39
  6
CONTINUOUS
 10
-2.102382
 20
1.099763
  0
VERTEX
  8
EBENE_1
 62
    39
  6
CONTINUOUS
 10
-2.104531
 20
1.095165
  0
VERTEX
  8
EBENE_1
 62
    39
  6
CONTINUOUS
 10
-2.108518
 20
1.095166
  0
VERTEX
  8
EBENE_1
 62
    39
  6
CONTINUOUS
 10
-2.110665
 20
1.099764
  0
VERTEX
  8
EBENE_1
 62
    39
  6
CONTINUOUS
 10
-2.108516
 20
1.104362
  0
VERTEX
  8
EBENE_1
 62
    39
  6
CONTINUOUS
 10
-2.104530
 20
1.104362
  0
VERTEX
  8
EBENE_1
 62
    39
  6
CONTINUOUS
 10
-2.102382
 20
1.099764
  0
SEQEND
  8
0
  0
POLYLINE
  8
EBENE_1
 62
    39
  6
CONTINUOUS
 66
     1
 40
0.003000
 41
0.003000
 70
     1
  0
VERTEX
  8
EBENE_1
 62
    39
  6
CONTINUOUS
 10
-1.979815
 20
1.102212
  0
VERTEX
  8
EBENE_1
 62
    39
  6
CONTINUOUS
 10
-1.981963
 20
1.097610
  0
VERTEX
  8
EBENE_1
 62
    39
  6
CONTINUOUS
 10
-1.985945
 20
1.097611
  0
VERTEX
  8
EBENE_1
 62
    39
  6
CONTINUOUS
 10
-1.988091
 20
1.102213
  0
VERTEX
  8
EBENE_1
 62
    39
  6
CONTINUOUS
 10
-1.985943
 20
1.106815
  0
VERTEX
  8
EBENE_1
 62
    39
  6
CONTINUOUS
 10
-1.981961
 20
1.106814
  0
VERTEX
  8
EBENE_1
 62
    39
  6
CONTINUOUS
 10
-1.979815
 20
1.102213
  0
SEQEND
  8
0
  0
POLYLINE
  8
EBENE_1
 62
    39
  6
CONTINUOUS
 66
     1
 40
0.003000
 41
0.003000
 70
     1
  0
VERTEX
  8
EBENE_1
 62
    39
  6
CONTINUOUS
 10
-1.604213
 20
1.097409
  0
VERTEX
  8
EBENE_1
 62
    39
  6
CONTINUOUS
 10
-1.690469
 20
1.002524
  0
VERTEX
  8
EBENE_1
 62
    39
  6
CONTINUOUS
 10
-1.690469
 20
0.933516
  0
VERTEX
  8
EBENE_1
 62
    39
  6
CONTINUOUS
 10
-1.604213
 20
0.838634
  0
VERTEX
  8
EBENE_1
 62
    39
  6
CONTINUOUS
 10
-1.517953
 20
0.933516
  0
VERTEX
  8
EBENE_1
 62
    39
  6
CONTINUOUS
 10
-1.517953
 20
1.002524
  0
SEQEND
  8
0
  0
POLYLINE
  8
EBENE_1
 62
    39
  6
CONTINUOUS
 66
     1
 40
0.003000
 41
0.003000
 70
     1
  0
VERTEX
  8
EBENE_1
 62
    39
  6
CONTINUOUS
 10
-1.662004
 20
1.014034
  0
VERTEX
  8
EBENE_1
 62
    39
  6
CONTINUOUS
 10
-1.664151
 20
1.009437
  0
VERTEX
  8
EBENE_1
 62
    39
  6
CONTINUOUS
 10
-1.668134
 20
1.009437
  0
VERTEX
  8
EBENE_1
 62
    39
  6
CONTINUOUS
 10
-1.670280
 20
1.014036
  0
VERTEX
  8
EBENE_1
 62
    39
  6
CONTINUOUS
 10
-1.668132
 20
1.018634
  0
VERTEX
  8
EBENE_1
 62
    39
  6
CONTINUOUS
 10
-1.664150
 20
1.018634
  0
VERTEX
  8
EBENE_1
 62
    39
  6
CONTINUOUS
 10
-1.662004
 20
1.014035
  0
SEQEND
  8
0
  0
POLYLINE
  8
EBENE_1
 62
    39
  6
CONTINUOUS
 66
     1
 40
0.003000
 41
0.003000
 70
     1
  0
VERTEX
  8
EBENE_1
 62
    39
  6
CONTINUOUS
 10
-1.539433
 20
1.016483
  0
VERTEX
  8
EBENE_1
 62
    39
  6
CONTINUOUS
 10
-1.541583
 20
1.011885
  0
VERTEX
  8
EBENE_1
 62
    39
  6
CONTINUOUS
 10
-1.545569
 20
1.011886
  0
VERTEX
  8
EBENE_1
 62
    39
  6
CONTINUOUS
 10
-1.547717
 20
1.016485
  0
VERTEX
  8
EBENE_1
 62
    39
  6
CONTINUOUS
 10
-1.545567
 20
1.021083
  0
VERTEX
  8
EBENE_1
 62
    39
  6
CONTINUOUS
 10
-1.541581
 20
1.021083
  0
VERTEX
  8
EBENE_1
 62
    39
  6
CONTINUOUS
 10
-1.539433
 20
1.016484
  0
SEQEND
  8
0
  0
POLYLINE
  8
EBENE_1
 62
    39
  6
CONTINUOUS
 66
     1
 40
0.003000
 41
0.003000
 70
     1
  0
VERTEX
  8
EBENE_1
 62
    39
  6
CONTINUOUS
 10
-1.428539
 20
1.100898
  0
VERTEX
  8
EBENE_1
 62
    39
  6
CONTINUOUS
 10
-1.514795
 20
1.006012
  0
VERTEX
  8
EBENE_1
 62
    39
  6
CONTINUOUS
 10
-1.514795
 20
0.937008
  0
VERTEX
  8
EBENE_1
 62
    39
  6
CONTINUOUS
 10
-1.428539
 20
0.842122
  0
VERTEX
  8
EBENE_1
 62
    39
  6
CONTINUOUS
 10
-1.342280
 20
0.937008
  0
VERTEX
  8
EBENE_1
 62
    39
  6
CONTINUOUS
 10
-1.342280
 20
1.006012
  0
SEQEND
  8
0
  0
POLYLINE
  8
EBENE_1
 62
    39
  6
CONTINUOUS
 66
     1
 40
0.003000
 41
0.003000
 70
     1
  0
VERTEX
  8
EBENE_1
 62
    39
  6
CONTINUOUS
 10
-1.486331
 20
1.017523
  0
VERTEX
  8
EBENE_1
 62
    39
  6
CONTINUOUS
 10
-1.488478
 20
1.012925
  0
VERTEX
  8
EBENE_1
 62
    39
  6
CONTINUOUS
 10
-1.492461
 20
1.012926
  0
VERTEX
  8
EBENE_1
 62
    39
  6
CONTINUOUS
 10
-1.494606
 20
1.017524
  0
VERTEX
  8
EBENE_1
 62
    39
  6
CONTINUOUS
 10
-1.492459
 20
1.022122
  0
VERTEX
  8
EBENE_1
 62
    39
  6
CONTINUOUS
 10
-1.488477
 20
1.022122
  0
VERTEX
  8
EBENE_1
 62
    39
  6
CONTINUOUS
 10
-1.486331
 20
1.017524
  0
SEQEND
  8
0
  0
POLYLINE
  8
EBENE_1
 62
    39
  6
CONTINUOUS
 66
     1
 40
0.003000
 41
0.003000
 70
     1
  0
VERTEX
  8
EBENE_1
 62
    39
  6
CONTINUOUS
 10
-1.363760
 20
1.019975
  0
VERTEX
  8
EBENE_1
 62
    39
  6
CONTINUOUS
 10
-1.365909
 20
1.015378
  0
VERTEX
  8
EBENE_1
 62
    39
  6
CONTINUOUS
 10
-1.369896
 20
1.015378
  0
VERTEX
  8
EBENE_1
 62
    39
  6
CONTINUOUS
 10
-1.372043
 20
1.019977
  0
VERTEX
  8
EBENE_1
 62
    39
  6
CONTINUOUS
 10
-1.369894
 20
1.024575
  0
VERTEX
  8
EBENE_1
 62
    39
  6
CONTINUOUS
 10
-1.365908
 20
1.024575
  0
VERTEX
  8
EBENE_1
 62
    39
  6
CONTINUOUS
 10
-1.363760
 20
1.019976
  0
SEQEND
  8
0
  0
POLYLINE
  8
EBENE_1
 62
    39
  6
CONTINUOUS
 66
     1
 40
0.003000
 41
0.003000
 70
     1
  0
VERTEX
  8
EBENE_1
 62
    39
  6
CONTINUOUS
 10
-1.251709
 20
1.100898
  0
VERTEX
  8
EBENE_1
 62
    39
  6
CONTINUOUS
 10
-1.337969
 20
1.006012
  0
VERTEX
  8
EBENE_1
 62
    39
  6
CONTINUOUS
 10
-1.337969
 20
0.937008
  0
VERTEX
  8
EBENE_1
 62
    39
  6
CONTINUOUS
 10
-1.251709
 20
0.842122
  0
VERTEX
  8
EBENE_1
 62
    39
  6
CONTINUOUS
 10
-1.165449
 20
0.937008
  0
VERTEX
  8
EBENE_1
 62
    39
  6
CONTINUOUS
 10
-1.165449
 20
1.006012
  0
SEQEND
  8
0
  0
POLYLINE
  8
EBENE_1
 62
    39
  6
CONTINUOUS
 66
     1
 40
0.003000
 41
0.003000
 70
     1
  0
VERTEX
  8
EBENE_1
 62
    39
  6
CONTINUOUS
 10
-1.309500
 20
1.017523
  0
VERTEX
  8
EBENE_1
 62
    39
  6
CONTINUOUS
 10
-1.311648
 20
1.012925
  0
VERTEX
  8
EBENE_1
 62
    39
  6
CONTINUOUS
 10
-1.315630
 20
1.012926
  0
VERTEX
  8
EBENE_1
 62
    39
  6
CONTINUOUS
 10
-1.317776
 20
1.017524
  0
VERTEX
  8
EBENE_1
 62
    39
  6
CONTINUOUS
 10
-1.315628
 20
1.022122
  0
VERTEX
  8
EBENE_1
 62
    39
  6
CONTINUOUS
 10
-1.311646
 20
1.022122
  0
VERTEX
  8
EBENE_1
 62
    39
  6
CONTINUOUS
 10
-1.309500
 20
1.017524
  0
SEQEND
  8
0
  0
POLYLINE
  8
EBENE_1
 62
    39
  6
CONTINUOUS
 66
     1
 40
0.003000
 41
0.003000
 70
     1
  0
VERTEX
  8
EBENE_1
 62
    39
  6
CONTINUOUS
 10
-1.186933
 20
1.019975
  0
VERTEX
  8
EBENE_1
 62
    39
  6
CONTINUOUS
 10
-1.189081
 20
1.015378
  0
VERTEX
  8
EBENE_1
 62
    39
  6
CONTINUOUS
 10
-1.193063
 20
1.015378
  0
VERTEX
  8
EBENE_1
 62
    39
  6
CONTINUOUS
 10
-1.195209
 20
1.019977
  0
VERTEX
  8
EBENE_1
 62
    39
  6
CONTINUOUS
 10
-1.193061
 20
1.024575
  0
VERTEX
  8
EBENE_1
 62
    39
  6
CONTINUOUS
 10
-1.189079
 20
1.024575
  0
VERTEX
  8
EBENE_1
 62
    39
  6
CONTINUOUS
 10
-1.186933
 20
1.019976
  0
SEQEND
  8
0
  0
POLYLINE
  8
EBENE_1
 62
    39
  6
CONTINUOUS
 66
     1
 40
0.003000
 41
0.003000
 70
     1
  0
VERTEX
  8
EBENE_1
 62
    39
  6
CONTINUOUS
 10
-1.074878
 20
1.100898
  0
VERTEX
  8
EBENE_1
 62
    39
  6
CONTINUOUS
 10
-1.161138
 20
1.006012
  0
VERTEX
  8
EBENE_1
 62
    39
  6
CONTINUOUS
 10
-1.161138
 20
0.937008
  0
VERTEX
  8
EBENE_1
 62
    39
  6
CONTINUOUS
 10
-1.074878
 20
0.842122
  0
VERTEX
  8
EBENE_1
 62
    39
  6
CONTINUOUS
 10
-0.988618
 20
0.937008
  0
VERTEX
  8
EBENE_1
 62
    39
  6
CONTINUOUS
 10
-0.988618
 20
1.006012
  0
SEQEND
  8
0
  0
POLYLINE
  8
EBENE_1
 62
    39
  6
CONTINUOUS
 66
     1
 40
0.003000
 41
0.003000
 70
     1
  0
VERTEX
  8
EBENE_1
 62
    39
  6
CONTINUOUS
 10
-1.132669
 20
1.017523
  0
VERTEX
  8
EBENE_1
 62
    39
  6
CONTINUOUS
 10
-1.134819
 20
1.012925
  0
VERTEX
  8
EBENE_1
 62
    39
  6
CONTINUOUS
 10
-1.138805
 20
1.012926
  0
VERTEX
  8
EBENE_1
 62
    39
  6
CONTINUOUS
 10
-1.140953
 20
1.017524
  0
VERTEX
  8
EBENE_1
 62
    39
  6
CONTINUOUS
 10
-1.138803
 20
1.022122
  0
VERTEX
  8
EBENE_1
 62
    39
  6
CONTINUOUS
 10
-1.134817
 20
1.022122
  0
VERTEX
  8
EBENE_1
 62
    39
  6
CONTINUOUS
 10
-1.132669
 20
1.017524
  0
SEQEND
  8
0
  0
POLYLINE
  8
EBENE_1
 62
    39
  6
CONTINUOUS
 66
     1
 40
0.003000
 41
0.003000
 70
     1
  0
VERTEX
  8
EBENE_1
 62
    39
  6
CONTINUOUS
 10
-1.010102
 20
1.019975
  0
VERTEX
  8
EBENE_1
 62
    39
  6
CONTINUOUS
 10
-1.012250
 20
1.015378
  0
VERTEX
  8
EBENE_1
 62
    39
  6
CONTINUOUS
 10
-1.016232
 20
1.015378
  0
VERTEX
  8
EBENE_1
 62
    39
  6
CONTINUOUS
 10
-1.018378
 20
1.019977
  0
VERTEX
  8
EBENE_1
 62
    39
  6
CONTINUOUS
 10
-1.016231
 20
1.024575
  0
VERTEX
  8
EBENE_1
 62
    39
  6
CONTINUOUS
 10
-1.012248
 20
1.024575
  0
VERTEX
  8
EBENE_1
 62
    39
  6
CONTINUOUS
 10
-1.010102
 20
1.019976
  0
SEQEND
  8
0
  0
POLYLINE
  8
EBENE_1
 62
    39
  6
CONTINUOUS
 66
     1
 40
0.003000
 41
0.003000
 70
     1
  0
VERTEX
  8
EBENE_1
 62
    39
  6
CONTINUOUS
 10
-1.869567
 20
1.183138
  0
VERTEX
  8
EBENE_1
 62
    39
  6
CONTINUOUS
 10
-1.955823
 20
1.088252
  0
VERTEX
  8
EBENE_1
 62
    39
  6
CONTINUOUS
 10
-1.955823
 20
1.019248
  0
VERTEX
  8
EBENE_1
 62
    39
  6
CONTINUOUS
 10
-1.869567
 20
0.924362
  0
VERTEX
  8
EBENE_1
 62
    39
  6
CONTINUOUS
 10
-1.783307
 20
1.019248
  0
VERTEX
  8
EBENE_1
 62
    39
  6
CONTINUOUS
 10
-1.783307
 20
1.088252
  0
SEQEND
  8
0
  0
POLYLINE
  8
EBENE_1
 62
    39
  6
CONTINUOUS
 66
     1
 40
0.003000
 41
0.003000
 70
     1
  0
VERTEX
  8
EBENE_1
 62
    39
  6
CONTINUOUS
 10
-1.927358
 20
1.099763
  0
VERTEX
  8
EBENE_1
 62
    39
  6
CONTINUOUS
 10
-1.929506
 20
1.095165
  0
VERTEX
  8
EBENE_1
 62
    39
  6
CONTINUOUS
 10
-1.933488
 20
1.095166
  0
VERTEX
  8
EBENE_1
 62
    39
  6
CONTINUOUS
 10
-1.935634
 20
1.099764
  0
VERTEX
  8
EBENE_1
 62
    39
  6
CONTINUOUS
 10
-1.933487
 20
1.104362
  0
VERTEX
  8
EBENE_1
 62
    39
  6
CONTINUOUS
 10
-1.929504
 20
1.104362
  0
VERTEX
  8
EBENE_1
 62
    39
  6
CONTINUOUS
 10
-1.927358
 20
1.099764
  0
SEQEND
  8
0
  0
POLYLINE
  8
EBENE_1
 62
    39
  6
CONTINUOUS
 66
     1
 40
0.003000
 41
0.003000
 70
     1
  0
VERTEX
  8
EBENE_1
 62
    39
  6
CONTINUOUS
 10
-1.804787
 20
1.102212
  0
VERTEX
  8
EBENE_1
 62
    39
  6
CONTINUOUS
 10
-1.806937
 20
1.097610
  0
VERTEX
  8
EBENE_1
 62
    39
  6
CONTINUOUS
 10
-1.810923
 20
1.097611
  0
VERTEX
  8
EBENE_1
 62
    39
  6
CONTINUOUS
 10
-1.813071
 20
1.102213
  0
VERTEX
  8
EBENE_1
 62
    39
  6
CONTINUOUS
 10
-1.810922
 20
1.106815
  0
VERTEX
  8
EBENE_1
 62
    39
  6
CONTINUOUS
 10
-1.806935
 20
1.106814
  0
VERTEX
  8
EBENE_1
 62
    39
  6
CONTINUOUS
 10
-1.804787
 20
1.102213
  0
SEQEND
  8
0
  0
POLYLINE
  8
EBENE_1
 62
    39
  6
CONTINUOUS
 66
     1
 40
0.003000
 41
0.003000
 70
     1
  0
VERTEX
  8
EBENE_1
 62
    39
  6
CONTINUOUS
 10
-1.694539
 20
1.183138
  0
VERTEX
  8
EBENE_1
 62
    39
  6
CONTINUOUS
 10
-1.780799
 20
1.088252
  0
VERTEX
  8
EBENE_1
 62
    39
  6
CONTINUOUS
 10
-1.780799
 20
1.019248
  0
VERTEX
  8
EBENE_1
 62
    39
  6
CONTINUOUS
 10
-1.694539
 20
0.924362
  0
VERTEX
  8
EBENE_1
 62
    39
  6
CONTINUOUS
 10
-1.608283
 20
1.019248
  0
VERTEX
  8
EBENE_1
 62
    39
  6
CONTINUOUS
 10
-1.608283
 20
1.088252
  0
SEQEND
  8
0
  0
POLYLINE
  8
EBENE_1
 62
    39
  6
CONTINUOUS
 66
     1
 40
0.003000
 41
0.003000
 70
     1
  0
VERTEX
  8
EBENE_1
 62
    39
  6
CONTINUOUS
 10
-1.752335
 20
1.099763
  0
VERTEX
  8
EBENE_1
 62
    39
  6
CONTINUOUS
 10
-1.754482
 20
1.095165
  0
VERTEX
  8
EBENE_1
 62
    39
  6
CONTINUOUS
 10
-1.758465
 20
1.095166
  0
VERTEX
  8
EBENE_1
 62
    39
  6
CONTINUOUS
 10
-1.760610
 20
1.099764
  0
VERTEX
  8
EBENE_1
 62
    39
  6
CONTINUOUS
 10
-1.758463
 20
1.104362
  0
VERTEX
  8
EBENE_1
 62
    39
  6
CONTINUOUS
 10
-1.754481
 20
1.104362
  0
VERTEX
  8
EBENE_1
 62
    39
  6
CONTINUOUS
 10
-1.752335
 20
1.099764
  0
SEQEND
  8
0
  0
POLYLINE
  8
EBENE_1
 62
    39
  6
CONTINUOUS
 66
     1
 40
0.003000
 41
0.003000
 70
     1
  0
VERTEX
  8
EBENE_1
 62
    39
  6
CONTINUOUS
 10
-1.629764
 20
1.102212
  0
VERTEX
  8
EBENE_1
 62
    39
  6
CONTINUOUS
 10
-1.631913
 20
1.097610
  0
VERTEX
  8
EBENE_1
 62
    39
  6
CONTINUOUS
 10
-1.635900
 20
1.097611
  0
VERTEX
  8
EBENE_1
 62
    39
  6
CONTINUOUS
 10
-1.638047
 20
1.102213
  0
VERTEX
  8
EBENE_1
 62
    39
  6
CONTINUOUS
 10
-1.635898
 20
1.106815
  0
VERTEX
  8
EBENE_1
 62
    39
  6
CONTINUOUS
 10
-1.631912
 20
1.106814
  0
VERTEX
  8
EBENE_1
 62
    39
  6
CONTINUOUS
 10
-1.629764
 20
1.102213
  0
SEQEND
  8
0
  0
POLYLINE
  8
EBENE_1
 62
    39
  6
CONTINUOUS
 66
     1
 40
0.003000
 41
0.003000
 70
     1
  0
VERTEX
  8
EBENE_1
 62
    39
  6
CONTINUOUS
 10
-1.519516
 20
1.183138
  0
VERTEX
  8
EBENE_1
 62
    39
  6
CONTINUOUS
 10
-1.605776
 20
1.088252
  0
VERTEX
  8
EBENE_1
 62
    39
  6
CONTINUOUS
 10
-1.605776
 20
1.019248
  0
VERTEX
  8
EBENE_1
 62
    39
  6
CONTINUOUS
 10
-1.519516
 20
0.924362
  0
VERTEX
  8
EBENE_1
 62
    39
  6
CONTINUOUS
 10
-1.433260
 20
1.019248
  0
VERTEX
  8
EBENE_1
 62
    39
  6
CONTINUOUS
 10
-1.433260
 20
1.088252
  0
SEQEND
  8
0
  0
POLYLINE
  8
EBENE_1
 62
    39
  6
CONTINUOUS
 66
     1
 40
0.003000
 41
0.003000
 70
     1
  0
VERTEX
  8
EBENE_1
 62
    39
  6
CONTINUOUS
 10
-1.577307
 20
1.099763
  0
VERTEX
  8
EBENE_1
 62
    39
  6
CONTINUOUS
 10
-1.579457
 20
1.095165
  0
VERTEX
  8
EBENE_1
 62
    39
  6
CONTINUOUS
 10
-1.583443
 20
1.095166
  0
VERTEX
  8
EBENE_1
 62
    39
  6
CONTINUOUS
 10
-1.585591
 20
1.099764
  0
VERTEX
  8
EBENE_1
 62
    39
  6
CONTINUOUS
 10
-1.583441
 20
1.104362
  0
VERTEX
  8
EBENE_1
 62
    39
  6
CONTINUOUS
 10
-1.579455
 20
1.104362
  0
VERTEX
  8
EBENE_1
 62
    39
  6
CONTINUOUS
 10
-1.577307
 20
1.099764
  0
SEQEND
  8
0
  0
POLYLINE
  8
EBENE_1
 62
    39
  6
CONTINUOUS
 66
     1
 40
0.003000
 41
0.003000
 70
     1
  0
VERTEX
  8
EBENE_1
 62
    39
  6
CONTINUOUS
 10
-1.454740
 20
1.102212
  0
VERTEX
  8
EBENE_1
 62
    39
  6
CONTINUOUS
 10
-1.456888
 20
1.097610
  0
VERTEX
  8
EBENE_1
 62
    39
  6
CONTINUOUS
 10
-1.460870
 20
1.097611
  0
VERTEX
  8
EBENE_1
 62
    39
  6
CONTINUOUS
 10
-1.463016
 20
1.102213
  0
VERTEX
  8
EBENE_1
 62
    39
  6
CONTINUOUS
 10
-1.460869
 20
1.106815
  0
VERTEX
  8
EBENE_1
 62
    39
  6
CONTINUOUS
 10
-1.456886
 20
1.106814
  0
VERTEX
  8
EBENE_1
 62
    39
  6
CONTINUOUS
 10
-1.454740
 20
1.102213
  0
SEQEND
  8
0
  0
POLYLINE
  8
EBENE_1
 62
    39
  6
CONTINUOUS
 66
     1
 40
0.003000
 41
0.003000
 70
     1
  0
VERTEX
  8
EBENE_1
 62
    39
  6
CONTINUOUS
 10
-1.344492
 20
1.183138
  0
VERTEX
  8
EBENE_1
 62
    39
  6
CONTINUOUS
 10
-1.430752
 20
1.088252
  0
VERTEX
  8
EBENE_1
 62
    39
  6
CONTINUOUS
 10
-1.430752
 20
1.019248
  0
VERTEX
  8
EBENE_1
 62
    39
  6
CONTINUOUS
 10
-1.344492
 20
0.924362
  0
VERTEX
  8
EBENE_1
 62
    39
  6
CONTINUOUS
 10
-1.258232
 20
1.019248
  0
VERTEX
  8
EBENE_1
 62
    39
  6
CONTINUOUS
 10
-1.258232
 20
1.088252
  0
SEQEND
  8
0
  0
POLYLINE
  8
EBENE_1
 62
    39
  6
CONTINUOUS
 66
     1
 40
0.003000
 41
0.003000
 70
     1
  0
VERTEX
  8
EBENE_1
 62
    39
  6
CONTINUOUS
 10
-1.402283
 20
1.099763
  0
VERTEX
  8
EBENE_1
 62
    39
  6
CONTINUOUS
 10
-1.404431
 20
1.095165
  0
VERTEX
  8
EBENE_1
 62
    39
  6
CONTINUOUS
 10
-1.408414
 20
1.095166
  0
VERTEX
  8
EBENE_1
 62
    39
  6
CONTINUOUS
 10
-1.410559
 20
1.099764
  0
VERTEX
  8
EBENE_1
 62
    39
  6
CONTINUOUS
 10
-1.408412
 20
1.104362
  0
VERTEX
  8
EBENE_1
 62
    39
  6
CONTINUOUS
 10
-1.404429
 20
1.104362
  0
VERTEX
  8
EBENE_1
 62
    39
  6
CONTINUOUS
 10
-1.402283
 20
1.099764
  0
SEQEND
  8
0
  0
POLYLINE
  8
EBENE_1
 62
    39
  6
CONTINUOUS
 66
     1
 40
0.003000
 41
0.003000
 70
     1
  0
VERTEX
  8
EBENE_1
 62
    39
  6
CONTINUOUS
 10
-1.279717
 20
1.102212
  0
VERTEX
  8
EBENE_1
 62
    39
  6
CONTINUOUS
 10
-1.281864
 20
1.097610
  0
VERTEX
  8
EBENE_1
 62
    39
  6
CONTINUOUS
 10
-1.285847
 20
1.097611
  0
VERTEX
  8
EBENE_1
 62
    39
  6
CONTINUOUS
 10
-1.287992
 20
1.102213
  0
VERTEX
  8
EBENE_1
 62
    39
  6
CONTINUOUS
 10
-1.285845
 20
1.106815
  0
VERTEX
  8
EBENE_1
 62
    39
  6
CONTINUOUS
 10
-1.281862
 20
1.106814
  0
VERTEX
  8
EBENE_1
 62
    39
  6
CONTINUOUS
 10
-1.279717
 20
1.102213
  0
SEQEND
  8
0
  0
POLYLINE
  8
EBENE_1
 62
    39
  6
CONTINUOUS
 66
     1
 40
0.003000
 41
0.003000
 70
     1
  0
VERTEX
  8
EBENE_1
 62
    39
  6
CONTINUOUS
 10
-1.169469
 20
1.183138
  0
VERTEX
  8
EBENE_1
 62
    39
  6
CONTINUOUS
 10
-1.255724
 20
1.088252
  0
VERTEX
  8
EBENE_1
 62
    39
  6
CONTINUOUS
 10
-1.255724
 20
1.019248
  0
VERTEX
  8
EBENE_1
 62
    39
  6
CONTINUOUS
 10
-1.169469
 20
0.924362
  0
VERTEX
  8
EBENE_1
 62
    39
  6
CONTINUOUS
 10
-1.083209
 20
1.019248
  0
VERTEX
  8
EBENE_1
 62
    39
  6
CONTINUOUS
 10
-1.083209
 20
1.088252
  0
SEQEND
  8
0
  0
POLYLINE
  8
EBENE_1
 62
    39
  6
CONTINUOUS
 66
     1
 40
0.003000
 41
0.003000
 70
     1
  0
VERTEX
  8
EBENE_1
 62
    39
  6
CONTINUOUS
 10
-1.227260
 20
1.099763
  0
VERTEX
  8
EBENE_1
 62
    39
  6
CONTINUOUS
 10
-1.229407
 20
1.095165
  0
VERTEX
  8
EBENE_1
 62
    39
  6
CONTINUOUS
 10
-1.233390
 20
1.095166
  0
VERTEX
  8
EBENE_1
 62
    39
  6
CONTINUOUS
 10
-1.235535
 20
1.099764
  0
VERTEX
  8
EBENE_1
 62
    39
  6
CONTINUOUS
 10
-1.233388
 20
1.104362
  0
VERTEX
  8
EBENE_1
 62
    39
  6
CONTINUOUS
 10
-1.229406
 20
1.104362
  0
VERTEX
  8
EBENE_1
 62
    39
  6
CONTINUOUS
 10
-1.227260
 20
1.099764
  0
SEQEND
  8
0
  0
POLYLINE
  8
EBENE_1
 62
    39
  6
CONTINUOUS
 66
     1
 40
0.003000
 41
0.003000
 70
     1
  0
VERTEX
  8
EBENE_1
 62
    39
  6
CONTINUOUS
 10
-1.104689
 20
1.102212
  0
VERTEX
  8
EBENE_1
 62
    39
  6
CONTINUOUS
 10
-1.106839
 20
1.097610
  0
VERTEX
  8
EBENE_1
 62
    39
  6
CONTINUOUS
 10
-1.110825
 20
1.097611
  0
VERTEX
  8
EBENE_1
 62
    39
  6
CONTINUOUS
 10
-1.112972
 20
1.102213
  0
VERTEX
  8
EBENE_1
 62
    39
  6
CONTINUOUS
 10
-1.110823
 20
1.106815
  0
VERTEX
  8
EBENE_1
 62
    39
  6
CONTINUOUS
 10
-1.106837
 20
1.106814
  0
VERTEX
  8
EBENE_1
 62
    39
  6
CONTINUOUS
 10
-1.104689
 20
1.102213
  0
SEQEND
  8
0
  0
POLYLINE
  8
EBENE_1
 62
    39
  6
CONTINUOUS
 66
     1
 40
0.003000
 41
0.003000
 70
     1
  0
VERTEX
  8
EBENE_1
 62
    39
  6
CONTINUOUS
 10
-0.994441
 20
1.183138
  0
VERTEX
  8
EBENE_1
 62
    39
  6
CONTINUOUS
 10
-1.080701
 20
1.088252
  0
VERTEX
  8
EBENE_1
 62
    39
  6
CONTINUOUS
 10
-1.080701
 20
1.019248
  0
VERTEX
  8
EBENE_1
 62
    39
  6
CONTINUOUS
 10
-0.994441
 20
0.924362
  0
VERTEX
  8
EBENE_1
 62
    39
  6
CONTINUOUS
 10
-0.908185
 20
1.019248
  0
VERTEX
  8
EBENE_1
 62
    39
  6
CONTINUOUS
 10
-0.908185
 20
1.088252
  0
SEQEND
  8
0
  0
POLYLINE
  8
EBENE_1
 62
    39
  6
CONTINUOUS
 66
     1
 40
0.003000
 41
0.003000
 70
     1
  0
VERTEX
  8
EBENE_1
 62
    39
  6
CONTINUOUS
 10
-1.052236
 20
1.099763
  0
VERTEX
  8
EBENE_1
 62
    39
  6
CONTINUOUS
 10
-1.054384
 20
1.095165
  0
VERTEX
  8
EBENE_1
 62
    39
  6
CONTINUOUS
 10
-1.058366
 20
1.095166
  0
VERTEX
  8
EBENE_1
 62
    39
  6
CONTINUOUS
 10
-1.060512
 20
1.099764
  0
VERTEX
  8
EBENE_1
 62
    39
  6
CONTINUOUS
 10
-1.058365
 20
1.104362
  0
VERTEX
  8
EBENE_1
 62
    39
  6
CONTINUOUS
 10
-1.054382
 20
1.104362
  0
VERTEX
  8
EBENE_1
 62
    39
  6
CONTINUOUS
 10
-1.052236
 20
1.099764
  0
SEQEND
  8
0
  0
POLYLINE
  8
EBENE_1
 62
    39
  6
CONTINUOUS
 66
     1
 40
0.003000
 41
0.003000
 70
     1
  0
VERTEX
  8
EBENE_1
 62
    39
  6
CONTINUOUS
 10
-0.929665
 20
1.102212
  0
VERTEX
  8
EBENE_1
 62
    39
  6
CONTINUOUS
 10
-0.931813
 20
1.097610
  0
VERTEX
  8
EBENE_1
 62
    39
  6
CONTINUOUS
 10
-0.935795
 20
1.097611
  0
VERTEX
  8
EBENE_1
 62
    39
  6
CONTINUOUS
 10
-0.937941
 20
1.102213
  0
VERTEX
  8
EBENE_1
 62
    39
  6
CONTINUOUS
 10
-0.935794
 20
1.106815
  0
VERTEX
  8
EBENE_1
 62
    39
  6
CONTINUOUS
 10
-0.931811
 20
1.106814
  0
VERTEX
  8
EBENE_1
 62
    39
  6
CONTINUOUS
 10
-0.929665
 20
1.102213
  0
SEQEND
  8
0
  0
POLYLINE
  8
EBENE_1
 62
    39
  6
CONTINUOUS
 66
     1
 40
0.003000
 41
0.003000
 70
     1
  0
VERTEX
  8
EBENE_1
 62
    39
  6
CONTINUOUS
 10
-2.132287
 20
1.268870
  0
VERTEX
  8
EBENE_1
 62
    39
  6
CONTINUOUS
 10
-2.218547
 20
1.173984
  0
VERTEX
  8
EBENE_1
 62
    39
  6
CONTINUOUS
 10
-2.218547
 20
1.104976
  0
VERTEX
  8
EBENE_1
 62
    39
  6
CONTINUOUS
 10
-2.132287
 20
1.010094
  0
VERTEX
  8
EBENE_1
 62
    39
  6
CONTINUOUS
 10
-2.046028
 20
1.104976
  0
VERTEX
  8
EBENE_1
 62
    39
  6
CONTINUOUS
 10
-2.046028
 20
1.173984
  0
SEQEND
  8
0
  0
POLYLINE
  8
EBENE_1
 62
    39
  6
CONTINUOUS
 66
     1
 40
0.003000
 41
0.003000
 70
     1
  0
VERTEX
  8
EBENE_1
 62
    39
  6
CONTINUOUS
 10
-2.190079
 20
1.185491
  0
VERTEX
  8
EBENE_1
 62
    39
  6
CONTINUOUS
 10
-2.192228
 20
1.180890
  0
VERTEX
  8
EBENE_1
 62
    39
  6
CONTINUOUS
 10
-2.196215
 20
1.180891
  0
VERTEX
  8
EBENE_1
 62
    39
  6
CONTINUOUS
 10
-2.198362
 20
1.185493
  0
VERTEX
  8
EBENE_1
 62
    39
  6
CONTINUOUS
 10
-2.196213
 20
1.190094
  0
VERTEX
  8
EBENE_1
 62
    39
  6
CONTINUOUS
 10
-2.192227
 20
1.190094
  0
VERTEX
  8
EBENE_1
 62
    39
  6
CONTINUOUS
 10
-2.190079
 20
1.185492
  0
SEQEND
  8
0
  0
POLYLINE
  8
EBENE_1
 62
    39
  6
CONTINUOUS
 66
     1
 40
0.003000
 41
0.003000
 70
     1
  0
VERTEX
  8
EBENE_1
 62
    39
  6
CONTINUOUS
 10
-2.067512
 20
1.187944
  0
VERTEX
  8
EBENE_1
 62
    39
  6
CONTINUOUS
 10
-2.069659
 20
1.183346
  0
VERTEX
  8
EBENE_1
 62
    39
  6
CONTINUOUS
 10
-2.073642
 20
1.183347
  0
VERTEX
  8
EBENE_1
 62
    39
  6
CONTINUOUS
 10
-2.075787
 20
1.187945
  0
VERTEX
  8
EBENE_1
 62
    39
  6
CONTINUOUS
 10
-2.073640
 20
1.192543
  0
VERTEX
  8
EBENE_1
 62
    39
  6
CONTINUOUS
 10
-2.069658
 20
1.192543
  0
VERTEX
  8
EBENE_1
 62
    39
  6
CONTINUOUS
 10
-2.067512
 20
1.187945
  0
SEQEND
  8
0
  0
POLYLINE
  8
EBENE_1
 62
    39
  6
CONTINUOUS
 66
     1
 40
0.003000
 41
0.003000
 70
     1
  0
VERTEX
  8
EBENE_1
 62
    39
  6
CONTINUOUS
 10
-2.307311
 20
1.268870
  0
VERTEX
  8
EBENE_1
 62
    39
  6
CONTINUOUS
 10
-2.393571
 20
1.173984
  0
VERTEX
  8
EBENE_1
 62
    39
  6
CONTINUOUS
 10
-2.393571
 20
1.104976
  0
VERTEX
  8
EBENE_1
 62
    39
  6
CONTINUOUS
 10
-2.307311
 20
1.010094
  0
VERTEX
  8
EBENE_1
 62
    39
  6
CONTINUOUS
 10
-2.221055
 20
1.104976
  0
VERTEX
  8
EBENE_1
 62
    39
  6
CONTINUOUS
 10
-2.221055
 20
1.173984
  0
SEQEND
  8
0
  0
POLYLINE
  8
EBENE_1
 62
    39
  6
CONTINUOUS
 66
     1
 40
0.003000
 41
0.003000
 70
     1
  0
VERTEX
  8
EBENE_1
 62
    39
  6
CONTINUOUS
 10
-2.365106
 20
1.185491
  0
VERTEX
  8
EBENE_1
 62
    39
  6
CONTINUOUS
 10
-2.367254
 20
1.180890
  0
VERTEX
  8
EBENE_1
 62
    39
  6
CONTINUOUS
 10
-2.371236
 20
1.180891
  0
VERTEX
  8
EBENE_1
 62
    39
  6
CONTINUOUS
 10
-2.373382
 20
1.185493
  0
VERTEX
  8
EBENE_1
 62
    39
  6
CONTINUOUS
 10
-2.371235
 20
1.190094
  0
VERTEX
  8
EBENE_1
 62
    39
  6
CONTINUOUS
 10
-2.367252
 20
1.190094
  0
VERTEX
  8
EBENE_1
 62
    39
  6
CONTINUOUS
 10
-2.365106
 20
1.185492
  0
SEQEND
  8
0
  0
POLYLINE
  8
EBENE_1
 62
    39
  6
CONTINUOUS
 66
     1
 40
0.003000
 41
0.003000
 70
     1
  0
VERTEX
  8
EBENE_1
 62
    39
  6
CONTINUOUS
 10
-2.242535
 20
1.187944
  0
VERTEX
  8
EBENE_1
 62
    39
  6
CONTINUOUS
 10
-2.244683
 20
1.183346
  0
VERTEX
  8
EBENE_1
 62
    39
  6
CONTINUOUS
 10
-2.248665
 20
1.183347
  0
VERTEX
  8
EBENE_1
 62
    39
  6
CONTINUOUS
 10
-2.250811
 20
1.187945
  0
VERTEX
  8
EBENE_1
 62
    39
  6
CONTINUOUS
 10
-2.248664
 20
1.192543
  0
VERTEX
  8
EBENE_1
 62
    39
  6
CONTINUOUS
 10
-2.244681
 20
1.192543
  0
VERTEX
  8
EBENE_1
 62
    39
  6
CONTINUOUS
 10
-2.242535
 20
1.187945
  0
SEQEND
  8
0
  0
POLYLINE
  8
EBENE_1
 62
    39
  6
CONTINUOUS
 66
     1
 40
0.003000
 41
0.003000
 70
     1
  0
VERTEX
  8
EBENE_1
 62
    39
  6
CONTINUOUS
 10
-1.957264
 20
1.268870
  0
VERTEX
  8
EBENE_1
 62
    39
  6
CONTINUOUS
 10
-2.043520
 20
1.173984
  0
VERTEX
  8
EBENE_1
 62
    39
  6
CONTINUOUS
 10
-2.043520
 20
1.104976
  0
VERTEX
  8
EBENE_1
 62
    39
  6
CONTINUOUS
 10
-1.957264
 20
1.010094
  0
VERTEX
  8
EBENE_1
 62
    39
  6
CONTINUOUS
 10
-1.871004
 20
1.104976
  0
VERTEX
  8
EBENE_1
 62
    39
  6
CONTINUOUS
 10
-1.871004
 20
1.173984
  0
SEQEND
  8
0
  0
POLYLINE
  8
EBENE_1
 62
    39
  6
CONTINUOUS
 66
     1
 40
0.003000
 41
0.003000
 70
     1
  0
VERTEX
  8
EBENE_1
 62
    39
  6
CONTINUOUS
 10
-2.015055
 20
1.185491
  0
VERTEX
  8
EBENE_1
 62
    39
  6
CONTINUOUS
 10
-2.017203
 20
1.180890
  0
VERTEX
  8
EBENE_1
 62
    39
  6
CONTINUOUS
 10
-2.021185
 20
1.180891
  0
VERTEX
  8
EBENE_1
 62
    39
  6
CONTINUOUS
 10
-2.023331
 20
1.185493
  0
VERTEX
  8
EBENE_1
 62
    39
  6
CONTINUOUS
 10
-2.021183
 20
1.190094
  0
VERTEX
  8
EBENE_1
 62
    39
  6
CONTINUOUS
 10
-2.017201
 20
1.190094
  0
VERTEX
  8
EBENE_1
 62
    39
  6
CONTINUOUS
 10
-2.015055
 20
1.185492
  0
SEQEND
  8
0
  0
POLYLINE
  8
EBENE_1
 62
    39
  6
CONTINUOUS
 66
     1
 40
0.003000
 41
0.003000
 70
     1
  0
VERTEX
  8
EBENE_1
 62
    39
  6
CONTINUOUS
 10
-1.892484
 20
1.187944
  0
VERTEX
  8
EBENE_1
 62
    39
  6
CONTINUOUS
 10
-1.894634
 20
1.183346
  0
VERTEX
  8
EBENE_1
 62
    39
  6
CONTINUOUS
 10
-1.898620
 20
1.183347
  0
VERTEX
  8
EBENE_1
 62
    39
  6
CONTINUOUS
 10
-1.900768
 20
1.187945
  0
VERTEX
  8
EBENE_1
 62
    39
  6
CONTINUOUS
 10
-1.898618
 20
1.192543
  0
VERTEX
  8
EBENE_1
 62
    39
  6
CONTINUOUS
 10
-1.894632
 20
1.192543
  0
VERTEX
  8
EBENE_1
 62
    39
  6
CONTINUOUS
 10
-1.892484
 20
1.187945
  0
SEQEND
  8
0
  0
POLYLINE
  8
EBENE_1
 62
    39
  6
CONTINUOUS
 66
     1
 40
0.003000
 41
0.003000
 70
     1
  0
VERTEX
  8
EBENE_1
 62
    39
  6
CONTINUOUS
 10
-1.782236
 20
1.268870
  0
VERTEX
  8
EBENE_1
 62
    39
  6
CONTINUOUS
 10
-1.868496
 20
1.173984
  0
VERTEX
  8
EBENE_1
 62
    39
  6
CONTINUOUS
 10
-1.868496
 20
1.104976
  0
VERTEX
  8
EBENE_1
 62
    39
  6
CONTINUOUS
 10
-1.782236
 20
1.010094
  0
VERTEX
  8
EBENE_1
 62
    39
  6
CONTINUOUS
 10
-1.695980
 20
1.104976
  0
VERTEX
  8
EBENE_1
 62
    39
  6
CONTINUOUS
 10
-1.695980
 20
1.173984
  0
SEQEND
  8
0
  0
POLYLINE
  8
EBENE_1
 62
    39
  6
CONTINUOUS
 66
     1
 40
0.003000
 41
0.003000
 70
     1
  0
VERTEX
  8
EBENE_1
 62
    39
  6
CONTINUOUS
 10
-1.840031
 20
1.185491
  0
VERTEX
  8
EBENE_1
 62
    39
  6
CONTINUOUS
 10
-1.842179
 20
1.180890
  0
VERTEX
  8
EBENE_1
 62
    39
  6
CONTINUOUS
 10
-1.846162
 20
1.180891
  0
VERTEX
  8
EBENE_1
 62
    39
  6
CONTINUOUS
 10
-1.848307
 20
1.185493
  0
VERTEX
  8
EBENE_1
 62
    39
  6
CONTINUOUS
 10
-1.846160
 20
1.190094
  0
VERTEX
  8
EBENE_1
 62
    39
  6
CONTINUOUS
 10
-1.842177
 20
1.190094
  0
VERTEX
  8
EBENE_1
 62
    39
  6
CONTINUOUS
 10
-1.840031
 20
1.185492
  0
SEQEND
  8
0
  0
POLYLINE
  8
EBENE_1
 62
    39
  6
CONTINUOUS
 66
     1
 40
0.003000
 41
0.003000
 70
     1
  0
VERTEX
  8
EBENE_1
 62
    39
  6
CONTINUOUS
 10
-1.717461
 20
1.187944
  0
VERTEX
  8
EBENE_1
 62
    39
  6
CONTINUOUS
 10
-1.719610
 20
1.183346
  0
VERTEX
  8
EBENE_1
 62
    39
  6
CONTINUOUS
 10
-1.723596
 20
1.183347
  0
VERTEX
  8
EBENE_1
 62
    39
  6
CONTINUOUS
 10
-1.725744
 20
1.187945
  0
VERTEX
  8
EBENE_1
 62
    39
  6
CONTINUOUS
 10
-1.723595
 20
1.192543
  0
VERTEX
  8
EBENE_1
 62
    39
  6
CONTINUOUS
 10
-1.719609
 20
1.192543
  0
VERTEX
  8
EBENE_1
 62
    39
  6
CONTINUOUS
 10
-1.717461
 20
1.187945
  0
SEQEND
  8
0
  0
POLYLINE
  8
EBENE_1
 62
    39
  6
CONTINUOUS
 66
     1
 40
0.003000
 41
0.003000
 70
     1
  0
VERTEX
  8
EBENE_1
 62
    39
  6
CONTINUOUS
 10
-1.607213
 20
1.268870
  0
VERTEX
  8
EBENE_1
 62
    39
  6
CONTINUOUS
 10
-1.693472
 20
1.173984
  0
VERTEX
  8
EBENE_1
 62
    39
  6
CONTINUOUS
 10
-1.693472
 20
1.104976
  0
VERTEX
  8
EBENE_1
 62
    39
  6
CONTINUOUS
 10
-1.607213
 20
1.010094
  0
VERTEX
  8
EBENE_1
 62
    39
  6
CONTINUOUS
 10
-1.520953
 20
1.104976
  0
VERTEX
  8
EBENE_1
 62
    39
  6
CONTINUOUS
 10
-1.520953
 20
1.173984
  0
SEQEND
  8
0
  0
POLYLINE
  8
EBENE_1
 62
    39
  6
CONTINUOUS
 66
     1
 40
0.003000
 41
0.003000
 70
     1
  0
VERTEX
  8
EBENE_1
 62
    39
  6
CONTINUOUS
 10
-1.665004
 20
1.185491
  0
VERTEX
  8
EBENE_1
 62
    39
  6
CONTINUOUS
 10
-1.667154
 20
1.180890
  0
VERTEX
  8
EBENE_1
 62
    39
  6
CONTINUOUS
 10
-1.671140
 20
1.180891
  0
VERTEX
  8
EBENE_1
 62
    39
  6
CONTINUOUS
 10
-1.673287
 20
1.185493
  0
VERTEX
  8
EBENE_1
 62
    39
  6
CONTINUOUS
 10
-1.671138
 20
1.190094
  0
VERTEX
  8
EBENE_1
 62
    39
  6
CONTINUOUS
 10
-1.667152
 20
1.190094
  0
VERTEX
  8
EBENE_1
 62
    39
  6
CONTINUOUS
 10
-1.665004
 20
1.185492
  0
SEQEND
  8
0
  0
POLYLINE
  8
EBENE_1
 62
    39
  6
CONTINUOUS
 66
     1
 40
0.003000
 41
0.003000
 70
     1
  0
VERTEX
  8
EBENE_1
 62
    39
  6
CONTINUOUS
 10
-1.542437
 20
1.187944
  0
VERTEX
  8
EBENE_1
 62
    39
  6
CONTINUOUS
 10
-1.544585
 20
1.183346
  0
VERTEX
  8
EBENE_1
 62
    39
  6
CONTINUOUS
 10
-1.548567
 20
1.183347
  0
VERTEX
  8
EBENE_1
 62
    39
  6
CONTINUOUS
 10
-1.550713
 20
1.187945
  0
VERTEX
  8
EBENE_1
 62
    39
  6
CONTINUOUS
 10
-1.548565
 20
1.192543
  0
VERTEX
  8
EBENE_1
 62
    39
  6
CONTINUOUS
 10
-1.544583
 20
1.192543
  0
VERTEX
  8
EBENE_1
 62
    39
  6
CONTINUOUS
 10
-1.542437
 20
1.187945
  0
SEQEND
  8
0
  0
POLYLINE
  8
EBENE_1
 62
    39
  6
CONTINUOUS
 66
     1
 40
0.003000
 41
0.003000
 70
     1
  0
VERTEX
  8
EBENE_1
 62
    39
  6
CONTINUOUS
 10
-1.432189
 20
1.268870
  0
VERTEX
  8
EBENE_1
 62
    39
  6
CONTINUOUS
 10
-1.518449
 20
1.173984
  0
VERTEX
  8
EBENE_1
 62
    39
  6
CONTINUOUS
 10
-1.518449
 20
1.104976
  0
VERTEX
  8
EBENE_1
 62
    39
  6
CONTINUOUS
 10
-1.432189
 20
1.010094
  0
VERTEX
  8
EBENE_1
 62
    39
  6
CONTINUOUS
 10
-1.345929
 20
1.104976
  0
VERTEX
  8
EBENE_1
 62
    39
  6
CONTINUOUS
 10
-1.345929
 20
1.173984
  0
SEQEND
  8
0
  0
POLYLINE
  8
EBENE_1
 62
    39
  6
CONTINUOUS
 66
     1
 40
0.003000
 41
0.003000
 70
     1
  0
VERTEX
  8
EBENE_1
 62
    39
  6
CONTINUOUS
 10
-1.489980
 20
1.185491
  0
VERTEX
  8
EBENE_1
 62
    39
  6
CONTINUOUS
 10
-1.492128
 20
1.180890
  0
VERTEX
  8
EBENE_1
 62
    39
  6
CONTINUOUS
 10
-1.496110
 20
1.180891
  0
VERTEX
  8
EBENE_1
 62
    39
  6
CONTINUOUS
 10
-1.498256
 20
1.185493
  0
VERTEX
  8
EBENE_1
 62
    39
  6
CONTINUOUS
 10
-1.496109
 20
1.190094
  0
VERTEX
  8
EBENE_1
 62
    39
  6
CONTINUOUS
 10
-1.492126
 20
1.190094
  0
VERTEX
  8
EBENE_1
 62
    39
  6
CONTINUOUS
 10
-1.489980
 20
1.185492
  0
SEQEND
  8
0
  0
POLYLINE
  8
EBENE_1
 62
    39
  6
CONTINUOUS
 66
     1
 40
0.003000
 41
0.003000
 70
     1
  0
VERTEX
  8
EBENE_1
 62
    39
  6
CONTINUOUS
 10
-1.367413
 20
1.187944
  0
VERTEX
  8
EBENE_1
 62
    39
  6
CONTINUOUS
 10
-1.369561
 20
1.183346
  0
VERTEX
  8
EBENE_1
 62
    39
  6
CONTINUOUS
 10
-1.373543
 20
1.183347
  0
VERTEX
  8
EBENE_1
 62
    39
  6
CONTINUOUS
 10
-1.375689
 20
1.187945
  0
VERTEX
  8
EBENE_1
 62
    39
  6
CONTINUOUS
 10
-1.373542
 20
1.192543
  0
VERTEX
  8
EBENE_1
 62
    39
  6
CONTINUOUS
 10
-1.369559
 20
1.192543
  0
VERTEX
  8
EBENE_1
 62
    39
  6
CONTINUOUS
 10
-1.367413
 20
1.187945
  0
SEQEND
  8
0
  0
POLYLINE
  8
EBENE_1
 62
    39
  6
CONTINUOUS
 66
     1
 40
0.003000
 41
0.003000
 70
     1
  0
VERTEX
  8
EBENE_1
 62
    39
  6
CONTINUOUS
 10
-1.257165
 20
1.268870
  0
VERTEX
  8
EBENE_1
 62
    39
  6
CONTINUOUS
 10
-1.343421
 20
1.173984
  0
VERTEX
  8
EBENE_1
 62
    39
  6
CONTINUOUS
 10
-1.343421
 20
1.104976
  0
VERTEX
  8
EBENE_1
 62
    39
  6
CONTINUOUS
 10
-1.257165
 20
1.010094
  0
VERTEX
  8
EBENE_1
 62
    39
  6
CONTINUOUS
 10
-1.170906
 20
1.104976
  0
VERTEX
  8
EBENE_1
 62
    39
  6
CONTINUOUS
 10
-1.170906
 20
1.173984
  0
SEQEND
  8
0
  0
POLYLINE
  8
EBENE_1
 62
    39
  6
CONTINUOUS
 66
     1
 40
0.003000
 41
0.003000
 70
     1
  0
VERTEX
  8
EBENE_1
 62
    39
  6
CONTINUOUS
 10
-1.314957
 20
1.185491
  0
VERTEX
  8
EBENE_1
 62
    39
  6
CONTINUOUS
 10
-1.317104
 20
1.180890
  0
VERTEX
  8
EBENE_1
 62
    39
  6
CONTINUOUS
 10
-1.321087
 20
1.180891
  0
VERTEX
  8
EBENE_1
 62
    39
  6
CONTINUOUS
 10
-1.323232
 20
1.185493
  0
VERTEX
  8
EBENE_1
 62
    39
  6
CONTINUOUS
 10
-1.321085
 20
1.190094
  0
VERTEX
  8
EBENE_1
 62
    39
  6
CONTINUOUS
 10
-1.317103
 20
1.190094
  0
VERTEX
  8
EBENE_1
 62
    39
  6
CONTINUOUS
 10
-1.314957
 20
1.185492
  0
SEQEND
  8
0
  0
POLYLINE
  8
EBENE_1
 62
    39
  6
CONTINUOUS
 66
     1
 40
0.003000
 41
0.003000
 70
     1
  0
VERTEX
  8
EBENE_1
 62
    39
  6
CONTINUOUS
 10
-1.192386
 20
1.187944
  0
VERTEX
  8
EBENE_1
 62
    39
  6
CONTINUOUS
 10
-1.194535
 20
1.183346
  0
VERTEX
  8
EBENE_1
 62
    39
  6
CONTINUOUS
 10
-1.198522
 20
1.183347
  0
VERTEX
  8
EBENE_1
 62
    39
  6
CONTINUOUS
 10
-1.200669
 20
1.187945
  0
VERTEX
  8
EBENE_1
 62
    39
  6
CONTINUOUS
 10
-1.198520
 20
1.192543
  0
VERTEX
  8
EBENE_1
 62
    39
  6
CONTINUOUS
 10
-1.194534
 20
1.192543
  0
VERTEX
  8
EBENE_1
 62
    39
  6
CONTINUOUS
 10
-1.192386
 20
1.187945
  0
SEQEND
  8
0
  0
POLYLINE
  8
EBENE_1
 62
    39
  6
CONTINUOUS
 66
     1
 40
0.003000
 41
0.003000
 70
     1
  0
VERTEX
  8
EBENE_1
 62
    39
  6
CONTINUOUS
 10
-1.082138
 20
1.268870
  0
VERTEX
  8
EBENE_1
 62
    39
  6
CONTINUOUS
 10
-1.168398
 20
1.173984
  0
VERTEX
  8
EBENE_1
 62
    39
  6
CONTINUOUS
 10
-1.168398
 20
1.104976
  0
VERTEX
  8
EBENE_1
 62
    39
  6
CONTINUOUS
 10
-1.082138
 20
1.010094
  0
VERTEX
  8
EBENE_1
 62
    39
  6
CONTINUOUS
 10
-0.995882
 20
1.104976
  0
VERTEX
  8
EBENE_1
 62
    39
  6
CONTINUOUS
 10
-0.995882
 20
1.173984
  0
SEQEND
  8
0
  0
POLYLINE
  8
EBENE_1
 62
    39
  6
CONTINUOUS
 66
     1
 40
0.003000
 41
0.003000
 70
     1
  0
VERTEX
  8
EBENE_1
 62
    39
  6
CONTINUOUS
 10
-1.139933
 20
1.185491
  0
VERTEX
  8
EBENE_1
 62
    39
  6
CONTINUOUS
 10
-1.142081
 20
1.180890
  0
VERTEX
  8
EBENE_1
 62
    39
  6
CONTINUOUS
 10
-1.146063
 20
1.180891
  0
VERTEX
  8
EBENE_1
 62
    39
  6
CONTINUOUS
 10
-1.148209
 20
1.185493
  0
VERTEX
  8
EBENE_1
 62
    39
  6
CONTINUOUS
 10
-1.146061
 20
1.190094
  0
VERTEX
  8
EBENE_1
 62
    39
  6
CONTINUOUS
 10
-1.142079
 20
1.190094
  0
VERTEX
  8
EBENE_1
 62
    39
  6
CONTINUOUS
 10
-1.139933
 20
1.185492
  0
SEQEND
  8
0
  0
POLYLINE
  8
EBENE_1
 62
    39
  6
CONTINUOUS
 66
     1
 40
0.003000
 41
0.003000
 70
     1
  0
VERTEX
  8
EBENE_1
 62
    39
  6
CONTINUOUS
 10
-1.017362
 20
1.187944
  0
VERTEX
  8
EBENE_1
 62
    39
  6
CONTINUOUS
 10
-1.019510
 20
1.183346
  0
VERTEX
  8
EBENE_1
 62
    39
  6
CONTINUOUS
 10
-1.023492
 20
1.183347
  0
VERTEX
  8
EBENE_1
 62
    39
  6
CONTINUOUS
 10
-1.025638
 20
1.187945
  0
VERTEX
  8
EBENE_1
 62
    39
  6
CONTINUOUS
 10
-1.023491
 20
1.192543
  0
VERTEX
  8
EBENE_1
 62
    39
  6
CONTINUOUS
 10
-1.019508
 20
1.192543
  0
VERTEX
  8
EBENE_1
 62
    39
  6
CONTINUOUS
 10
-1.017362
 20
1.187945
  0
SEQEND
  8
0
  0
POLYLINE
  8
EBENE_1
 62
    39
  6
CONTINUOUS
 66
     1
 40
0.003000
 41
0.003000
 70
     1
  0
VERTEX
  8
EBENE_1
 62
    39
  6
CONTINUOUS
 10
-2.043760
 20
1.353657
  0
VERTEX
  8
EBENE_1
 62
    39
  6
CONTINUOUS
 10
-2.130020
 20
1.258772
  0
VERTEX
  8
EBENE_1
 62
    39
  6
CONTINUOUS
 10
-2.130020
 20
1.189764
  0
VERTEX
  8
EBENE_1
 62
    39
  6
CONTINUOUS
 10
-2.043760
 20
1.094882
  0
VERTEX
  8
EBENE_1
 62
    39
  6
CONTINUOUS
 10
-1.957504
 20
1.189764
  0
VERTEX
  8
EBENE_1
 62
    39
  6
CONTINUOUS
 10
-1.957504
 20
1.258772
  0
SEQEND
  8
0
  0
POLYLINE
  8
EBENE_1
 62
    39
  6
CONTINUOUS
 66
     1
 40
0.003000
 41
0.003000
 70
     1
  0
VERTEX
  8
EBENE_1
 62
    39
  6
CONTINUOUS
 10
-2.101555
 20
1.270283
  0
VERTEX
  8
EBENE_1
 62
    39
  6
CONTINUOUS
 10
-2.103703
 20
1.265685
  0
VERTEX
  8
EBENE_1
 62
    39
  6
CONTINUOUS
 10
-2.107685
 20
1.265685
  0
VERTEX
  8
EBENE_1
 62
    39
  6
CONTINUOUS
 10
-2.109831
 20
1.270284
  0
VERTEX
  8
EBENE_1
 62
    39
  6
CONTINUOUS
 10
-2.107683
 20
1.274882
  0
VERTEX
  8
EBENE_1
 62
    39
  6
CONTINUOUS
 10
-2.103701
 20
1.274882
  0
VERTEX
  8
EBENE_1
 62
    39
  6
CONTINUOUS
 10
-2.101555
 20
1.270283
  0
SEQEND
  8
0
  0
POLYLINE
  8
EBENE_1
 62
    39
  6
CONTINUOUS
 66
     1
 40
0.003000
 41
0.003000
 70
     1
  0
VERTEX
  8
EBENE_1
 62
    39
  6
CONTINUOUS
 10
-1.978984
 20
1.272731
  0
VERTEX
  8
EBENE_1
 62
    39
  6
CONTINUOUS
 10
-1.981132
 20
1.268130
  0
VERTEX
  8
EBENE_1
 62
    39
  6
CONTINUOUS
 10
-1.985114
 20
1.268131
  0
VERTEX
  8
EBENE_1
 62
    39
  6
CONTINUOUS
 10
-1.987260
 20
1.272733
  0
VERTEX
  8
EBENE_1
 62
    39
  6
CONTINUOUS
 10
-1.985113
 20
1.277334
  0
VERTEX
  8
EBENE_1
 62
    39
  6
CONTINUOUS
 10
-1.981130
 20
1.277334
  0
VERTEX
  8
EBENE_1
 62
    39
  6
CONTINUOUS
 10
-1.978984
 20
1.272732
  0
SEQEND
  8
0
  0
POLYLINE
  8
EBENE_1
 62
    39
  6
CONTINUOUS
 66
     1
 40
0.003000
 41
0.003000
 70
     1
  0
VERTEX
  8
EBENE_1
 62
    39
  6
CONTINUOUS
 10
-1.868736
 20
1.353657
  0
VERTEX
  8
EBENE_1
 62
    39
  6
CONTINUOUS
 10
-1.954996
 20
1.258772
  0
VERTEX
  8
EBENE_1
 62
    39
  6
CONTINUOUS
 10
-1.954996
 20
1.189764
  0
VERTEX
  8
EBENE_1
 62
    39
  6
CONTINUOUS
 10
-1.868736
 20
1.094882
  0
VERTEX
  8
EBENE_1
 62
    39
  6
CONTINUOUS
 10
-1.782476
 20
1.189764
  0
VERTEX
  8
EBENE_1
 62
    39
  6
CONTINUOUS
 10
-1.782476
 20
1.258772
  0
SEQEND
  8
0
  0
POLYLINE
  8
EBENE_1
 62
    39
  6
CONTINUOUS
 66
     1
 40
0.003000
 41
0.003000
 70
     1
  0
VERTEX
  8
EBENE_1
 62
    39
  6
CONTINUOUS
 10
-1.926528
 20
1.270283
  0
VERTEX
  8
EBENE_1
 62
    39
  6
CONTINUOUS
 10
-1.928677
 20
1.265685
  0
VERTEX
  8
EBENE_1
 62
    39
  6
CONTINUOUS
 10
-1.932663
 20
1.265685
  0
VERTEX
  8
EBENE_1
 62
    39
  6
CONTINUOUS
 10
-1.934811
 20
1.270284
  0
VERTEX
  8
EBENE_1
 62
    39
  6
CONTINUOUS
 10
-1.932662
 20
1.274882
  0
VERTEX
  8
EBENE_1
 62
    39
  6
CONTINUOUS
 10
-1.928675
 20
1.274882
  0
VERTEX
  8
EBENE_1
 62
    39
  6
CONTINUOUS
 10
-1.926528
 20
1.270283
  0
SEQEND
  8
0
  0
POLYLINE
  8
EBENE_1
 62
    39
  6
CONTINUOUS
 66
     1
 40
0.003000
 41
0.003000
 70
     1
  0
VERTEX
  8
EBENE_1
 62
    39
  6
CONTINUOUS
 10
-1.803961
 20
1.272731
  0
VERTEX
  8
EBENE_1
 62
    39
  6
CONTINUOUS
 10
-1.806108
 20
1.268130
  0
VERTEX
  8
EBENE_1
 62
    39
  6
CONTINUOUS
 10
-1.810091
 20
1.268131
  0
VERTEX
  8
EBENE_1
 62
    39
  6
CONTINUOUS
 10
-1.812236
 20
1.272733
  0
VERTEX
  8
EBENE_1
 62
    39
  6
CONTINUOUS
 10
-1.810089
 20
1.277334
  0
VERTEX
  8
EBENE_1
 62
    39
  6
CONTINUOUS
 10
-1.806107
 20
1.277334
  0
VERTEX
  8
EBENE_1
 62
    39
  6
CONTINUOUS
 10
-1.803961
 20
1.272732
  0
SEQEND
  8
0
  0
POLYLINE
  8
EBENE_1
 62
    39
  6
CONTINUOUS
 66
     1
 40
0.003000
 41
0.003000
 70
     1
  0
VERTEX
  8
EBENE_1
 62
    39
  6
CONTINUOUS
 10
-1.693713
 20
1.353657
  0
VERTEX
  8
EBENE_1
 62
    39
  6
CONTINUOUS
 10
-1.779969
 20
1.258772
  0
VERTEX
  8
EBENE_1
 62
    39
  6
CONTINUOUS
 10
-1.779969
 20
1.189764
  0
VERTEX
  8
EBENE_1
 62
    39
  6
CONTINUOUS
 10
-1.693713
 20
1.094882
  0
VERTEX
  8
EBENE_1
 62
    39
  6
CONTINUOUS
 10
-1.607453
 20
1.189764
  0
VERTEX
  8
EBENE_1
 62
    39
  6
CONTINUOUS
 10
-1.607453
 20
1.258772
  0
SEQEND
  8
0
  0
POLYLINE
  8
EBENE_1
 62
    39
  6
CONTINUOUS
 66
     1
 40
0.003000
 41
0.003000
 70
     1
  0
VERTEX
  8
EBENE_1
 62
    39
  6
CONTINUOUS
 10
-1.751504
 20
1.270283
  0
VERTEX
  8
EBENE_1
 62
    39
  6
CONTINUOUS
 10
-1.753651
 20
1.265685
  0
VERTEX
  8
EBENE_1
 62
    39
  6
CONTINUOUS
 10
-1.757634
 20
1.265685
  0
VERTEX
  8
EBENE_1
 62
    39
  6
CONTINUOUS
 10
-1.759780
 20
1.270284
  0
VERTEX
  8
EBENE_1
 62
    39
  6
CONTINUOUS
 10
-1.757632
 20
1.274882
  0
VERTEX
  8
EBENE_1
 62
    39
  6
CONTINUOUS
 10
-1.753650
 20
1.274882
  0
VERTEX
  8
EBENE_1
 62
    39
  6
CONTINUOUS
 10
-1.751504
 20
1.270283
  0
SEQEND
  8
0
  0
POLYLINE
  8
EBENE_1
 62
    39
  6
CONTINUOUS
 66
     1
 40
0.003000
 41
0.003000
 70
     1
  0
VERTEX
  8
EBENE_1
 62
    39
  6
CONTINUOUS
 10
-1.628933
 20
1.272731
  0
VERTEX
  8
EBENE_1
 62
    39
  6
CONTINUOUS
 10
-1.631083
 20
1.268130
  0
VERTEX
  8
EBENE_1
 62
    39
  6
CONTINUOUS
 10
-1.635069
 20
1.268131
  0
VERTEX
  8
EBENE_1
 62
    39
  6
CONTINUOUS
 10
-1.637217
 20
1.272733
  0
VERTEX
  8
EBENE_1
 62
    39
  6
CONTINUOUS
 10
-1.635067
 20
1.277334
  0
VERTEX
  8
EBENE_1
 62
    39
  6
CONTINUOUS
 10
-1.631081
 20
1.277334
  0
VERTEX
  8
EBENE_1
 62
    39
  6
CONTINUOUS
 10
-1.628933
 20
1.272732
  0
SEQEND
  8
0
  0
POLYLINE
  8
EBENE_1
 62
    39
  6
CONTINUOUS
 66
     1
 40
0.003000
 41
0.003000
 70
     1
  0
VERTEX
  8
EBENE_1
 62
    39
  6
CONTINUOUS
 10
-1.518685
 20
1.353657
  0
VERTEX
  8
EBENE_1
 62
    39
  6
CONTINUOUS
 10
-1.604945
 20
1.258772
  0
VERTEX
  8
EBENE_1
 62
    39
  6
CONTINUOUS
 10
-1.604945
 20
1.189764
  0
VERTEX
  8
EBENE_1
 62
    39
  6
CONTINUOUS
 10
-1.518685
 20
1.094882
  0
VERTEX
  8
EBENE_1
 62
    39
  6
CONTINUOUS
 10
-1.432429
 20
1.189764
  0
VERTEX
  8
EBENE_1
 62
    39
  6
CONTINUOUS
 10
-1.432429
 20
1.258772
  0
SEQEND
  8
0
  0
POLYLINE
  8
EBENE_1
 62
    39
  6
CONTINUOUS
 66
     1
 40
0.003000
 41
0.003000
 70
     1
  0
VERTEX
  8
EBENE_1
 62
    39
  6
CONTINUOUS
 10
-1.576480
 20
1.270283
  0
VERTEX
  8
EBENE_1
 62
    39
  6
CONTINUOUS
 10
-1.578628
 20
1.265685
  0
VERTEX
  8
EBENE_1
 62
    39
  6
CONTINUOUS
 10
-1.582610
 20
1.265685
  0
VERTEX
  8
EBENE_1
 62
    39
  6
CONTINUOUS
 10
-1.584756
 20
1.270284
  0
VERTEX
  8
EBENE_1
 62
    39
  6
CONTINUOUS
 10
-1.582609
 20
1.274882
  0
VERTEX
  8
EBENE_1
 62
    39
  6
CONTINUOUS
 10
-1.578626
 20
1.274882
  0
VERTEX
  8
EBENE_1
 62
    39
  6
CONTINUOUS
 10
-1.576480
 20
1.270283
  0
SEQEND
  8
0
  0
POLYLINE
  8
EBENE_1
 62
    39
  6
CONTINUOUS
 66
     1
 40
0.003000
 41
0.003000
 70
     1
  0
VERTEX
  8
EBENE_1
 62
    39
  6
CONTINUOUS
 10
-1.453909
 20
1.272731
  0
VERTEX
  8
EBENE_1
 62
    39
  6
CONTINUOUS
 10
-1.456057
 20
1.268130
  0
VERTEX
  8
EBENE_1
 62
    39
  6
CONTINUOUS
 10
-1.460039
 20
1.268131
  0
VERTEX
  8
EBENE_1
 62
    39
  6
CONTINUOUS
 10
-1.462185
 20
1.272733
  0
VERTEX
  8
EBENE_1
 62
    39
  6
CONTINUOUS
 10
-1.460038
 20
1.277334
  0
VERTEX
  8
EBENE_1
 62
    39
  6
CONTINUOUS
 10
-1.456055
 20
1.277334
  0
VERTEX
  8
EBENE_1
 62
    39
  6
CONTINUOUS
 10
-1.453909
 20
1.272732
  0
SEQEND
  8
0
  0
POLYLINE
  8
EBENE_1
 62
    39
  6
CONTINUOUS
 66
     1
 40
0.003000
 41
0.003000
 70
     1
  0
VERTEX
  8
EBENE_1
 62
    39
  6
CONTINUOUS
 10
-1.343661
 20
1.353657
  0
VERTEX
  8
EBENE_1
 62
    39
  6
CONTINUOUS
 10
-1.429921
 20
1.258772
  0
VERTEX
  8
EBENE_1
 62
    39
  6
CONTINUOUS
 10
-1.429921
 20
1.189764
  0
VERTEX
  8
EBENE_1
 62
    39
  6
CONTINUOUS
 10
-1.343661
 20
1.094882
  0
VERTEX
  8
EBENE_1
 62
    39
  6
CONTINUOUS
 10
-1.257402
 20
1.189764
  0
VERTEX
  8
EBENE_1
 62
    39
  6
CONTINUOUS
 10
-1.257402
 20
1.258772
  0
SEQEND
  8
0
  0
POLYLINE
  8
EBENE_1
 62
    39
  6
CONTINUOUS
 66
     1
 40
0.003000
 41
0.003000
 70
     1
  0
VERTEX
  8
EBENE_1
 62
    39
  6
CONTINUOUS
 10
-1.401453
 20
1.270283
  0
VERTEX
  8
EBENE_1
 62
    39
  6
CONTINUOUS
 10
-1.403602
 20
1.265685
  0
VERTEX
  8
EBENE_1
 62
    39
  6
CONTINUOUS
 10
-1.407589
 20
1.265685
  0
VERTEX
  8
EBENE_1
 62
    39
  6
CONTINUOUS
 10
-1.409736
 20
1.270284
  0
VERTEX
  8
EBENE_1
 62
    39
  6
CONTINUOUS
 10
-1.407587
 20
1.274882
  0
VERTEX
  8
EBENE_1
 62
    39
  6
CONTINUOUS
 10
-1.403601
 20
1.274882
  0
VERTEX
  8
EBENE_1
 62
    39
  6
CONTINUOUS
 10
-1.401453
 20
1.270283
  0
SEQEND
  8
0
  0
POLYLINE
  8
EBENE_1
 62
    39
  6
CONTINUOUS
 66
     1
 40
0.003000
 41
0.003000
 70
     1
  0
VERTEX
  8
EBENE_1
 62
    39
  6
CONTINUOUS
 10
-1.278886
 20
1.272731
  0
VERTEX
  8
EBENE_1
 62
    39
  6
CONTINUOUS
 10
-1.281033
 20
1.268130
  0
VERTEX
  8
EBENE_1
 62
    39
  6
CONTINUOUS
 10
-1.285016
 20
1.268131
  0
VERTEX
  8
EBENE_1
 62
    39
  6
CONTINUOUS
 10
-1.287161
 20
1.272733
  0
VERTEX
  8
EBENE_1
 62
    39
  6
CONTINUOUS
 10
-1.285014
 20
1.277334
  0
VERTEX
  8
EBENE_1
 62
    39
  6
CONTINUOUS
 10
-1.281032
 20
1.277334
  0
VERTEX
  8
EBENE_1
 62
    39
  6
CONTINUOUS
 10
-1.278886
 20
1.272732
  0
SEQEND
  8
0
  0
POLYLINE
  8
EBENE_1
 62
    39
  6
CONTINUOUS
 66
     1
 40
0.003000
 41
0.003000
 70
     1
  0
VERTEX
  8
EBENE_1
 62
    39
  6
CONTINUOUS
 10
-1.168638
 20
1.353657
  0
VERTEX
  8
EBENE_1
 62
    39
  6
CONTINUOUS
 10
-1.254894
 20
1.258772
  0
VERTEX
  8
EBENE_1
 62
    39
  6
CONTINUOUS
 10
-1.254894
 20
1.189764
  0
VERTEX
  8
EBENE_1
 62
    39
  6
CONTINUOUS
 10
-1.168638
 20
1.094882
  0
VERTEX
  8
EBENE_1
 62
    39
  6
CONTINUOUS
 10
-1.082378
 20
1.189764
  0
VERTEX
  8
EBENE_1
 62
    39
  6
CONTINUOUS
 10
-1.082378
 20
1.258772
  0
SEQEND
  8
0
  0
POLYLINE
  8
EBENE_1
 62
    39
  6
CONTINUOUS
 66
     1
 40
0.003000
 41
0.003000
 70
     1
  0
VERTEX
  8
EBENE_1
 62
    39
  6
CONTINUOUS
 10
-1.226429
 20
1.270283
  0
VERTEX
  8
EBENE_1
 62
    39
  6
CONTINUOUS
 10
-1.228577
 20
1.265685
  0
VERTEX
  8
EBENE_1
 62
    39
  6
CONTINUOUS
 10
-1.232559
 20
1.265685
  0
VERTEX
  8
EBENE_1
 62
    39
  6
CONTINUOUS
 10
-1.234705
 20
1.270284
  0
VERTEX
  8
EBENE_1
 62
    39
  6
CONTINUOUS
 10
-1.232558
 20
1.274882
  0
VERTEX
  8
EBENE_1
 62
    39
  6
CONTINUOUS
 10
-1.228575
 20
1.274882
  0
VERTEX
  8
EBENE_1
 62
    39
  6
CONTINUOUS
 10
-1.226429
 20
1.270283
  0
SEQEND
  8
0
  0
POLYLINE
  8
EBENE_1
 62
    39
  6
CONTINUOUS
 66
     1
 40
0.003000
 41
0.003000
 70
     1
  0
VERTEX
  8
EBENE_1
 62
    39
  6
CONTINUOUS
 10
-1.103858
 20
1.272731
  0
VERTEX
  8
EBENE_1
 62
    39
  6
CONTINUOUS
 10
-1.106008
 20
1.268130
  0
VERTEX
  8
EBENE_1
 62
    39
  6
CONTINUOUS
 10
-1.109994
 20
1.268131
  0
VERTEX
  8
EBENE_1
 62
    39
  6
CONTINUOUS
 10
-1.112142
 20
1.272733
  0
VERTEX
  8
EBENE_1
 62
    39
  6
CONTINUOUS
 10
-1.109992
 20
1.277334
  0
VERTEX
  8
EBENE_1
 62
    39
  6
CONTINUOUS
 10
-1.106006
 20
1.277334
  0
VERTEX
  8
EBENE_1
 62
    39
  6
CONTINUOUS
 10
-1.103858
 20
1.272732
  0
SEQEND
  8
0
  0
POLYLINE
  8
EBENE_1
 62
    39
  6
CONTINUOUS
 66
     1
 40
0.003000
 41
0.003000
 70
     1
  0
VERTEX
  8
EBENE_1
 62
    39
  6
CONTINUOUS
 10
-0.993610
 20
1.353657
  0
VERTEX
  8
EBENE_1
 62
    39
  6
CONTINUOUS
 10
-1.079870
 20
1.258772
  0
VERTEX
  8
EBENE_1
 62
    39
  6
CONTINUOUS
 10
-1.079870
 20
1.189764
  0
VERTEX
  8
EBENE_1
 62
    39
  6
CONTINUOUS
 10
-0.993610
 20
1.094882
  0
VERTEX
  8
EBENE_1
 62
    39
  6
CONTINUOUS
 10
-0.907354
 20
1.189764
  0
VERTEX
  8
EBENE_1
 62
    39
  6
CONTINUOUS
 10
-0.907354
 20
1.258772
  0
SEQEND
  8
0
  0
POLYLINE
  8
EBENE_1
 62
    39
  6
CONTINUOUS
 66
     1
 40
0.003000
 41
0.003000
 70
     1
  0
VERTEX
  8
EBENE_1
 62
    39
  6
CONTINUOUS
 10
-1.051406
 20
1.270283
  0
VERTEX
  8
EBENE_1
 62
    39
  6
CONTINUOUS
 10
-1.053553
 20
1.265685
  0
VERTEX
  8
EBENE_1
 62
    39
  6
CONTINUOUS
 10
-1.057536
 20
1.265685
  0
VERTEX
  8
EBENE_1
 62
    39
  6
CONTINUOUS
 10
-1.059681
 20
1.270284
  0
VERTEX
  8
EBENE_1
 62
    39
  6
CONTINUOUS
 10
-1.057534
 20
1.274882
  0
VERTEX
  8
EBENE_1
 62
    39
  6
CONTINUOUS
 10
-1.053551
 20
1.274882
  0
VERTEX
  8
EBENE_1
 62
    39
  6
CONTINUOUS
 10
-1.051406
 20
1.270283
  0
SEQEND
  8
0
  0
POLYLINE
  8
EBENE_1
 62
    39
  6
CONTINUOUS
 66
     1
 40
0.003000
 41
0.003000
 70
     1
  0
VERTEX
  8
EBENE_1
 62
    39
  6
CONTINUOUS
 10
-0.928835
 20
1.272731
  0
VERTEX
  8
EBENE_1
 62
    39
  6
CONTINUOUS
 10
-0.930984
 20
1.268130
  0
VERTEX
  8
EBENE_1
 62
    39
  6
CONTINUOUS
 10
-0.934971
 20
1.268131
  0
VERTEX
  8
EBENE_1
 62
    39
  6
CONTINUOUS
 10
-0.937118
 20
1.272733
  0
VERTEX
  8
EBENE_1
 62
    39
  6
CONTINUOUS
 10
-0.934969
 20
1.277334
  0
VERTEX
  8
EBENE_1
 62
    39
  6
CONTINUOUS
 10
-0.930983
 20
1.277334
  0
VERTEX
  8
EBENE_1
 62
    39
  6
CONTINUOUS
 10
-0.928835
 20
1.272732
  0
SEQEND
  8
0
  0
POLYLINE
  8
EBENE_1
 62
    39
  6
CONTINUOUS
 66
     1
 40
0.003000
 41
0.003000
 70
     1
  0
VERTEX
  8
EBENE_1
 62
    39
  6
CONTINUOUS
 10
-2.218787
 20
1.353657
  0
VERTEX
  8
EBENE_1
 62
    39
  6
CONTINUOUS
 10
-2.305043
 20
1.258772
  0
VERTEX
  8
EBENE_1
 62
    39
  6
CONTINUOUS
 10
-2.305043
 20
1.189764
  0
VERTEX
  8
EBENE_1
 62
    39
  6
CONTINUOUS
 10
-2.218787
 20
1.094882
  0
VERTEX
  8
EBENE_1
 62
    39
  6
CONTINUOUS
 10
-2.132528
 20
1.189764
  0
VERTEX
  8
EBENE_1
 62
    39
  6
CONTINUOUS
 10
-2.132528
 20
1.258772
  0
SEQEND
  8
0
  0
POLYLINE
  8
EBENE_1
 62
    39
  6
CONTINUOUS
 66
     1
 40
0.003000
 41
0.003000
 70
     1
  0
VERTEX
  8
EBENE_1
 62
    39
  6
CONTINUOUS
 10
-2.276579
 20
1.270283
  0
VERTEX
  8
EBENE_1
 62
    39
  6
CONTINUOUS
 10
-2.278726
 20
1.265685
  0
VERTEX
  8
EBENE_1
 62
    39
  6
CONTINUOUS
 10
-2.282709
 20
1.265685
  0
VERTEX
  8
EBENE_1
 62
    39
  6
CONTINUOUS
 10
-2.284854
 20
1.270284
  0
VERTEX
  8
EBENE_1
 62
    39
  6
CONTINUOUS
 10
-2.282707
 20
1.274882
  0
VERTEX
  8
EBENE_1
 62
    39
  6
CONTINUOUS
 10
-2.278725
 20
1.274882
  0
VERTEX
  8
EBENE_1
 62
    39
  6
CONTINUOUS
 10
-2.276579
 20
1.270283
  0
SEQEND
  8
0
  0
POLYLINE
  8
EBENE_1
 62
    39
  6
CONTINUOUS
 66
     1
 40
0.003000
 41
0.003000
 70
     1
  0
VERTEX
  8
EBENE_1
 62
    39
  6
CONTINUOUS
 10
-2.154008
 20
1.272731
  0
VERTEX
  8
EBENE_1
 62
    39
  6
CONTINUOUS
 10
-2.156157
 20
1.268130
  0
VERTEX
  8
EBENE_1
 62
    39
  6
CONTINUOUS
 10
-2.160144
 20
1.268131
  0
VERTEX
  8
EBENE_1
 62
    39
  6
CONTINUOUS
 10
-2.162291
 20
1.272733
  0
VERTEX
  8
EBENE_1
 62
    39
  6
CONTINUOUS
 10
-2.160142
 20
1.277334
  0
VERTEX
  8
EBENE_1
 62
    39
  6
CONTINUOUS
 10
-2.156156
 20
1.277334
  0
VERTEX
  8
EBENE_1
 62
    39
  6
CONTINUOUS
 10
-2.154008
 20
1.272732
  0
SEQEND
  8
0
  0
POLYLINE
  8
EBENE_1
 62
    39
  6
CONTINUOUS
 66
     1
 40
0.003000
 41
0.003000
 70
     1
  0
VERTEX
  8
EBENE_1
 62
    39
  6
CONTINUOUS
 10
-2.393811
 20
1.353657
  0
VERTEX
  8
EBENE_1
 62
    39
  6
CONTINUOUS
 10
-2.480071
 20
1.258772
  0
VERTEX
  8
EBENE_1
 62
    39
  6
CONTINUOUS
 10
-2.480071
 20
1.189764
  0
VERTEX
  8
EBENE_1
 62
    39
  6
CONTINUOUS
 10
-2.393811
 20
1.094882
  0
VERTEX
  8
EBENE_1
 62
    39
  6
CONTINUOUS
 10
-2.307551
 20
1.189764
  0
VERTEX
  8
EBENE_1
 62
    39
  6
CONTINUOUS
 10
-2.307551
 20
1.258772
  0
SEQEND
  8
0
  0
POLYLINE
  8
EBENE_1
 62
    39
  6
CONTINUOUS
 66
     1
 40
0.003000
 41
0.003000
 70
     1
  0
VERTEX
  8
EBENE_1
 62
    39
  6
CONTINUOUS
 10
-2.451602
 20
1.270283
  0
VERTEX
  8
EBENE_1
 62
    39
  6
CONTINUOUS
 10
-2.453750
 20
1.265685
  0
VERTEX
  8
EBENE_1
 62
    39
  6
CONTINUOUS
 10
-2.457732
 20
1.265685
  0
VERTEX
  8
EBENE_1
 62
    39
  6
CONTINUOUS
 10
-2.459878
 20
1.270284
  0
VERTEX
  8
EBENE_1
 62
    39
  6
CONTINUOUS
 10
-2.457731
 20
1.274882
  0
VERTEX
  8
EBENE_1
 62
    39
  6
CONTINUOUS
 10
-2.453748
 20
1.274882
  0
VERTEX
  8
EBENE_1
 62
    39
  6
CONTINUOUS
 10
-2.451602
 20
1.270283
  0
SEQEND
  8
0
  0
POLYLINE
  8
EBENE_1
 62
    39
  6
CONTINUOUS
 66
     1
 40
0.003000
 41
0.003000
 70
     1
  0
VERTEX
  8
EBENE_1
 62
    39
  6
CONTINUOUS
 10
-2.329035
 20
1.272731
  0
VERTEX
  8
EBENE_1
 62
    39
  6
CONTINUOUS
 10
-2.331183
 20
1.268130
  0
VERTEX
  8
EBENE_1
 62
    39
  6
CONTINUOUS
 10
-2.335165
 20
1.268131
  0
VERTEX
  8
EBENE_1
 62
    39
  6
CONTINUOUS
 10
-2.337311
 20
1.272733
  0
VERTEX
  8
EBENE_1
 62
    39
  6
CONTINUOUS
 10
-2.335164
 20
1.277334
  0
VERTEX
  8
EBENE_1
 62
    39
  6
CONTINUOUS
 10
-2.331181
 20
1.277334
  0
VERTEX
  8
EBENE_1
 62
    39
  6
CONTINUOUS
 10
-2.329035
 20
1.272732
  0
SEQEND
  8
0
  0
POLYLINE
  8
EBENE_1
 62
    39
  6
CONTINUOUS
 66
     1
 40
0.003000
 41
0.003000
 70
     1
  0
VERTEX
  8
EBENE_1
 62
    39
  6
CONTINUOUS
 10
-2.305437
 20
1.437504
  0
VERTEX
  8
EBENE_1
 62
    39
  6
CONTINUOUS
 10
-2.391697
 20
1.342618
  0
VERTEX
  8
EBENE_1
 62
    39
  6
CONTINUOUS
 10
-2.391697
 20
1.273610
  0
VERTEX
  8
EBENE_1
 62
    39
  6
CONTINUOUS
 10
-2.305437
 20
1.178728
  0
VERTEX
  8
EBENE_1
 62
    39
  6
CONTINUOUS
 10
-2.219177
 20
1.273610
  0
VERTEX
  8
EBENE_1
 62
    39
  6
CONTINUOUS
 10
-2.219177
 20
1.342618
  0
SEQEND
  8
0
  0
POLYLINE
  8
EBENE_1
 62
    39
  6
CONTINUOUS
 66
     1
 40
0.003000
 41
0.003000
 70
     1
  0
VERTEX
  8
EBENE_1
 62
    39
  6
CONTINUOUS
 10
-2.363228
 20
1.354129
  0
VERTEX
  8
EBENE_1
 62
    39
  6
CONTINUOUS
 10
-2.365378
 20
1.349531
  0
VERTEX
  8
EBENE_1
 62
    39
  6
CONTINUOUS
 10
-2.369364
 20
1.349532
  0
VERTEX
  8
EBENE_1
 62
    39
  6
CONTINUOUS
 10
-2.371512
 20
1.354130
  0
VERTEX
  8
EBENE_1
 62
    39
  6
CONTINUOUS
 10
-2.369363
 20
1.358728
  0
VERTEX
  8
EBENE_1
 62
    39
  6
CONTINUOUS
 10
-2.365376
 20
1.358728
  0
VERTEX
  8
EBENE_1
 62
    39
  6
CONTINUOUS
 10
-2.363228
 20
1.354130
  0
SEQEND
  8
0
  0
POLYLINE
  8
EBENE_1
 62
    39
  6
CONTINUOUS
 66
     1
 40
0.003000
 41
0.003000
 70
     1
  0
VERTEX
  8
EBENE_1
 62
    39
  6
CONTINUOUS
 10
-2.240661
 20
1.356578
  0
VERTEX
  8
EBENE_1
 62
    39
  6
CONTINUOUS
 10
-2.242809
 20
1.351980
  0
VERTEX
  8
EBENE_1
 62
    39
  6
CONTINUOUS
 10
-2.246791
 20
1.351981
  0
VERTEX
  8
EBENE_1
 62
    39
  6
CONTINUOUS
 10
-2.248937
 20
1.356579
  0
VERTEX
  8
EBENE_1
 62
    39
  6
CONTINUOUS
 10
-2.246790
 20
1.361177
  0
VERTEX
  8
EBENE_1
 62
    39
  6
CONTINUOUS
 10
-2.242807
 20
1.361177
  0
VERTEX
  8
EBENE_1
 62
    39
  6
CONTINUOUS
 10
-2.240661
 20
1.356579
  0
SEQEND
  8
0
  0
POLYLINE
  8
EBENE_1
 62
    39
  6
CONTINUOUS
 66
     1
 40
0.003000
 41
0.003000
 70
     1
  0
VERTEX
  8
EBENE_1
 62
    39
  6
CONTINUOUS
 10
-2.130413
 20
1.437504
  0
VERTEX
  8
EBENE_1
 62
    39
  6
CONTINUOUS
 10
-2.216673
 20
1.342618
  0
VERTEX
  8
EBENE_1
 62
    39
  6
CONTINUOUS
 10
-2.216673
 20
1.273610
  0
VERTEX
  8
EBENE_1
 62
    39
  6
CONTINUOUS
 10
-2.130413
 20
1.178728
  0
VERTEX
  8
EBENE_1
 62
    39
  6
CONTINUOUS
 10
-2.044154
 20
1.273610
  0
VERTEX
  8
EBENE_1
 62
    39
  6
CONTINUOUS
 10
-2.044154
 20
1.342618
  0
SEQEND
  8
0
  0
POLYLINE
  8
EBENE_1
 62
    39
  6
CONTINUOUS
 66
     1
 40
0.003000
 41
0.003000
 70
     1
  0
VERTEX
  8
EBENE_1
 62
    39
  6
CONTINUOUS
 10
-2.188205
 20
1.354129
  0
VERTEX
  8
EBENE_1
 62
    39
  6
CONTINUOUS
 10
-2.190352
 20
1.349531
  0
VERTEX
  8
EBENE_1
 62
    39
  6
CONTINUOUS
 10
-2.194335
 20
1.349532
  0
VERTEX
  8
EBENE_1
 62
    39
  6
CONTINUOUS
 10
-2.196480
 20
1.354130
  0
VERTEX
  8
EBENE_1
 62
    39
  6
CONTINUOUS
 10
-2.194333
 20
1.358728
  0
VERTEX
  8
EBENE_1
 62
    39
  6
CONTINUOUS
 10
-2.190351
 20
1.358728
  0
VERTEX
  8
EBENE_1
 62
    39
  6
CONTINUOUS
 10
-2.188205
 20
1.354130
  0
SEQEND
  8
0
  0
POLYLINE
  8
EBENE_1
 62
    39
  6
CONTINUOUS
 66
     1
 40
0.003000
 41
0.003000
 70
     1
  0
VERTEX
  8
EBENE_1
 62
    39
  6
CONTINUOUS
 10
-2.065638
 20
1.356578
  0
VERTEX
  8
EBENE_1
 62
    39
  6
CONTINUOUS
 10
-2.067785
 20
1.351980
  0
VERTEX
  8
EBENE_1
 62
    39
  6
CONTINUOUS
 10
-2.071768
 20
1.351981
  0
VERTEX
  8
EBENE_1
 62
    39
  6
CONTINUOUS
 10
-2.073913
 20
1.356579
  0
VERTEX
  8
EBENE_1
 62
    39
  6
CONTINUOUS
 10
-2.071766
 20
1.361177
  0
VERTEX
  8
EBENE_1
 62
    39
  6
CONTINUOUS
 10
-2.067784
 20
1.361177
  0
VERTEX
  8
EBENE_1
 62
    39
  6
CONTINUOUS
 10
-2.065638
 20
1.356579
  0
SEQEND
  8
0
  0
POLYLINE
  8
EBENE_1
 62
    39
  6
CONTINUOUS
 66
     1
 40
0.003000
 41
0.003000
 70
     1
  0
VERTEX
  8
EBENE_1
 62
    39
  6
CONTINUOUS
 10
-1.955390
 20
1.437504
  0
VERTEX
  8
EBENE_1
 62
    39
  6
CONTINUOUS
 10
-2.041646
 20
1.342618
  0
VERTEX
  8
EBENE_1
 62
    39
  6
CONTINUOUS
 10
-2.041646
 20
1.273610
  0
VERTEX
  8
EBENE_1
 62
    39
  6
CONTINUOUS
 10
-1.955390
 20
1.178728
  0
VERTEX
  8
EBENE_1
 62
    39
  6
CONTINUOUS
 10
-1.869130
 20
1.273610
  0
VERTEX
  8
EBENE_1
 62
    39
  6
CONTINUOUS
 10
-1.869130
 20
1.342618
  0
SEQEND
  8
0
  0
POLYLINE
  8
EBENE_1
 62
    39
  6
CONTINUOUS
 66
     1
 40
0.003000
 41
0.003000
 70
     1
  0
VERTEX
  8
EBENE_1
 62
    39
  6
CONTINUOUS
 10
-2.013181
 20
1.354129
  0
VERTEX
  8
EBENE_1
 62
    39
  6
CONTINUOUS
 10
-2.015329
 20
1.349531
  0
VERTEX
  8
EBENE_1
 62
    39
  6
CONTINUOUS
 10
-2.019311
 20
1.349532
  0
VERTEX
  8
EBENE_1
 62
    39
  6
CONTINUOUS
 10
-2.021457
 20
1.354130
  0
VERTEX
  8
EBENE_1
 62
    39
  6
CONTINUOUS
 10
-2.019309
 20
1.358728
  0
VERTEX
  8
EBENE_1
 62
    39
  6
CONTINUOUS
 10
-2.015327
 20
1.358728
  0
VERTEX
  8
EBENE_1
 62
    39
  6
CONTINUOUS
 10
-2.013181
 20
1.354130
  0
SEQEND
  8
0
  0
POLYLINE
  8
EBENE_1
 62
    39
  6
CONTINUOUS
 66
     1
 40
0.003000
 41
0.003000
 70
     1
  0
VERTEX
  8
EBENE_1
 62
    39
  6
CONTINUOUS
 10
-1.890610
 20
1.356578
  0
VERTEX
  8
EBENE_1
 62
    39
  6
CONTINUOUS
 10
-1.892760
 20
1.351980
  0
VERTEX
  8
EBENE_1
 62
    39
  6
CONTINUOUS
 10
-1.896746
 20
1.351981
  0
VERTEX
  8
EBENE_1
 62
    39
  6
CONTINUOUS
 10
-1.898894
 20
1.356579
  0
VERTEX
  8
EBENE_1
 62
    39
  6
CONTINUOUS
 10
-1.896744
 20
1.361177
  0
VERTEX
  8
EBENE_1
 62
    39
  6
CONTINUOUS
 10
-1.892758
 20
1.361177
  0
VERTEX
  8
EBENE_1
 62
    39
  6
CONTINUOUS
 10
-1.890610
 20
1.356579
  0
SEQEND
  8
0
  0
POLYLINE
  8
EBENE_1
 62
    39
  6
CONTINUOUS
 66
     1
 40
0.003000
 41
0.003000
 70
     1
  0
VERTEX
  8
EBENE_1
 62
    39
  6
CONTINUOUS
 10
-1.780362
 20
1.437504
  0
VERTEX
  8
EBENE_1
 62
    39
  6
CONTINUOUS
 10
-1.866622
 20
1.342618
  0
VERTEX
  8
EBENE_1
 62
    39
  6
CONTINUOUS
 10
-1.866622
 20
1.273610
  0
VERTEX
  8
EBENE_1
 62
    39
  6
CONTINUOUS
 10
-1.780362
 20
1.178728
  0
VERTEX
  8
EBENE_1
 62
    39
  6
CONTINUOUS
 10
-1.694106
 20
1.273610
  0
VERTEX
  8
EBENE_1
 62
    39
  6
CONTINUOUS
 10
-1.694106
 20
1.342618
  0
SEQEND
  8
0
  0
POLYLINE
  8
EBENE_1
 62
    39
  6
CONTINUOUS
 66
     1
 40
0.003000
 41
0.003000
 70
     1
  0
VERTEX
  8
EBENE_1
 62
    39
  6
CONTINUOUS
 10
-1.838157
 20
1.354129
  0
VERTEX
  8
EBENE_1
 62
    39
  6
CONTINUOUS
 10
-1.840305
 20
1.349531
  0
VERTEX
  8
EBENE_1
 62
    39
  6
CONTINUOUS
 10
-1.844288
 20
1.349532
  0
VERTEX
  8
EBENE_1
 62
    39
  6
CONTINUOUS
 10
-1.846433
 20
1.354130
  0
VERTEX
  8
EBENE_1
 62
    39
  6
CONTINUOUS
 10
-1.844286
 20
1.358728
  0
VERTEX
  8
EBENE_1
 62
    39
  6
CONTINUOUS
 10
-1.840303
 20
1.358728
  0
VERTEX
  8
EBENE_1
 62
    39
  6
CONTINUOUS
 10
-1.838157
 20
1.354130
  0
SEQEND
  8
0
  0
POLYLINE
  8
EBENE_1
 62
    39
  6
CONTINUOUS
 66
     1
 40
0.003000
 41
0.003000
 70
     1
  0
VERTEX
  8
EBENE_1
 62
    39
  6
CONTINUOUS
 10
-1.715587
 20
1.356578
  0
VERTEX
  8
EBENE_1
 62
    39
  6
CONTINUOUS
 10
-1.717734
 20
1.351980
  0
VERTEX
  8
EBENE_1
 62
    39
  6
CONTINUOUS
 10
-1.721717
 20
1.351981
  0
VERTEX
  8
EBENE_1
 62
    39
  6
CONTINUOUS
 10
-1.723862
 20
1.356579
  0
VERTEX
  8
EBENE_1
 62
    39
  6
CONTINUOUS
 10
-1.721715
 20
1.361177
  0
VERTEX
  8
EBENE_1
 62
    39
  6
CONTINUOUS
 10
-1.717733
 20
1.361177
  0
VERTEX
  8
EBENE_1
 62
    39
  6
CONTINUOUS
 10
-1.715587
 20
1.356579
  0
SEQEND
  8
0
  0
POLYLINE
  8
EBENE_1
 62
    39
  6
CONTINUOUS
 66
     1
 40
0.003000
 41
0.003000
 70
     1
  0
VERTEX
  8
EBENE_1
 62
    39
  6
CONTINUOUS
 10
-1.605339
 20
1.437504
  0
VERTEX
  8
EBENE_1
 62
    39
  6
CONTINUOUS
 10
-1.691598
 20
1.342618
  0
VERTEX
  8
EBENE_1
 62
    39
  6
CONTINUOUS
 10
-1.691598
 20
1.273610
  0
VERTEX
  8
EBENE_1
 62
    39
  6
CONTINUOUS
 10
-1.605339
 20
1.178728
  0
VERTEX
  8
EBENE_1
 62
    39
  6
CONTINUOUS
 10
-1.519079
 20
1.273610
  0
VERTEX
  8
EBENE_1
 62
    39
  6
CONTINUOUS
 10
-1.519079
 20
1.342618
  0
SEQEND
  8
0
  0
POLYLINE
  8
EBENE_1
 62
    39
  6
CONTINUOUS
 66
     1
 40
0.003000
 41
0.003000
 70
     1
  0
VERTEX
  8
EBENE_1
 62
    39
  6
CONTINUOUS
 10
-1.663130
 20
1.354129
  0
VERTEX
  8
EBENE_1
 62
    39
  6
CONTINUOUS
 10
-1.665280
 20
1.349531
  0
VERTEX
  8
EBENE_1
 62
    39
  6
CONTINUOUS
 10
-1.669266
 20
1.349532
  0
VERTEX
  8
EBENE_1
 62
    39
  6
CONTINUOUS
 10
-1.671413
 20
1.354130
  0
VERTEX
  8
EBENE_1
 62
    39
  6
CONTINUOUS
 10
-1.669264
 20
1.358728
  0
VERTEX
  8
EBENE_1
 62
    39
  6
CONTINUOUS
 10
-1.665278
 20
1.358728
  0
VERTEX
  8
EBENE_1
 62
    39
  6
CONTINUOUS
 10
-1.663130
 20
1.354130
  0
SEQEND
  8
0
  0
POLYLINE
  8
EBENE_1
 62
    39
  6
CONTINUOUS
 66
     1
 40
0.003000
 41
0.003000
 70
     1
  0
VERTEX
  8
EBENE_1
 62
    39
  6
CONTINUOUS
 10
-1.540563
 20
1.356578
  0
VERTEX
  8
EBENE_1
 62
    39
  6
CONTINUOUS
 10
-1.542711
 20
1.351980
  0
VERTEX
  8
EBENE_1
 62
    39
  6
CONTINUOUS
 10
-1.546693
 20
1.351981
  0
VERTEX
  8
EBENE_1
 62
    39
  6
CONTINUOUS
 10
-1.548839
 20
1.356579
  0
VERTEX
  8
EBENE_1
 62
    39
  6
CONTINUOUS
 10
-1.546691
 20
1.361177
  0
VERTEX
  8
EBENE_1
 62
    39
  6
CONTINUOUS
 10
-1.542709
 20
1.361177
  0
VERTEX
  8
EBENE_1
 62
    39
  6
CONTINUOUS
 10
-1.540563
 20
1.356579
  0
SEQEND
  8
0
  0
POLYLINE
  8
EBENE_1
 62
    39
  6
CONTINUOUS
 66
     1
 40
0.003000
 41
0.003000
 70
     1
  0
VERTEX
  8
EBENE_1
 62
    39
  6
CONTINUOUS
 10
-1.430315
 20
1.437504
  0
VERTEX
  8
EBENE_1
 62
    39
  6
CONTINUOUS
 10
-1.516571
 20
1.342618
  0
VERTEX
  8
EBENE_1
 62
    39
  6
CONTINUOUS
 10
-1.516571
 20
1.273610
  0
VERTEX
  8
EBENE_1
 62
    39
  6
CONTINUOUS
 10
-1.430315
 20
1.178728
  0
VERTEX
  8
EBENE_1
 62
    39
  6
CONTINUOUS
 10
-1.344055
 20
1.273610
  0
VERTEX
  8
EBENE_1
 62
    39
  6
CONTINUOUS
 10
-1.344055
 20
1.342618
  0
SEQEND
  8
0
  0
POLYLINE
  8
EBENE_1
 62
    39
  6
CONTINUOUS
 66
     1
 40
0.003000
 41
0.003000
 70
     1
  0
VERTEX
  8
EBENE_1
 62
    39
  6
CONTINUOUS
 10
-1.488106
 20
1.354129
  0
VERTEX
  8
EBENE_1
 62
    39
  6
CONTINUOUS
 10
-1.490254
 20
1.349531
  0
VERTEX
  8
EBENE_1
 62
    39
  6
CONTINUOUS
 10
-1.494236
 20
1.349532
  0
VERTEX
  8
EBENE_1
 62
    39
  6
CONTINUOUS
 10
-1.496382
 20
1.354130
  0
VERTEX
  8
EBENE_1
 62
    39
  6
CONTINUOUS
 10
-1.494235
 20
1.358728
  0
VERTEX
  8
EBENE_1
 62
    39
  6
CONTINUOUS
 10
-1.490252
 20
1.358728
  0
VERTEX
  8
EBENE_1
 62
    39
  6
CONTINUOUS
 10
-1.488106
 20
1.354130
  0
SEQEND
  8
0
  0
POLYLINE
  8
EBENE_1
 62
    39
  6
CONTINUOUS
 66
     1
 40
0.003000
 41
0.003000
 70
     1
  0
VERTEX
  8
EBENE_1
 62
    39
  6
CONTINUOUS
 10
-1.365535
 20
1.356578
  0
VERTEX
  8
EBENE_1
 62
    39
  6
CONTINUOUS
 10
-1.367685
 20
1.351980
  0
VERTEX
  8
EBENE_1
 62
    39
  6
CONTINUOUS
 10
-1.371671
 20
1.351981
  0
VERTEX
  8
EBENE_1
 62
    39
  6
CONTINUOUS
 10
-1.373819
 20
1.356579
  0
VERTEX
  8
EBENE_1
 62
    39
  6
CONTINUOUS
 10
-1.371670
 20
1.361177
  0
VERTEX
  8
EBENE_1
 62
    39
  6
CONTINUOUS
 10
-1.367683
 20
1.361177
  0
VERTEX
  8
EBENE_1
 62
    39
  6
CONTINUOUS
 10
-1.365535
 20
1.356579
  0
SEQEND
  8
0
  0
POLYLINE
  8
EBENE_1
 62
    39
  6
CONTINUOUS
 66
     1
 40
0.003000
 41
0.003000
 70
     1
  0
VERTEX
  8
EBENE_1
 62
    39
  6
CONTINUOUS
 10
-1.255287
 20
1.437504
  0
VERTEX
  8
EBENE_1
 62
    39
  6
CONTINUOUS
 10
-1.341547
 20
1.342618
  0
VERTEX
  8
EBENE_1
 62
    39
  6
CONTINUOUS
 10
-1.341547
 20
1.273610
  0
VERTEX
  8
EBENE_1
 62
    39
  6
CONTINUOUS
 10
-1.255287
 20
1.178728
  0
VERTEX
  8
EBENE_1
 62
    39
  6
CONTINUOUS
 10
-1.169031
 20
1.273610
  0
VERTEX
  8
EBENE_1
 62
    39
  6
CONTINUOUS
 10
-1.169031
 20
1.342618
  0
SEQEND
  8
0
  0
POLYLINE
  8
EBENE_1
 62
    39
  6
CONTINUOUS
 66
     1
 40
0.003000
 41
0.003000
 70
     1
  0
VERTEX
  8
EBENE_1
 62
    39
  6
CONTINUOUS
 10
-1.313083
 20
1.354129
  0
VERTEX
  8
EBENE_1
 62
    39
  6
CONTINUOUS
 10
-1.315230
 20
1.349531
  0
VERTEX
  8
EBENE_1
 62
    39
  6
CONTINUOUS
 10
-1.319213
 20
1.349532
  0
VERTEX
  8
EBENE_1
 62
    39
  6
CONTINUOUS
 10
-1.321358
 20
1.354130
  0
VERTEX
  8
EBENE_1
 62
    39
  6
CONTINUOUS
 10
-1.319211
 20
1.358728
  0
VERTEX
  8
EBENE_1
 62
    39
  6
CONTINUOUS
 10
-1.315229
 20
1.358728
  0
VERTEX
  8
EBENE_1
 62
    39
  6
CONTINUOUS
 10
-1.313083
 20
1.354130
  0
SEQEND
  8
0
  0
POLYLINE
  8
EBENE_1
 62
    39
  6
CONTINUOUS
 66
     1
 40
0.003000
 41
0.003000
 70
     1
  0
VERTEX
  8
EBENE_1
 62
    39
  6
CONTINUOUS
 10
-1.190512
 20
1.356578
  0
VERTEX
  8
EBENE_1
 62
    39
  6
CONTINUOUS
 10
-1.192659
 20
1.351980
  0
VERTEX
  8
EBENE_1
 62
    39
  6
CONTINUOUS
 10
-1.196642
 20
1.351981
  0
VERTEX
  8
EBENE_1
 62
    39
  6
CONTINUOUS
 10
-1.198787
 20
1.356579
  0
VERTEX
  8
EBENE_1
 62
    39
  6
CONTINUOUS
 10
-1.196640
 20
1.361177
  0
VERTEX
  8
EBENE_1
 62
    39
  6
CONTINUOUS
 10
-1.192658
 20
1.361177
  0
VERTEX
  8
EBENE_1
 62
    39
  6
CONTINUOUS
 10
-1.190512
 20
1.356579
  0
SEQEND
  8
0
  0
POLYLINE
  8
EBENE_1
 62
    39
  6
CONTINUOUS
 66
     1
 40
0.003000
 41
0.003000
 70
     1
  0
VERTEX
  8
EBENE_1
 62
    39
  6
CONTINUOUS
 10
-1.080264
 20
1.437504
  0
VERTEX
  8
EBENE_1
 62
    39
  6
CONTINUOUS
 10
-1.166524
 20
1.342618
  0
VERTEX
  8
EBENE_1
 62
    39
  6
CONTINUOUS
 10
-1.166524
 20
1.273610
  0
VERTEX
  8
EBENE_1
 62
    39
  6
CONTINUOUS
 10
-1.080264
 20
1.178728
  0
VERTEX
  8
EBENE_1
 62
    39
  6
CONTINUOUS
 10
-0.994004
 20
1.273610
  0
VERTEX
  8
EBENE_1
 62
    39
  6
CONTINUOUS
 10
-0.994004
 20
1.342618
  0
SEQEND
  8
0
  0
POLYLINE
  8
EBENE_1
 62
    39
  6
CONTINUOUS
 66
     1
 40
0.003000
 41
0.003000
 70
     1
  0
VERTEX
  8
EBENE_1
 62
    39
  6
CONTINUOUS
 10
-1.138055
 20
1.354129
  0
VERTEX
  8
EBENE_1
 62
    39
  6
CONTINUOUS
 10
-1.140205
 20
1.349531
  0
VERTEX
  8
EBENE_1
 62
    39
  6
CONTINUOUS
 10
-1.144191
 20
1.349532
  0
VERTEX
  8
EBENE_1
 62
    39
  6
CONTINUOUS
 10
-1.146339
 20
1.354130
  0
VERTEX
  8
EBENE_1
 62
    39
  6
CONTINUOUS
 10
-1.144189
 20
1.358728
  0
VERTEX
  8
EBENE_1
 62
    39
  6
CONTINUOUS
 10
-1.140203
 20
1.358728
  0
VERTEX
  8
EBENE_1
 62
    39
  6
CONTINUOUS
 10
-1.138055
 20
1.354130
  0
SEQEND
  8
0
  0
POLYLINE
  8
EBENE_1
 62
    39
  6
CONTINUOUS
 66
     1
 40
0.003000
 41
0.003000
 70
     1
  0
VERTEX
  8
EBENE_1
 62
    39
  6
CONTINUOUS
 10
-1.015488
 20
1.356578
  0
VERTEX
  8
EBENE_1
 62
    39
  6
CONTINUOUS
 10
-1.017636
 20
1.351980
  0
VERTEX
  8
EBENE_1
 62
    39
  6
CONTINUOUS
 10
-1.021618
 20
1.351981
  0
VERTEX
  8
EBENE_1
 62
    39
  6
CONTINUOUS
 10
-1.023764
 20
1.356579
  0
VERTEX
  8
EBENE_1
 62
    39
  6
CONTINUOUS
 10
-1.021617
 20
1.361177
  0
VERTEX
  8
EBENE_1
 62
    39
  6
CONTINUOUS
 10
-1.017634
 20
1.361177
  0
VERTEX
  8
EBENE_1
 62
    39
  6
CONTINUOUS
 10
-1.015488
 20
1.356579
  0
SEQEND
  8
0
  0
POLYLINE
  8
EBENE_1
 62
    39
  6
CONTINUOUS
 66
     1
 40
0.003000
 41
0.003000
 70
     1
  0
VERTEX
  8
EBENE_1
 62
    39
  6
CONTINUOUS
 10
-2.217846
 20
1.522291
  0
VERTEX
  8
EBENE_1
 62
    39
  6
CONTINUOUS
 10
-2.304106
 20
1.427409
  0
VERTEX
  8
EBENE_1
 62
    39
  6
CONTINUOUS
 10
-2.304106
 20
1.358402
  0
VERTEX
  8
EBENE_1
 62
    39
  6
CONTINUOUS
 10
-2.217846
 20
1.263516
  0
VERTEX
  8
EBENE_1
 62
    39
  6
CONTINUOUS
 10
-2.131591
 20
1.358402
  0
VERTEX
  8
EBENE_1
 62
    39
  6
CONTINUOUS
 10
-2.131591
 20
1.427409
  0
SEQEND
  8
0
  0
POLYLINE
  8
EBENE_1
 62
    39
  6
CONTINUOUS
 66
     1
 40
0.003000
 41
0.003000
 70
     1
  0
VERTEX
  8
EBENE_1
 62
    39
  6
CONTINUOUS
 10
-2.275642
 20
1.438916
  0
VERTEX
  8
EBENE_1
 62
    39
  6
CONTINUOUS
 10
-2.277789
 20
1.434319
  0
VERTEX
  8
EBENE_1
 62
    39
  6
CONTINUOUS
 10
-2.281772
 20
1.434319
  0
VERTEX
  8
EBENE_1
 62
    39
  6
CONTINUOUS
 10
-2.283917
 20
1.438918
  0
VERTEX
  8
EBENE_1
 62
    39
  6
CONTINUOUS
 10
-2.281770
 20
1.443516
  0
VERTEX
  8
EBENE_1
 62
    39
  6
CONTINUOUS
 10
-2.277788
 20
1.443516
  0
VERTEX
  8
EBENE_1
 62
    39
  6
CONTINUOUS
 10
-2.275642
 20
1.438917
  0
SEQEND
  8
0
  0
POLYLINE
  8
EBENE_1
 62
    39
  6
CONTINUOUS
 66
     1
 40
0.003000
 41
0.003000
 70
     1
  0
VERTEX
  8
EBENE_1
 62
    39
  6
CONTINUOUS
 10
-2.153071
 20
1.441369
  0
VERTEX
  8
EBENE_1
 62
    39
  6
CONTINUOUS
 10
-2.155218
 20
1.436771
  0
VERTEX
  8
EBENE_1
 62
    39
  6
CONTINUOUS
 10
-2.159201
 20
1.436772
  0
VERTEX
  8
EBENE_1
 62
    39
  6
CONTINUOUS
 10
-2.161346
 20
1.441371
  0
VERTEX
  8
EBENE_1
 62
    39
  6
CONTINUOUS
 10
-2.159199
 20
1.445969
  0
VERTEX
  8
EBENE_1
 62
    39
  6
CONTINUOUS
 10
-2.155217
 20
1.445968
  0
VERTEX
  8
EBENE_1
 62
    39
  6
CONTINUOUS
 10
-2.153071
 20
1.441370
  0
SEQEND
  8
0
  0
POLYLINE
  8
EBENE_1
 62
    39
  6
CONTINUOUS
 66
     1
 40
0.003000
 41
0.003000
 70
     1
  0
VERTEX
  8
EBENE_1
 62
    39
  6
CONTINUOUS
 10
-2.392874
 20
1.522291
  0
VERTEX
  8
EBENE_1
 62
    39
  6
CONTINUOUS
 10
-2.479130
 20
1.427409
  0
VERTEX
  8
EBENE_1
 62
    39
  6
CONTINUOUS
 10
-2.479130
 20
1.358402
  0
VERTEX
  8
EBENE_1
 62
    39
  6
CONTINUOUS
 10
-2.392874
 20
1.263516
  0
VERTEX
  8
EBENE_1
 62
    39
  6
CONTINUOUS
 10
-2.306614
 20
1.358402
  0
VERTEX
  8
EBENE_1
 62
    39
  6
CONTINUOUS
 10
-2.306614
 20
1.427409
  0
SEQEND
  8
0
  0
POLYLINE
  8
EBENE_1
 62
    39
  6
CONTINUOUS
 66
     1
 40
0.003000
 41
0.003000
 70
     1
  0
VERTEX
  8
EBENE_1
 62
    39
  6
CONTINUOUS
 10
-2.450665
 20
1.438916
  0
VERTEX
  8
EBENE_1
 62
    39
  6
CONTINUOUS
 10
-2.452813
 20
1.434319
  0
VERTEX
  8
EBENE_1
 62
    39
  6
CONTINUOUS
 10
-2.456795
 20
1.434319
  0
VERTEX
  8
EBENE_1
 62
    39
  6
CONTINUOUS
 10
-2.458941
 20
1.438918
  0
VERTEX
  8
EBENE_1
 62
    39
  6
CONTINUOUS
 10
-2.456794
 20
1.443516
  0
VERTEX
  8
EBENE_1
 62
    39
  6
CONTINUOUS
 10
-2.452811
 20
1.443516
  0
VERTEX
  8
EBENE_1
 62
    39
  6
CONTINUOUS
 10
-2.450665
 20
1.438917
  0
SEQEND
  8
0
  0
POLYLINE
  8
EBENE_1
 62
    39
  6
CONTINUOUS
 66
     1
 40
0.003000
 41
0.003000
 70
     1
  0
VERTEX
  8
EBENE_1
 62
    39
  6
CONTINUOUS
 10
-2.328094
 20
1.441369
  0
VERTEX
  8
EBENE_1
 62
    39
  6
CONTINUOUS
 10
-2.330244
 20
1.436771
  0
VERTEX
  8
EBENE_1
 62
    39
  6
CONTINUOUS
 10
-2.334230
 20
1.436772
  0
VERTEX
  8
EBENE_1
 62
    39
  6
CONTINUOUS
 10
-2.336378
 20
1.441371
  0
VERTEX
  8
EBENE_1
 62
    39
  6
CONTINUOUS
 10
-2.334229
 20
1.445969
  0
VERTEX
  8
EBENE_1
 62
    39
  6
CONTINUOUS
 10
-2.330242
 20
1.445968
  0
VERTEX
  8
EBENE_1
 62
    39
  6
CONTINUOUS
 10
-2.328094
 20
1.441370
  0
SEQEND
  8
0
  0
POLYLINE
  8
EBENE_1
 62
    39
  6
CONTINUOUS
 66
     1
 40
0.003000
 41
0.003000
 70
     1
  0
VERTEX
  8
EBENE_1
 62
    39
  6
CONTINUOUS
 10
-2.042823
 20
1.522291
  0
VERTEX
  8
EBENE_1
 62
    39
  6
CONTINUOUS
 10
-2.129083
 20
1.427409
  0
VERTEX
  8
EBENE_1
 62
    39
  6
CONTINUOUS
 10
-2.129083
 20
1.358402
  0
VERTEX
  8
EBENE_1
 62
    39
  6
CONTINUOUS
 10
-2.042823
 20
1.263516
  0
VERTEX
  8
EBENE_1
 62
    39
  6
CONTINUOUS
 10
-1.956563
 20
1.358402
  0
VERTEX
  8
EBENE_1
 62
    39
  6
CONTINUOUS
 10
-1.956563
 20
1.427409
  0
SEQEND
  8
0
  0
POLYLINE
  8
EBENE_1
 62
    39
  6
CONTINUOUS
 66
     1
 40
0.003000
 41
0.003000
 70
     1
  0
VERTEX
  8
EBENE_1
 62
    39
  6
CONTINUOUS
 10
-2.100614
 20
1.438916
  0
VERTEX
  8
EBENE_1
 62
    39
  6
CONTINUOUS
 10
-2.102764
 20
1.434319
  0
VERTEX
  8
EBENE_1
 62
    39
  6
CONTINUOUS
 10
-2.106750
 20
1.434319
  0
VERTEX
  8
EBENE_1
 62
    39
  6
CONTINUOUS
 10
-2.108898
 20
1.438918
  0
VERTEX
  8
EBENE_1
 62
    39
  6
CONTINUOUS
 10
-2.106748
 20
1.443516
  0
VERTEX
  8
EBENE_1
 62
    39
  6
CONTINUOUS
 10
-2.102762
 20
1.443516
  0
VERTEX
  8
EBENE_1
 62
    39
  6
CONTINUOUS
 10
-2.100614
 20
1.438917
  0
SEQEND
  8
0
  0
POLYLINE
  8
EBENE_1
 62
    39
  6
CONTINUOUS
 66
     1
 40
0.003000
 41
0.003000
 70
     1
  0
VERTEX
  8
EBENE_1
 62
    39
  6
CONTINUOUS
 10
-1.978047
 20
1.441369
  0
VERTEX
  8
EBENE_1
 62
    39
  6
CONTINUOUS
 10
-1.980195
 20
1.436771
  0
VERTEX
  8
EBENE_1
 62
    39
  6
CONTINUOUS
 10
-1.984177
 20
1.436772
  0
VERTEX
  8
EBENE_1
 62
    39
  6
CONTINUOUS
 10
-1.986323
 20
1.441371
  0
VERTEX
  8
EBENE_1
 62
    39
  6
CONTINUOUS
 10
-1.984176
 20
1.445969
  0
VERTEX
  8
EBENE_1
 62
    39
  6
CONTINUOUS
 10
-1.980193
 20
1.445968
  0
VERTEX
  8
EBENE_1
 62
    39
  6
CONTINUOUS
 10
-1.978047
 20
1.441370
  0
SEQEND
  8
0
  0
POLYLINE
  8
EBENE_1
 62
    39
  6
CONTINUOUS
 66
     1
 40
0.003000
 41
0.003000
 70
     1
  0
VERTEX
  8
EBENE_1
 62
    39
  6
CONTINUOUS
 10
-1.867799
 20
1.522291
  0
VERTEX
  8
EBENE_1
 62
    39
  6
CONTINUOUS
 10
-1.954059
 20
1.427409
  0
VERTEX
  8
EBENE_1
 62
    39
  6
CONTINUOUS
 10
-1.954059
 20
1.358402
  0
VERTEX
  8
EBENE_1
 62
    39
  6
CONTINUOUS
 10
-1.867799
 20
1.263516
  0
VERTEX
  8
EBENE_1
 62
    39
  6
CONTINUOUS
 10
-1.781539
 20
1.358402
  0
VERTEX
  8
EBENE_1
 62
    39
  6
CONTINUOUS
 10
-1.781539
 20
1.427409
  0
SEQEND
  8
0
  0
POLYLINE
  8
EBENE_1
 62
    39
  6
CONTINUOUS
 66
     1
 40
0.003000
 41
0.003000
 70
     1
  0
VERTEX
  8
EBENE_1
 62
    39
  6
CONTINUOUS
 10
-1.925591
 20
1.438916
  0
VERTEX
  8
EBENE_1
 62
    39
  6
CONTINUOUS
 10
-1.927738
 20
1.434319
  0
VERTEX
  8
EBENE_1
 62
    39
  6
CONTINUOUS
 10
-1.931721
 20
1.434319
  0
VERTEX
  8
EBENE_1
 62
    39
  6
CONTINUOUS
 10
-1.933866
 20
1.438918
  0
VERTEX
  8
EBENE_1
 62
    39
  6
CONTINUOUS
 10
-1.931719
 20
1.443516
  0
VERTEX
  8
EBENE_1
 62
    39
  6
CONTINUOUS
 10
-1.927736
 20
1.443516
  0
VERTEX
  8
EBENE_1
 62
    39
  6
CONTINUOUS
 10
-1.925591
 20
1.438917
  0
SEQEND
  8
0
  0
POLYLINE
  8
EBENE_1
 62
    39
  6
CONTINUOUS
 66
     1
 40
0.003000
 41
0.003000
 70
     1
  0
VERTEX
  8
EBENE_1
 62
    39
  6
CONTINUOUS
 10
-1.803024
 20
1.441369
  0
VERTEX
  8
EBENE_1
 62
    39
  6
CONTINUOUS
 10
-1.805171
 20
1.436771
  0
VERTEX
  8
EBENE_1
 62
    39
  6
CONTINUOUS
 10
-1.809154
 20
1.436772
  0
VERTEX
  8
EBENE_1
 62
    39
  6
CONTINUOUS
 10
-1.811299
 20
1.441371
  0
VERTEX
  8
EBENE_1
 62
    39
  6
CONTINUOUS
 10
-1.809152
 20
1.445969
  0
VERTEX
  8
EBENE_1
 62
    39
  6
CONTINUOUS
 10
-1.805170
 20
1.445968
  0
VERTEX
  8
EBENE_1
 62
    39
  6
CONTINUOUS
 10
-1.803024
 20
1.441370
  0
SEQEND
  8
0
  0
POLYLINE
  8
EBENE_1
 62
    39
  6
CONTINUOUS
 66
     1
 40
0.003000
 41
0.003000
 70
     1
  0
VERTEX
  8
EBENE_1
 62
    39
  6
CONTINUOUS
 10
-1.692776
 20
1.522291
  0
VERTEX
  8
EBENE_1
 62
    39
  6
CONTINUOUS
 10
-1.779031
 20
1.427409
  0
VERTEX
  8
EBENE_1
 62
    39
  6
CONTINUOUS
 10
-1.779031
 20
1.358402
  0
VERTEX
  8
EBENE_1
 62
    39
  6
CONTINUOUS
 10
-1.692776
 20
1.263516
  0
VERTEX
  8
EBENE_1
 62
    39
  6
CONTINUOUS
 10
-1.606516
 20
1.358402
  0
VERTEX
  8
EBENE_1
 62
    39
  6
CONTINUOUS
 10
-1.606516
 20
1.427409
  0
SEQEND
  8
0
  0
POLYLINE
  8
EBENE_1
 62
    39
  6
CONTINUOUS
 66
     1
 40
0.003000
 41
0.003000
 70
     1
  0
VERTEX
  8
EBENE_1
 62
    39
  6
CONTINUOUS
 10
-1.750567
 20
1.438916
  0
VERTEX
  8
EBENE_1
 62
    39
  6
CONTINUOUS
 10
-1.752714
 20
1.434319
  0
VERTEX
  8
EBENE_1
 62
    39
  6
CONTINUOUS
 10
-1.756697
 20
1.434319
  0
VERTEX
  8
EBENE_1
 62
    39
  6
CONTINUOUS
 10
-1.758843
 20
1.438918
  0
VERTEX
  8
EBENE_1
 62
    39
  6
CONTINUOUS
 10
-1.756695
 20
1.443516
  0
VERTEX
  8
EBENE_1
 62
    39
  6
CONTINUOUS
 10
-1.752713
 20
1.443516
  0
VERTEX
  8
EBENE_1
 62
    39
  6
CONTINUOUS
 10
-1.750567
 20
1.438917
  0
SEQEND
  8
0
  0
POLYLINE
  8
EBENE_1
 62
    39
  6
CONTINUOUS
 66
     1
 40
0.003000
 41
0.003000
 70
     1
  0
VERTEX
  8
EBENE_1
 62
    39
  6
CONTINUOUS
 10
-1.627996
 20
1.441369
  0
VERTEX
  8
EBENE_1
 62
    39
  6
CONTINUOUS
 10
-1.630146
 20
1.436771
  0
VERTEX
  8
EBENE_1
 62
    39
  6
CONTINUOUS
 10
-1.634132
 20
1.436772
  0
VERTEX
  8
EBENE_1
 62
    39
  6
CONTINUOUS
 10
-1.636280
 20
1.441371
  0
VERTEX
  8
EBENE_1
 62
    39
  6
CONTINUOUS
 10
-1.634130
 20
1.445969
  0
VERTEX
  8
EBENE_1
 62
    39
  6
CONTINUOUS
 10
-1.630144
 20
1.445968
  0
VERTEX
  8
EBENE_1
 62
    39
  6
CONTINUOUS
 10
-1.627996
 20
1.441370
  0
SEQEND
  8
0
  0
POLYLINE
  8
EBENE_1
 62
    39
  6
CONTINUOUS
 66
     1
 40
0.003000
 41
0.003000
 70
     1
  0
VERTEX
  8
EBENE_1
 62
    39
  6
CONTINUOUS
 10
-1.517748
 20
1.522291
  0
VERTEX
  8
EBENE_1
 62
    39
  6
CONTINUOUS
 10
-1.604008
 20
1.427409
  0
VERTEX
  8
EBENE_1
 62
    39
  6
CONTINUOUS
 10
-1.604008
 20
1.358402
  0
VERTEX
  8
EBENE_1
 62
    39
  6
CONTINUOUS
 10
-1.517748
 20
1.263516
  0
VERTEX
  8
EBENE_1
 62
    39
  6
CONTINUOUS
 10
-1.431492
 20
1.358402
  0
VERTEX
  8
EBENE_1
 62
    39
  6
CONTINUOUS
 10
-1.431492
 20
1.427409
  0
SEQEND
  8
0
  0
POLYLINE
  8
EBENE_1
 62
    39
  6
CONTINUOUS
 66
     1
 40
0.003000
 41
0.003000
 70
     1
  0
VERTEX
  8
EBENE_1
 62
    39
  6
CONTINUOUS
 10
-1.575543
 20
1.438916
  0
VERTEX
  8
EBENE_1
 62
    39
  6
CONTINUOUS
 10
-1.577691
 20
1.434319
  0
VERTEX
  8
EBENE_1
 62
    39
  6
CONTINUOUS
 10
-1.581673
 20
1.434319
  0
VERTEX
  8
EBENE_1
 62
    39
  6
CONTINUOUS
 10
-1.583819
 20
1.438918
  0
VERTEX
  8
EBENE_1
 62
    39
  6
CONTINUOUS
 10
-1.581672
 20
1.443516
  0
VERTEX
  8
EBENE_1
 62
    39
  6
CONTINUOUS
 10
-1.577689
 20
1.443516
  0
VERTEX
  8
EBENE_1
 62
    39
  6
CONTINUOUS
 10
-1.575543
 20
1.438917
  0
SEQEND
  8
0
  0
POLYLINE
  8
EBENE_1
 62
    39
  6
CONTINUOUS
 66
     1
 40
0.003000
 41
0.003000
 70
     1
  0
VERTEX
  8
EBENE_1
 62
    39
  6
CONTINUOUS
 10
-1.452972
 20
1.441369
  0
VERTEX
  8
EBENE_1
 62
    39
  6
CONTINUOUS
 10
-1.455120
 20
1.436771
  0
VERTEX
  8
EBENE_1
 62
    39
  6
CONTINUOUS
 10
-1.459102
 20
1.436772
  0
VERTEX
  8
EBENE_1
 62
    39
  6
CONTINUOUS
 10
-1.461248
 20
1.441371
  0
VERTEX
  8
EBENE_1
 62
    39
  6
CONTINUOUS
 10
-1.459101
 20
1.445969
  0
VERTEX
  8
EBENE_1
 62
    39
  6
CONTINUOUS
 10
-1.455118
 20
1.445968
  0
VERTEX
  8
EBENE_1
 62
    39
  6
CONTINUOUS
 10
-1.452972
 20
1.441370
  0
SEQEND
  8
0
  0
POLYLINE
  8
EBENE_1
 62
    39
  6
CONTINUOUS
 66
     1
 40
0.003000
 41
0.003000
 70
     1
  0
VERTEX
  8
EBENE_1
 62
    39
  6
CONTINUOUS
 10
-1.342724
 20
1.522291
  0
VERTEX
  8
EBENE_1
 62
    39
  6
CONTINUOUS
 10
-1.428984
 20
1.427409
  0
VERTEX
  8
EBENE_1
 62
    39
  6
CONTINUOUS
 10
-1.428984
 20
1.358402
  0
VERTEX
  8
EBENE_1
 62
    39
  6
CONTINUOUS
 10
-1.342724
 20
1.263516
  0
VERTEX
  8
EBENE_1
 62
    39
  6
CONTINUOUS
 10
-1.256465
 20
1.358402
  0
VERTEX
  8
EBENE_1
 62
    39
  6
CONTINUOUS
 10
-1.256465
 20
1.427409
  0
SEQEND
  8
0
  0
POLYLINE
  8
EBENE_1
 62
    39
  6
CONTINUOUS
 66
     1
 40
0.003000
 41
0.003000
 70
     1
  0
VERTEX
  8
EBENE_1
 62
    39
  6
CONTINUOUS
 10
-1.400516
 20
1.438916
  0
VERTEX
  8
EBENE_1
 62
    39
  6
CONTINUOUS
 10
-1.402665
 20
1.434319
  0
VERTEX
  8
EBENE_1
 62
    39
  6
CONTINUOUS
 10
-1.406652
 20
1.434319
  0
VERTEX
  8
EBENE_1
 62
    39
  6
CONTINUOUS
 10
-1.408799
 20
1.438918
  0
VERTEX
  8
EBENE_1
 62
    39
  6
CONTINUOUS
 10
-1.406650
 20
1.443516
  0
VERTEX
  8
EBENE_1
 62
    39
  6
CONTINUOUS
 10
-1.402664
 20
1.443516
  0
VERTEX
  8
EBENE_1
 62
    39
  6
CONTINUOUS
 10
-1.400516
 20
1.438917
  0
SEQEND
  8
0
  0
POLYLINE
  8
EBENE_1
 62
    39
  6
CONTINUOUS
 66
     1
 40
0.003000
 41
0.003000
 70
     1
  0
VERTEX
  8
EBENE_1
 62
    39
  6
CONTINUOUS
 10
-1.277949
 20
1.441369
  0
VERTEX
  8
EBENE_1
 62
    39
  6
CONTINUOUS
 10
-1.280096
 20
1.436771
  0
VERTEX
  8
EBENE_1
 62
    39
  6
CONTINUOUS
 10
-1.284079
 20
1.436772
  0
VERTEX
  8
EBENE_1
 62
    39
  6
CONTINUOUS
 10
-1.286224
 20
1.441371
  0
VERTEX
  8
EBENE_1
 62
    39
  6
CONTINUOUS
 10
-1.284077
 20
1.445969
  0
VERTEX
  8
EBENE_1
 62
    39
  6
CONTINUOUS
 10
-1.280095
 20
1.445968
  0
VERTEX
  8
EBENE_1
 62
    39
  6
CONTINUOUS
 10
-1.277949
 20
1.441370
  0
SEQEND
  8
0
  0
POLYLINE
  8
EBENE_1
 62
    39
  6
CONTINUOUS
 66
     1
 40
0.003000
 41
0.003000
 70
     1
  0
VERTEX
  8
EBENE_1
 62
    39
  6
CONTINUOUS
 10
-1.167701
 20
1.522291
  0
VERTEX
  8
EBENE_1
 62
    39
  6
CONTINUOUS
 10
-1.253957
 20
1.427409
  0
VERTEX
  8
EBENE_1
 62
    39
  6
CONTINUOUS
 10
-1.253957
 20
1.358402
  0
VERTEX
  8
EBENE_1
 62
    39
  6
CONTINUOUS
 10
-1.167701
 20
1.263516
  0
VERTEX
  8
EBENE_1
 62
    39
  6
CONTINUOUS
 10
-1.081441
 20
1.358402
  0
VERTEX
  8
EBENE_1
 62
    39
  6
CONTINUOUS
 10
-1.081441
 20
1.427409
  0
SEQEND
  8
0
  0
POLYLINE
  8
EBENE_1
 62
    39
  6
CONTINUOUS
 66
     1
 40
0.003000
 41
0.003000
 70
     1
  0
VERTEX
  8
EBENE_1
 62
    39
  6
CONTINUOUS
 10
-1.225492
 20
1.438916
  0
VERTEX
  8
EBENE_1
 62
    39
  6
CONTINUOUS
 10
-1.227640
 20
1.434319
  0
VERTEX
  8
EBENE_1
 62
    39
  6
CONTINUOUS
 10
-1.231622
 20
1.434319
  0
VERTEX
  8
EBENE_1
 62
    39
  6
CONTINUOUS
 10
-1.233768
 20
1.438918
  0
VERTEX
  8
EBENE_1
 62
    39
  6
CONTINUOUS
 10
-1.231620
 20
1.443516
  0
VERTEX
  8
EBENE_1
 62
    39
  6
CONTINUOUS
 10
-1.227638
 20
1.443516
  0
VERTEX
  8
EBENE_1
 62
    39
  6
CONTINUOUS
 10
-1.225492
 20
1.438917
  0
SEQEND
  8
0
  0
POLYLINE
  8
EBENE_1
 62
    39
  6
CONTINUOUS
 66
     1
 40
0.003000
 41
0.003000
 70
     1
  0
VERTEX
  8
EBENE_1
 62
    39
  6
CONTINUOUS
 10
-1.102921
 20
1.441369
  0
VERTEX
  8
EBENE_1
 62
    39
  6
CONTINUOUS
 10
-1.105071
 20
1.436771
  0
VERTEX
  8
EBENE_1
 62
    39
  6
CONTINUOUS
 10
-1.109057
 20
1.436772
  0
VERTEX
  8
EBENE_1
 62
    39
  6
CONTINUOUS
 10
-1.111205
 20
1.441371
  0
VERTEX
  8
EBENE_1
 62
    39
  6
CONTINUOUS
 10
-1.109055
 20
1.445969
  0
VERTEX
  8
EBENE_1
 62
    39
  6
CONTINUOUS
 10
-1.105069
 20
1.445968
  0
VERTEX
  8
EBENE_1
 62
    39
  6
CONTINUOUS
 10
-1.102921
 20
1.441370
  0
SEQEND
  8
0
  0
POLYLINE
  8
EBENE_1
 62
    39
  6
CONTINUOUS
 66
     1
 40
0.003000
 41
0.003000
 70
     1
  0
VERTEX
  8
EBENE_1
 62
    39
  6
CONTINUOUS
 10
-0.992673
 20
1.522291
  0
VERTEX
  8
EBENE_1
 62
    39
  6
CONTINUOUS
 10
-1.078933
 20
1.427409
  0
VERTEX
  8
EBENE_1
 62
    39
  6
CONTINUOUS
 10
-1.078933
 20
1.358402
  0
VERTEX
  8
EBENE_1
 62
    39
  6
CONTINUOUS
 10
-0.992673
 20
1.263516
  0
VERTEX
  8
EBENE_1
 62
    39
  6
CONTINUOUS
 10
-0.906417
 20
1.358402
  0
VERTEX
  8
EBENE_1
 62
    39
  6
CONTINUOUS
 10
-0.906417
 20
1.427409
  0
SEQEND
  8
0
  0
POLYLINE
  8
EBENE_1
 62
    39
  6
CONTINUOUS
 66
     1
 40
0.003000
 41
0.003000
 70
     1
  0
VERTEX
  8
EBENE_1
 62
    39
  6
CONTINUOUS
 10
-1.050469
 20
1.438916
  0
VERTEX
  8
EBENE_1
 62
    39
  6
CONTINUOUS
 10
-1.052616
 20
1.434319
  0
VERTEX
  8
EBENE_1
 62
    39
  6
CONTINUOUS
 10
-1.056599
 20
1.434319
  0
VERTEX
  8
EBENE_1
 62
    39
  6
CONTINUOUS
 10
-1.058744
 20
1.438918
  0
VERTEX
  8
EBENE_1
 62
    39
  6
CONTINUOUS
 10
-1.056597
 20
1.443516
  0
VERTEX
  8
EBENE_1
 62
    39
  6
CONTINUOUS
 10
-1.052614
 20
1.443516
  0
VERTEX
  8
EBENE_1
 62
    39
  6
CONTINUOUS
 10
-1.050469
 20
1.438917
  0
SEQEND
  8
0
  0
POLYLINE
  8
EBENE_1
 62
    39
  6
CONTINUOUS
 66
     1
 40
0.003000
 41
0.003000
 70
     1
  0
VERTEX
  8
EBENE_1
 62
    39
  6
CONTINUOUS
 10
-0.927898
 20
1.441369
  0
VERTEX
  8
EBENE_1
 62
    39
  6
CONTINUOUS
 10
-0.930045
 20
1.436771
  0
VERTEX
  8
EBENE_1
 62
    39
  6
CONTINUOUS
 10
-0.934028
 20
1.436772
  0
VERTEX
  8
EBENE_1
 62
    39
  6
CONTINUOUS
 10
-0.936173
 20
1.441371
  0
VERTEX
  8
EBENE_1
 62
    39
  6
CONTINUOUS
 10
-0.934026
 20
1.445969
  0
VERTEX
  8
EBENE_1
 62
    39
  6
CONTINUOUS
 10
-0.930044
 20
1.445968
  0
VERTEX
  8
EBENE_1
 62
    39
  6
CONTINUOUS
 10
-0.927898
 20
1.441370
  0
SEQEND
  8
0
  0
POLYLINE
  8
EBENE_1
 62
    39
  6
CONTINUOUS
 66
     1
 40
0.003000
 41
0.003000
 70
     1
  0
VERTEX
  8
EBENE_1
 62
    39
  6
CONTINUOUS
 10
-2.304087
 20
1.606138
  0
VERTEX
  8
EBENE_1
 62
    39
  6
CONTINUOUS
 10
-2.390343
 20
1.511256
  0
VERTEX
  8
EBENE_1
 62
    39
  6
CONTINUOUS
 10
-2.390343
 20
1.442248
  0
VERTEX
  8
EBENE_1
 62
    39
  6
CONTINUOUS
 10
-2.304087
 20
1.347362
  0
VERTEX
  8
EBENE_1
 62
    39
  6
CONTINUOUS
 10
-2.217827
 20
1.442248
  0
VERTEX
  8
EBENE_1
 62
    39
  6
CONTINUOUS
 10
-2.217827
 20
1.511256
  0
SEQEND
  8
0
  0
POLYLINE
  8
EBENE_1
 62
    39
  6
CONTINUOUS
 66
     1
 40
0.003000
 41
0.003000
 70
     1
  0
VERTEX
  8
EBENE_1
 62
    39
  6
CONTINUOUS
 10
-2.361878
 20
1.522763
  0
VERTEX
  8
EBENE_1
 62
    39
  6
CONTINUOUS
 10
-2.364026
 20
1.518165
  0
VERTEX
  8
EBENE_1
 62
    39
  6
CONTINUOUS
 10
-2.368008
 20
1.518166
  0
VERTEX
  8
EBENE_1
 62
    39
  6
CONTINUOUS
 10
-2.370154
 20
1.522764
  0
VERTEX
  8
EBENE_1
 62
    39
  6
CONTINUOUS
 10
-2.368006
 20
1.527362
  0
VERTEX
  8
EBENE_1
 62
    39
  6
CONTINUOUS
 10
-2.364024
 20
1.527362
  0
VERTEX
  8
EBENE_1
 62
    39
  6
CONTINUOUS
 10
-2.361878
 20
1.522764
  0
SEQEND
  8
0
  0
POLYLINE
  8
EBENE_1
 62
    39
  6
CONTINUOUS
 66
     1
 40
0.003000
 41
0.003000
 70
     1
  0
VERTEX
  8
EBENE_1
 62
    39
  6
CONTINUOUS
 10
-2.239307
 20
1.525216
  0
VERTEX
  8
EBENE_1
 62
    39
  6
CONTINUOUS
 10
-2.241457
 20
1.520618
  0
VERTEX
  8
EBENE_1
 62
    39
  6
CONTINUOUS
 10
-2.245443
 20
1.520618
  0
VERTEX
  8
EBENE_1
 62
    39
  6
CONTINUOUS
 10
-2.247591
 20
1.525217
  0
VERTEX
  8
EBENE_1
 62
    39
  6
CONTINUOUS
 10
-2.245441
 20
1.529815
  0
VERTEX
  8
EBENE_1
 62
    39
  6
CONTINUOUS
 10
-2.241455
 20
1.529815
  0
VERTEX
  8
EBENE_1
 62
    39
  6
CONTINUOUS
 10
-2.239307
 20
1.525217
  0
SEQEND
  8
0
  0
POLYLINE
  8
EBENE_1
 62
    39
  6
CONTINUOUS
 66
     1
 40
0.003000
 41
0.003000
 70
     1
  0
VERTEX
  8
EBENE_1
 62
    39
  6
CONTINUOUS
 10
-2.129059
 20
1.606138
  0
VERTEX
  8
EBENE_1
 62
    39
  6
CONTINUOUS
 10
-2.215319
 20
1.511256
  0
VERTEX
  8
EBENE_1
 62
    39
  6
CONTINUOUS
 10
-2.215319
 20
1.442248
  0
VERTEX
  8
EBENE_1
 62
    39
  6
CONTINUOUS
 10
-2.129059
 20
1.347362
  0
VERTEX
  8
EBENE_1
 62
    39
  6
CONTINUOUS
 10
-2.042803
 20
1.442248
  0
VERTEX
  8
EBENE_1
 62
    39
  6
CONTINUOUS
 10
-2.042803
 20
1.511256
  0
SEQEND
  8
0
  0
POLYLINE
  8
EBENE_1
 62
    39
  6
CONTINUOUS
 66
     1
 40
0.003000
 41
0.003000
 70
     1
  0
VERTEX
  8
EBENE_1
 62
    39
  6
CONTINUOUS
 10
-2.186854
 20
1.522763
  0
VERTEX
  8
EBENE_1
 62
    39
  6
CONTINUOUS
 10
-2.189002
 20
1.518165
  0
VERTEX
  8
EBENE_1
 62
    39
  6
CONTINUOUS
 10
-2.192984
 20
1.518166
  0
VERTEX
  8
EBENE_1
 62
    39
  6
CONTINUOUS
 10
-2.195130
 20
1.522764
  0
VERTEX
  8
EBENE_1
 62
    39
  6
CONTINUOUS
 10
-2.192983
 20
1.527362
  0
VERTEX
  8
EBENE_1
 62
    39
  6
CONTINUOUS
 10
-2.189000
 20
1.527362
  0
VERTEX
  8
EBENE_1
 62
    39
  6
CONTINUOUS
 10
-2.186854
 20
1.522764
  0
SEQEND
  8
0
  0
POLYLINE
  8
EBENE_1
 62
    39
  6
CONTINUOUS
 66
     1
 40
0.003000
 41
0.003000
 70
     1
  0
VERTEX
  8
EBENE_1
 62
    39
  6
CONTINUOUS
 10
-2.064283
 20
1.525216
  0
VERTEX
  8
EBENE_1
 62
    39
  6
CONTINUOUS
 10
-2.066431
 20
1.520618
  0
VERTEX
  8
EBENE_1
 62
    39
  6
CONTINUOUS
 10
-2.070414
 20
1.520618
  0
VERTEX
  8
EBENE_1
 62
    39
  6
CONTINUOUS
 10
-2.072559
 20
1.525217
  0
VERTEX
  8
EBENE_1
 62
    39
  6
CONTINUOUS
 10
-2.070412
 20
1.529815
  0
VERTEX
  8
EBENE_1
 62
    39
  6
CONTINUOUS
 10
-2.066429
 20
1.529815
  0
VERTEX
  8
EBENE_1
 62
    39
  6
CONTINUOUS
 10
-2.064283
 20
1.525217
  0
SEQEND
  8
0
  0
POLYLINE
  8
EBENE_1
 62
    39
  6
CONTINUOUS
 66
     1
 40
0.003000
 41
0.003000
 70
     1
  0
VERTEX
  8
EBENE_1
 62
    39
  6
CONTINUOUS
 10
-1.954035
 20
1.606138
  0
VERTEX
  8
EBENE_1
 62
    39
  6
CONTINUOUS
 10
-2.040295
 20
1.511256
  0
VERTEX
  8
EBENE_1
 62
    39
  6
CONTINUOUS
 10
-2.040295
 20
1.442248
  0
VERTEX
  8
EBENE_1
 62
    39
  6
CONTINUOUS
 10
-1.954035
 20
1.347362
  0
VERTEX
  8
EBENE_1
 62
    39
  6
CONTINUOUS
 10
-1.867776
 20
1.442248
  0
VERTEX
  8
EBENE_1
 62
    39
  6
CONTINUOUS
 10
-1.867776
 20
1.511256
  0
SEQEND
  8
0
  0
POLYLINE
  8
EBENE_1
 62
    39
  6
CONTINUOUS
 66
     1
 40
0.003000
 41
0.003000
 70
     1
  0
VERTEX
  8
EBENE_1
 62
    39
  6
CONTINUOUS
 10
-2.011827
 20
1.522763
  0
VERTEX
  8
EBENE_1
 62
    39
  6
CONTINUOUS
 10
-2.013976
 20
1.518165
  0
VERTEX
  8
EBENE_1
 62
    39
  6
CONTINUOUS
 10
-2.017963
 20
1.518166
  0
VERTEX
  8
EBENE_1
 62
    39
  6
CONTINUOUS
 10
-2.020110
 20
1.522764
  0
VERTEX
  8
EBENE_1
 62
    39
  6
CONTINUOUS
 10
-2.017961
 20
1.527362
  0
VERTEX
  8
EBENE_1
 62
    39
  6
CONTINUOUS
 10
-2.013975
 20
1.527362
  0
VERTEX
  8
EBENE_1
 62
    39
  6
CONTINUOUS
 10
-2.011827
 20
1.522764
  0
SEQEND
  8
0
  0
POLYLINE
  8
EBENE_1
 62
    39
  6
CONTINUOUS
 66
     1
 40
0.003000
 41
0.003000
 70
     1
  0
VERTEX
  8
EBENE_1
 62
    39
  6
CONTINUOUS
 10
-1.889260
 20
1.525216
  0
VERTEX
  8
EBENE_1
 62
    39
  6
CONTINUOUS
 10
-1.891407
 20
1.520618
  0
VERTEX
  8
EBENE_1
 62
    39
  6
CONTINUOUS
 10
-1.895390
 20
1.520618
  0
VERTEX
  8
EBENE_1
 62
    39
  6
CONTINUOUS
 10
-1.897535
 20
1.525217
  0
VERTEX
  8
EBENE_1
 62
    39
  6
CONTINUOUS
 10
-1.895388
 20
1.529815
  0
VERTEX
  8
EBENE_1
 62
    39
  6
CONTINUOUS
 10
-1.891406
 20
1.529815
  0
VERTEX
  8
EBENE_1
 62
    39
  6
CONTINUOUS
 10
-1.889260
 20
1.525217
  0
SEQEND
  8
0
  0
POLYLINE
  8
EBENE_1
 62
    39
  6
CONTINUOUS
 66
     1
 40
0.003000
 41
0.003000
 70
     1
  0
VERTEX
  8
EBENE_1
 62
    39
  6
CONTINUOUS
 10
-1.779012
 20
1.606138
  0
VERTEX
  8
EBENE_1
 62
    39
  6
CONTINUOUS
 10
-1.865268
 20
1.511256
  0
VERTEX
  8
EBENE_1
 62
    39
  6
CONTINUOUS
 10
-1.865268
 20
1.442248
  0
VERTEX
  8
EBENE_1
 62
    39
  6
CONTINUOUS
 10
-1.779012
 20
1.347362
  0
VERTEX
  8
EBENE_1
 62
    39
  6
CONTINUOUS
 10
-1.692752
 20
1.442248
  0
VERTEX
  8
EBENE_1
 62
    39
  6
CONTINUOUS
 10
-1.692752
 20
1.511256
  0
SEQEND
  8
0
  0
POLYLINE
  8
EBENE_1
 62
    39
  6
CONTINUOUS
 66
     1
 40
0.003000
 41
0.003000
 70
     1
  0
VERTEX
  8
EBENE_1
 62
    39
  6
CONTINUOUS
 10
-1.836803
 20
1.522763
  0
VERTEX
  8
EBENE_1
 62
    39
  6
CONTINUOUS
 10
-1.838951
 20
1.518165
  0
VERTEX
  8
EBENE_1
 62
    39
  6
CONTINUOUS
 10
-1.842933
 20
1.518166
  0
VERTEX
  8
EBENE_1
 62
    39
  6
CONTINUOUS
 10
-1.845079
 20
1.522764
  0
VERTEX
  8
EBENE_1
 62
    39
  6
CONTINUOUS
 10
-1.842932
 20
1.527362
  0
VERTEX
  8
EBENE_1
 62
    39
  6
CONTINUOUS
 10
-1.838949
 20
1.527362
  0
VERTEX
  8
EBENE_1
 62
    39
  6
CONTINUOUS
 10
-1.836803
 20
1.522764
  0
SEQEND
  8
0
  0
POLYLINE
  8
EBENE_1
 62
    39
  6
CONTINUOUS
 66
     1
 40
0.003000
 41
0.003000
 70
     1
  0
VERTEX
  8
EBENE_1
 62
    39
  6
CONTINUOUS
 10
-1.714232
 20
1.525216
  0
VERTEX
  8
EBENE_1
 62
    39
  6
CONTINUOUS
 10
-1.716382
 20
1.520618
  0
VERTEX
  8
EBENE_1
 62
    39
  6
CONTINUOUS
 10
-1.720368
 20
1.520618
  0
VERTEX
  8
EBENE_1
 62
    39
  6
CONTINUOUS
 10
-1.722516
 20
1.525217
  0
VERTEX
  8
EBENE_1
 62
    39
  6
CONTINUOUS
 10
-1.720366
 20
1.529815
  0
VERTEX
  8
EBENE_1
 62
    39
  6
CONTINUOUS
 10
-1.716380
 20
1.529815
  0
VERTEX
  8
EBENE_1
 62
    39
  6
CONTINUOUS
 10
-1.714232
 20
1.525217
  0
SEQEND
  8
0
  0
POLYLINE
  8
EBENE_1
 62
    39
  6
CONTINUOUS
 66
     1
 40
0.003000
 41
0.003000
 70
     1
  0
VERTEX
  8
EBENE_1
 62
    39
  6
CONTINUOUS
 10
-1.603984
 20
1.606138
  0
VERTEX
  8
EBENE_1
 62
    39
  6
CONTINUOUS
 10
-1.690244
 20
1.511256
  0
VERTEX
  8
EBENE_1
 62
    39
  6
CONTINUOUS
 10
-1.690244
 20
1.442248
  0
VERTEX
  8
EBENE_1
 62
    39
  6
CONTINUOUS
 10
-1.603984
 20
1.347362
  0
VERTEX
  8
EBENE_1
 62
    39
  6
CONTINUOUS
 10
-1.517728
 20
1.442248
  0
VERTEX
  8
EBENE_1
 62
    39
  6
CONTINUOUS
 10
-1.517728
 20
1.511256
  0
SEQEND
  8
0
  0
POLYLINE
  8
EBENE_1
 62
    39
  6
CONTINUOUS
 66
     1
 40
0.003000
 41
0.003000
 70
     1
  0
VERTEX
  8
EBENE_1
 62
    39
  6
CONTINUOUS
 10
-1.661780
 20
1.522763
  0
VERTEX
  8
EBENE_1
 62
    39
  6
CONTINUOUS
 10
-1.663927
 20
1.518165
  0
VERTEX
  8
EBENE_1
 62
    39
  6
CONTINUOUS
 10
-1.667910
 20
1.518166
  0
VERTEX
  8
EBENE_1
 62
    39
  6
CONTINUOUS
 10
-1.670055
 20
1.522764
  0
VERTEX
  8
EBENE_1
 62
    39
  6
CONTINUOUS
 10
-1.667908
 20
1.527362
  0
VERTEX
  8
EBENE_1
 62
    39
  6
CONTINUOUS
 10
-1.663925
 20
1.527362
  0
VERTEX
  8
EBENE_1
 62
    39
  6
CONTINUOUS
 10
-1.661780
 20
1.522764
  0
SEQEND
  8
0
  0
POLYLINE
  8
EBENE_1
 62
    39
  6
CONTINUOUS
 66
     1
 40
0.003000
 41
0.003000
 70
     1
  0
VERTEX
  8
EBENE_1
 62
    39
  6
CONTINUOUS
 10
-1.539209
 20
1.525216
  0
VERTEX
  8
EBENE_1
 62
    39
  6
CONTINUOUS
 10
-1.541356
 20
1.520618
  0
VERTEX
  8
EBENE_1
 62
    39
  6
CONTINUOUS
 10
-1.545339
 20
1.520618
  0
VERTEX
  8
EBENE_1
 62
    39
  6
CONTINUOUS
 10
-1.547484
 20
1.525217
  0
VERTEX
  8
EBENE_1
 62
    39
  6
CONTINUOUS
 10
-1.545337
 20
1.529815
  0
VERTEX
  8
EBENE_1
 62
    39
  6
CONTINUOUS
 10
-1.541355
 20
1.529815
  0
VERTEX
  8
EBENE_1
 62
    39
  6
CONTINUOUS
 10
-1.539209
 20
1.525217
  0
SEQEND
  8
0
  0
POLYLINE
  8
EBENE_1
 62
    39
  6
CONTINUOUS
 66
     1
 40
0.003000
 41
0.003000
 70
     1
  0
VERTEX
  8
EBENE_1
 62
    39
  6
CONTINUOUS
 10
-1.428961
 20
1.606138
  0
VERTEX
  8
EBENE_1
 62
    39
  6
CONTINUOUS
 10
-1.515220
 20
1.511256
  0
VERTEX
  8
EBENE_1
 62
    39
  6
CONTINUOUS
 10
-1.515220
 20
1.442248
  0
VERTEX
  8
EBENE_1
 62
    39
  6
CONTINUOUS
 10
-1.428961
 20
1.347362
  0
VERTEX
  8
EBENE_1
 62
    39
  6
CONTINUOUS
 10
-1.342701
 20
1.442248
  0
VERTEX
  8
EBENE_1
 62
    39
  6
CONTINUOUS
 10
-1.342701
 20
1.511256
  0
SEQEND
  8
0
  0
POLYLINE
  8
EBENE_1
 62
    39
  6
CONTINUOUS
 66
     1
 40
0.003000
 41
0.003000
 70
     1
  0
VERTEX
  8
EBENE_1
 62
    39
  6
CONTINUOUS
 10
-1.486752
 20
1.522763
  0
VERTEX
  8
EBENE_1
 62
    39
  6
CONTINUOUS
 10
-1.488902
 20
1.518165
  0
VERTEX
  8
EBENE_1
 62
    39
  6
CONTINUOUS
 10
-1.492888
 20
1.518166
  0
VERTEX
  8
EBENE_1
 62
    39
  6
CONTINUOUS
 10
-1.495035
 20
1.522764
  0
VERTEX
  8
EBENE_1
 62
    39
  6
CONTINUOUS
 10
-1.492886
 20
1.527362
  0
VERTEX
  8
EBENE_1
 62
    39
  6
CONTINUOUS
 10
-1.488900
 20
1.527362
  0
VERTEX
  8
EBENE_1
 62
    39
  6
CONTINUOUS
 10
-1.486752
 20
1.522764
  0
SEQEND
  8
0
  0
POLYLINE
  8
EBENE_1
 62
    39
  6
CONTINUOUS
 66
     1
 40
0.003000
 41
0.003000
 70
     1
  0
VERTEX
  8
EBENE_1
 62
    39
  6
CONTINUOUS
 10
-1.364185
 20
1.525216
  0
VERTEX
  8
EBENE_1
 62
    39
  6
CONTINUOUS
 10
-1.366333
 20
1.520618
  0
VERTEX
  8
EBENE_1
 62
    39
  6
CONTINUOUS
 10
-1.370315
 20
1.520618
  0
VERTEX
  8
EBENE_1
 62
    39
  6
CONTINUOUS
 10
-1.372461
 20
1.525217
  0
VERTEX
  8
EBENE_1
 62
    39
  6
CONTINUOUS
 10
-1.370313
 20
1.529815
  0
VERTEX
  8
EBENE_1
 62
    39
  6
CONTINUOUS
 10
-1.366331
 20
1.529815
  0
VERTEX
  8
EBENE_1
 62
    39
  6
CONTINUOUS
 10
-1.364185
 20
1.525217
  0
SEQEND
  8
0
  0
POLYLINE
  8
EBENE_1
 62
    39
  6
CONTINUOUS
 66
     1
 40
0.003000
 41
0.003000
 70
     1
  0
VERTEX
  8
EBENE_1
 62
    39
  6
CONTINUOUS
 10
-1.253937
 20
1.606138
  0
VERTEX
  8
EBENE_1
 62
    39
  6
CONTINUOUS
 10
-1.340193
 20
1.511256
  0
VERTEX
  8
EBENE_1
 62
    39
  6
CONTINUOUS
 10
-1.340193
 20
1.442248
  0
VERTEX
  8
EBENE_1
 62
    39
  6
CONTINUOUS
 10
-1.253937
 20
1.347362
  0
VERTEX
  8
EBENE_1
 62
    39
  6
CONTINUOUS
 10
-1.167677
 20
1.442248
  0
VERTEX
  8
EBENE_1
 62
    39
  6
CONTINUOUS
 10
-1.167677
 20
1.511256
  0
SEQEND
  8
0
  0
POLYLINE
  8
EBENE_1
 62
    39
  6
CONTINUOUS
 66
     1
 40
0.003000
 41
0.003000
 70
     1
  0
VERTEX
  8
EBENE_1
 62
    39
  6
CONTINUOUS
 10
-1.311728
 20
1.522763
  0
VERTEX
  8
EBENE_1
 62
    39
  6
CONTINUOUS
 10
-1.313876
 20
1.518165
  0
VERTEX
  8
EBENE_1
 62
    39
  6
CONTINUOUS
 10
-1.317858
 20
1.518166
  0
VERTEX
  8
EBENE_1
 62
    39
  6
CONTINUOUS
 10
-1.320004
 20
1.522764
  0
VERTEX
  8
EBENE_1
 62
    39
  6
CONTINUOUS
 10
-1.317857
 20
1.527362
  0
VERTEX
  8
EBENE_1
 62
    39
  6
CONTINUOUS
 10
-1.313874
 20
1.527362
  0
VERTEX
  8
EBENE_1
 62
    39
  6
CONTINUOUS
 10
-1.311728
 20
1.522764
  0
SEQEND
  8
0
  0
POLYLINE
  8
EBENE_1
 62
    39
  6
CONTINUOUS
 66
     1
 40
0.003000
 41
0.003000
 70
     1
  0
VERTEX
  8
EBENE_1
 62
    39
  6
CONTINUOUS
 10
-1.189161
 20
1.525216
  0
VERTEX
  8
EBENE_1
 62
    39
  6
CONTINUOUS
 10
-1.191309
 20
1.520618
  0
VERTEX
  8
EBENE_1
 62
    39
  6
CONTINUOUS
 10
-1.195291
 20
1.520618
  0
VERTEX
  8
EBENE_1
 62
    39
  6
CONTINUOUS
 10
-1.197437
 20
1.525217
  0
VERTEX
  8
EBENE_1
 62
    39
  6
CONTINUOUS
 10
-1.195290
 20
1.529815
  0
VERTEX
  8
EBENE_1
 62
    39
  6
CONTINUOUS
 10
-1.191307
 20
1.529815
  0
VERTEX
  8
EBENE_1
 62
    39
  6
CONTINUOUS
 10
-1.189161
 20
1.525217
  0
SEQEND
  8
0
  0
POLYLINE
  8
EBENE_1
 62
    39
  6
CONTINUOUS
 66
     1
 40
0.003000
 41
0.003000
 70
     1
  0
VERTEX
  8
EBENE_1
 62
    39
  6
CONTINUOUS
 10
-1.078913
 20
1.606138
  0
VERTEX
  8
EBENE_1
 62
    39
  6
CONTINUOUS
 10
-1.165169
 20
1.511256
  0
VERTEX
  8
EBENE_1
 62
    39
  6
CONTINUOUS
 10
-1.165169
 20
1.442248
  0
VERTEX
  8
EBENE_1
 62
    39
  6
CONTINUOUS
 10
-1.078913
 20
1.347362
  0
VERTEX
  8
EBENE_1
 62
    39
  6
CONTINUOUS
 10
-0.992654
 20
1.442248
  0
VERTEX
  8
EBENE_1
 62
    39
  6
CONTINUOUS
 10
-0.992654
 20
1.511256
  0
SEQEND
  8
0
  0
POLYLINE
  8
EBENE_1
 62
    39
  6
CONTINUOUS
 66
     1
 40
0.003000
 41
0.003000
 70
     1
  0
VERTEX
  8
EBENE_1
 62
    39
  6
CONTINUOUS
 10
-1.136705
 20
1.522763
  0
VERTEX
  8
EBENE_1
 62
    39
  6
CONTINUOUS
 10
-1.138852
 20
1.518165
  0
VERTEX
  8
EBENE_1
 62
    39
  6
CONTINUOUS
 10
-1.142835
 20
1.518166
  0
VERTEX
  8
EBENE_1
 62
    39
  6
CONTINUOUS
 10
-1.144980
 20
1.522764
  0
VERTEX
  8
EBENE_1
 62
    39
  6
CONTINUOUS
 10
-1.142833
 20
1.527362
  0
VERTEX
  8
EBENE_1
 62
    39
  6
CONTINUOUS
 10
-1.138851
 20
1.527362
  0
VERTEX
  8
EBENE_1
 62
    39
  6
CONTINUOUS
 10
-1.136705
 20
1.522764
  0
SEQEND
  8
0
  0
POLYLINE
  8
EBENE_1
 62
    39
  6
CONTINUOUS
 66
     1
 40
0.003000
 41
0.003000
 70
     1
  0
VERTEX
  8
EBENE_1
 62
    39
  6
CONTINUOUS
 10
-1.014134
 20
1.525216
  0
VERTEX
  8
EBENE_1
 62
    39
  6
CONTINUOUS
 10
-1.016283
 20
1.520618
  0
VERTEX
  8
EBENE_1
 62
    39
  6
CONTINUOUS
 10
-1.020270
 20
1.520618
  0
VERTEX
  8
EBENE_1
 62
    39
  6
CONTINUOUS
 10
-1.022417
 20
1.525217
  0
VERTEX
  8
EBENE_1
 62
    39
  6
CONTINUOUS
 10
-1.020268
 20
1.529815
  0
VERTEX
  8
EBENE_1
 62
    39
  6
CONTINUOUS
 10
-1.016282
 20
1.529815
  0
VERTEX
  8
EBENE_1
 62
    39
  6
CONTINUOUS
 10
-1.014134
 20
1.525217
  0
SEQEND
  8
0
  0
POLYLINE
  8
EBENE_1
 62
    39
  6
CONTINUOUS
 66
     1
 40
0.003000
 41
0.003000
 70
     1
  0
VERTEX
  8
EBENE_1
 62
    39
  6
CONTINUOUS
 10
-2.215819
 20
1.689984
  0
VERTEX
  8
EBENE_1
 62
    39
  6
CONTINUOUS
 10
-2.302079
 20
1.595098
  0
VERTEX
  8
EBENE_1
 62
    39
  6
CONTINUOUS
 10
-2.302079
 20
1.526094
  0
VERTEX
  8
EBENE_1
 62
    39
  6
CONTINUOUS
 10
-2.215819
 20
1.431209
  0
VERTEX
  8
EBENE_1
 62
    39
  6
CONTINUOUS
 10
-2.129559
 20
1.526094
  0
VERTEX
  8
EBENE_1
 62
    39
  6
CONTINUOUS
 10
-2.129559
 20
1.595098
  0
SEQEND
  8
0
  0
POLYLINE
  8
EBENE_1
 62
    39
  6
CONTINUOUS
 66
     1
 40
0.003000
 41
0.003000
 70
     1
  0
VERTEX
  8
EBENE_1
 62
    39
  6
CONTINUOUS
 10
-2.273610
 20
1.606609
  0
VERTEX
  8
EBENE_1
 62
    39
  6
CONTINUOUS
 10
-2.275760
 20
1.602011
  0
VERTEX
  8
EBENE_1
 62
    39
  6
CONTINUOUS
 10
-2.279746
 20
1.602012
  0
VERTEX
  8
EBENE_1
 62
    39
  6
CONTINUOUS
 10
-2.281894
 20
1.606611
  0
VERTEX
  8
EBENE_1
 62
    39
  6
CONTINUOUS
 10
-2.279744
 20
1.611209
  0
VERTEX
  8
EBENE_1
 62
    39
  6
CONTINUOUS
 10
-2.275758
 20
1.611209
  0
VERTEX
  8
EBENE_1
 62
    39
  6
CONTINUOUS
 10
-2.273610
 20
1.606610
  0
SEQEND
  8
0
  0
POLYLINE
  8
EBENE_1
 62
    39
  6
CONTINUOUS
 66
     1
 40
0.003000
 41
0.003000
 70
     1
  0
VERTEX
  8
EBENE_1
 62
    39
  6
CONTINUOUS
 10
-2.151043
 20
1.609058
  0
VERTEX
  8
EBENE_1
 62
    39
  6
CONTINUOUS
 10
-2.153191
 20
1.604457
  0
VERTEX
  8
EBENE_1
 62
    39
  6
CONTINUOUS
 10
-2.157173
 20
1.604457
  0
VERTEX
  8
EBENE_1
 62
    39
  6
CONTINUOUS
 10
-2.159319
 20
1.609060
  0
VERTEX
  8
EBENE_1
 62
    39
  6
CONTINUOUS
 10
-2.157172
 20
1.613661
  0
VERTEX
  8
EBENE_1
 62
    39
  6
CONTINUOUS
 10
-2.153189
 20
1.613661
  0
VERTEX
  8
EBENE_1
 62
    39
  6
CONTINUOUS
 10
-2.151043
 20
1.609059
  0
SEQEND
  8
0
  0
POLYLINE
  8
EBENE_1
 62
    39
  6
CONTINUOUS
 66
     1
 40
0.003000
 41
0.003000
 70
     1
  0
VERTEX
  8
EBENE_1
 62
    39
  6
CONTINUOUS
 10
-2.390843
 20
1.689984
  0
VERTEX
  8
EBENE_1
 62
    39
  6
CONTINUOUS
 10
-2.477102
 20
1.595098
  0
VERTEX
  8
EBENE_1
 62
    39
  6
CONTINUOUS
 10
-2.477102
 20
1.526094
  0
VERTEX
  8
EBENE_1
 62
    39
  6
CONTINUOUS
 10
-2.390843
 20
1.431209
  0
VERTEX
  8
EBENE_1
 62
    39
  6
CONTINUOUS
 10
-2.304587
 20
1.526094
  0
VERTEX
  8
EBENE_1
 62
    39
  6
CONTINUOUS
 10
-2.304587
 20
1.595098
  0
SEQEND
  8
0
  0
POLYLINE
  8
EBENE_1
 62
    39
  6
CONTINUOUS
 66
     1
 40
0.003000
 41
0.003000
 70
     1
  0
VERTEX
  8
EBENE_1
 62
    39
  6
CONTINUOUS
 10
-2.448638
 20
1.606609
  0
VERTEX
  8
EBENE_1
 62
    39
  6
CONTINUOUS
 10
-2.450785
 20
1.602011
  0
VERTEX
  8
EBENE_1
 62
    39
  6
CONTINUOUS
 10
-2.454768
 20
1.602012
  0
VERTEX
  8
EBENE_1
 62
    39
  6
CONTINUOUS
 10
-2.456913
 20
1.606611
  0
VERTEX
  8
EBENE_1
 62
    39
  6
CONTINUOUS
 10
-2.454766
 20
1.611209
  0
VERTEX
  8
EBENE_1
 62
    39
  6
CONTINUOUS
 10
-2.450784
 20
1.611209
  0
VERTEX
  8
EBENE_1
 62
    39
  6
CONTINUOUS
 10
-2.448638
 20
1.606610
  0
SEQEND
  8
0
  0
POLYLINE
  8
EBENE_1
 62
    39
  6
CONTINUOUS
 66
     1
 40
0.003000
 41
0.003000
 70
     1
  0
VERTEX
  8
EBENE_1
 62
    39
  6
CONTINUOUS
 10
-2.326067
 20
1.609058
  0
VERTEX
  8
EBENE_1
 62
    39
  6
CONTINUOUS
 10
-2.328214
 20
1.604457
  0
VERTEX
  8
EBENE_1
 62
    39
  6
CONTINUOUS
 10
-2.332197
 20
1.604457
  0
VERTEX
  8
EBENE_1
 62
    39
  6
CONTINUOUS
 10
-2.334343
 20
1.609060
  0
VERTEX
  8
EBENE_1
 62
    39
  6
CONTINUOUS
 10
-2.332195
 20
1.613661
  0
VERTEX
  8
EBENE_1
 62
    39
  6
CONTINUOUS
 10
-2.328213
 20
1.613661
  0
VERTEX
  8
EBENE_1
 62
    39
  6
CONTINUOUS
 10
-2.326067
 20
1.609059
  0
SEQEND
  8
0
  0
POLYLINE
  8
EBENE_1
 62
    39
  6
CONTINUOUS
 66
     1
 40
0.003000
 41
0.003000
 70
     1
  0
VERTEX
  8
EBENE_1
 62
    39
  6
CONTINUOUS
 10
-2.040795
 20
1.689984
  0
VERTEX
  8
EBENE_1
 62
    39
  6
CONTINUOUS
 10
-2.127055
 20
1.595098
  0
VERTEX
  8
EBENE_1
 62
    39
  6
CONTINUOUS
 10
-2.127055
 20
1.526094
  0
VERTEX
  8
EBENE_1
 62
    39
  6
CONTINUOUS
 10
-2.040795
 20
1.431209
  0
VERTEX
  8
EBENE_1
 62
    39
  6
CONTINUOUS
 10
-1.954535
 20
1.526094
  0
VERTEX
  8
EBENE_1
 62
    39
  6
CONTINUOUS
 10
-1.954535
 20
1.595098
  0
SEQEND
  8
0
  0
POLYLINE
  8
EBENE_1
 62
    39
  6
CONTINUOUS
 66
     1
 40
0.003000
 41
0.003000
 70
     1
  0
VERTEX
  8
EBENE_1
 62
    39
  6
CONTINUOUS
 10
-2.098587
 20
1.606609
  0
VERTEX
  8
EBENE_1
 62
    39
  6
CONTINUOUS
 10
-2.100734
 20
1.602011
  0
VERTEX
  8
EBENE_1
 62
    39
  6
CONTINUOUS
 10
-2.104717
 20
1.602012
  0
VERTEX
  8
EBENE_1
 62
    39
  6
CONTINUOUS
 10
-2.106862
 20
1.606611
  0
VERTEX
  8
EBENE_1
 62
    39
  6
CONTINUOUS
 10
-2.104715
 20
1.611209
  0
VERTEX
  8
EBENE_1
 62
    39
  6
CONTINUOUS
 10
-2.100733
 20
1.611209
  0
VERTEX
  8
EBENE_1
 62
    39
  6
CONTINUOUS
 10
-2.098587
 20
1.606610
  0
SEQEND
  8
0
  0
POLYLINE
  8
EBENE_1
 62
    39
  6
CONTINUOUS
 66
     1
 40
0.003000
 41
0.003000
 70
     1
  0
VERTEX
  8
EBENE_1
 62
    39
  6
CONTINUOUS
 10
-1.976020
 20
1.609058
  0
VERTEX
  8
EBENE_1
 62
    39
  6
CONTINUOUS
 10
-1.978167
 20
1.604457
  0
VERTEX
  8
EBENE_1
 62
    39
  6
CONTINUOUS
 10
-1.982150
 20
1.604457
  0
VERTEX
  8
EBENE_1
 62
    39
  6
CONTINUOUS
 10
-1.984295
 20
1.609060
  0
VERTEX
  8
EBENE_1
 62
    39
  6
CONTINUOUS
 10
-1.982148
 20
1.613661
  0
VERTEX
  8
EBENE_1
 62
    39
  6
CONTINUOUS
 10
-1.978166
 20
1.613661
  0
VERTEX
  8
EBENE_1
 62
    39
  6
CONTINUOUS
 10
-1.976020
 20
1.609059
  0
SEQEND
  8
0
  0
POLYLINE
  8
EBENE_1
 62
    39
  6
CONTINUOUS
 66
     1
 40
0.003000
 41
0.003000
 70
     1
  0
VERTEX
  8
EBENE_1
 62
    39
  6
CONTINUOUS
 10
-1.865772
 20
1.689984
  0
VERTEX
  8
EBENE_1
 62
    39
  6
CONTINUOUS
 10
-1.952028
 20
1.595098
  0
VERTEX
  8
EBENE_1
 62
    39
  6
CONTINUOUS
 10
-1.952028
 20
1.526094
  0
VERTEX
  8
EBENE_1
 62
    39
  6
CONTINUOUS
 10
-1.865772
 20
1.431209
  0
VERTEX
  8
EBENE_1
 62
    39
  6
CONTINUOUS
 10
-1.779512
 20
1.526094
  0
VERTEX
  8
EBENE_1
 62
    39
  6
CONTINUOUS
 10
-1.779512
 20
1.595098
  0
SEQEND
  8
0
  0
POLYLINE
  8
EBENE_1
 62
    39
  6
CONTINUOUS
 66
     1
 40
0.003000
 41
0.003000
 70
     1
  0
VERTEX
  8
EBENE_1
 62
    39
  6
CONTINUOUS
 10
-1.923563
 20
1.606609
  0
VERTEX
  8
EBENE_1
 62
    39
  6
CONTINUOUS
 10
-1.925711
 20
1.602011
  0
VERTEX
  8
EBENE_1
 62
    39
  6
CONTINUOUS
 10
-1.929693
 20
1.602012
  0
VERTEX
  8
EBENE_1
 62
    39
  6
CONTINUOUS
 10
-1.931839
 20
1.606611
  0
VERTEX
  8
EBENE_1
 62
    39
  6
CONTINUOUS
 10
-1.929691
 20
1.611209
  0
VERTEX
  8
EBENE_1
 62
    39
  6
CONTINUOUS
 10
-1.925709
 20
1.611209
  0
VERTEX
  8
EBENE_1
 62
    39
  6
CONTINUOUS
 10
-1.923563
 20
1.606610
  0
SEQEND
  8
0
  0
POLYLINE
  8
EBENE_1
 62
    39
  6
CONTINUOUS
 66
     1
 40
0.003000
 41
0.003000
 70
     1
  0
VERTEX
  8
EBENE_1
 62
    39
  6
CONTINUOUS
 10
-1.800992
 20
1.609058
  0
VERTEX
  8
EBENE_1
 62
    39
  6
CONTINUOUS
 10
-1.803142
 20
1.604457
  0
VERTEX
  8
EBENE_1
 62
    39
  6
CONTINUOUS
 10
-1.807128
 20
1.604457
  0
VERTEX
  8
EBENE_1
 62
    39
  6
CONTINUOUS
 10
-1.809276
 20
1.609060
  0
VERTEX
  8
EBENE_1
 62
    39
  6
CONTINUOUS
 10
-1.807126
 20
1.613661
  0
VERTEX
  8
EBENE_1
 62
    39
  6
CONTINUOUS
 10
-1.803140
 20
1.613661
  0
VERTEX
  8
EBENE_1
 62
    39
  6
CONTINUOUS
 10
-1.800992
 20
1.609059
  0
SEQEND
  8
0
  0
POLYLINE
  8
EBENE_1
 62
    39
  6
CONTINUOUS
 66
     1
 40
0.003000
 41
0.003000
 70
     1
  0
VERTEX
  8
EBENE_1
 62
    39
  6
CONTINUOUS
 10
-1.690744
 20
1.689984
  0
VERTEX
  8
EBENE_1
 62
    39
  6
CONTINUOUS
 10
-1.777004
 20
1.595098
  0
VERTEX
  8
EBENE_1
 62
    39
  6
CONTINUOUS
 10
-1.777004
 20
1.526094
  0
VERTEX
  8
EBENE_1
 62
    39
  6
CONTINUOUS
 10
-1.690744
 20
1.431209
  0
VERTEX
  8
EBENE_1
 62
    39
  6
CONTINUOUS
 10
-1.604488
 20
1.526094
  0
VERTEX
  8
EBENE_1
 62
    39
  6
CONTINUOUS
 10
-1.604488
 20
1.595098
  0
SEQEND
  8
0
  0
POLYLINE
  8
EBENE_1
 62
    39
  6
CONTINUOUS
 66
     1
 40
0.003000
 41
0.003000
 70
     1
  0
VERTEX
  8
EBENE_1
 62
    39
  6
CONTINUOUS
 10
-1.748539
 20
1.606609
  0
VERTEX
  8
EBENE_1
 62
    39
  6
CONTINUOUS
 10
-1.750687
 20
1.602011
  0
VERTEX
  8
EBENE_1
 62
    39
  6
CONTINUOUS
 10
-1.754669
 20
1.602012
  0
VERTEX
  8
EBENE_1
 62
    39
  6
CONTINUOUS
 10
-1.756815
 20
1.606611
  0
VERTEX
  8
EBENE_1
 62
    39
  6
CONTINUOUS
 10
-1.754668
 20
1.611209
  0
VERTEX
  8
EBENE_1
 62
    39
  6
CONTINUOUS
 10
-1.750685
 20
1.611209
  0
VERTEX
  8
EBENE_1
 62
    39
  6
CONTINUOUS
 10
-1.748539
 20
1.606610
  0
SEQEND
  8
0
  0
POLYLINE
  8
EBENE_1
 62
    39
  6
CONTINUOUS
 66
     1
 40
0.003000
 41
0.003000
 70
     1
  0
VERTEX
  8
EBENE_1
 62
    39
  6
CONTINUOUS
 10
-1.625969
 20
1.609058
  0
VERTEX
  8
EBENE_1
 62
    39
  6
CONTINUOUS
 10
-1.628116
 20
1.604457
  0
VERTEX
  8
EBENE_1
 62
    39
  6
CONTINUOUS
 10
-1.632099
 20
1.604457
  0
VERTEX
  8
EBENE_1
 62
    39
  6
CONTINUOUS
 10
-1.634244
 20
1.609060
  0
VERTEX
  8
EBENE_1
 62
    39
  6
CONTINUOUS
 10
-1.632097
 20
1.613661
  0
VERTEX
  8
EBENE_1
 62
    39
  6
CONTINUOUS
 10
-1.628114
 20
1.613661
  0
VERTEX
  8
EBENE_1
 62
    39
  6
CONTINUOUS
 10
-1.625969
 20
1.609059
  0
SEQEND
  8
0
  0
POLYLINE
  8
EBENE_1
 62
    39
  6
CONTINUOUS
 66
     1
 40
0.003000
 41
0.003000
 70
     1
  0
VERTEX
  8
EBENE_1
 62
    39
  6
CONTINUOUS
 10
-1.515720
 20
1.689984
  0
VERTEX
  8
EBENE_1
 62
    39
  6
CONTINUOUS
 10
-1.601980
 20
1.595098
  0
VERTEX
  8
EBENE_1
 62
    39
  6
CONTINUOUS
 10
-1.601980
 20
1.526094
  0
VERTEX
  8
EBENE_1
 62
    39
  6
CONTINUOUS
 10
-1.515720
 20
1.431209
  0
VERTEX
  8
EBENE_1
 62
    39
  6
CONTINUOUS
 10
-1.429461
 20
1.526094
  0
VERTEX
  8
EBENE_1
 62
    39
  6
CONTINUOUS
 10
-1.429461
 20
1.595098
  0
SEQEND
  8
0
  0
POLYLINE
  8
EBENE_1
 62
    39
  6
CONTINUOUS
 66
     1
 40
0.003000
 41
0.003000
 70
     1
  0
VERTEX
  8
EBENE_1
 62
    39
  6
CONTINUOUS
 10
-1.573512
 20
1.606609
  0
VERTEX
  8
EBENE_1
 62
    39
  6
CONTINUOUS
 10
-1.575661
 20
1.602011
  0
VERTEX
  8
EBENE_1
 62
    39
  6
CONTINUOUS
 10
-1.579648
 20
1.602012
  0
VERTEX
  8
EBENE_1
 62
    39
  6
CONTINUOUS
 10
-1.581795
 20
1.606611
  0
VERTEX
  8
EBENE_1
 62
    39
  6
CONTINUOUS
 10
-1.579646
 20
1.611209
  0
VERTEX
  8
EBENE_1
 62
    39
  6
CONTINUOUS
 10
-1.575660
 20
1.611209
  0
VERTEX
  8
EBENE_1
 62
    39
  6
CONTINUOUS
 10
-1.573512
 20
1.606610
  0
SEQEND
  8
0
  0
POLYLINE
  8
EBENE_1
 62
    39
  6
CONTINUOUS
 66
     1
 40
0.003000
 41
0.003000
 70
     1
  0
VERTEX
  8
EBENE_1
 62
    39
  6
CONTINUOUS
 10
-1.450945
 20
1.609058
  0
VERTEX
  8
EBENE_1
 62
    39
  6
CONTINUOUS
 10
-1.453092
 20
1.604457
  0
VERTEX
  8
EBENE_1
 62
    39
  6
CONTINUOUS
 10
-1.457075
 20
1.604457
  0
VERTEX
  8
EBENE_1
 62
    39
  6
CONTINUOUS
 10
-1.459220
 20
1.609060
  0
VERTEX
  8
EBENE_1
 62
    39
  6
CONTINUOUS
 10
-1.457073
 20
1.613661
  0
VERTEX
  8
EBENE_1
 62
    39
  6
CONTINUOUS
 10
-1.453091
 20
1.613661
  0
VERTEX
  8
EBENE_1
 62
    39
  6
CONTINUOUS
 10
-1.450945
 20
1.609059
  0
SEQEND
  8
0
  0
POLYLINE
  8
EBENE_1
 62
    39
  6
CONTINUOUS
 66
     1
 40
0.003000
 41
0.003000
 70
     1
  0
VERTEX
  8
EBENE_1
 62
    39
  6
CONTINUOUS
 10
-1.340697
 20
1.689984
  0
VERTEX
  8
EBENE_1
 62
    39
  6
CONTINUOUS
 10
-1.426953
 20
1.595098
  0
VERTEX
  8
EBENE_1
 62
    39
  6
CONTINUOUS
 10
-1.426953
 20
1.526094
  0
VERTEX
  8
EBENE_1
 62
    39
  6
CONTINUOUS
 10
-1.340697
 20
1.431209
  0
VERTEX
  8
EBENE_1
 62
    39
  6
CONTINUOUS
 10
-1.254437
 20
1.526094
  0
VERTEX
  8
EBENE_1
 62
    39
  6
CONTINUOUS
 10
-1.254437
 20
1.595098
  0
SEQEND
  8
0
  0
POLYLINE
  8
EBENE_1
 62
    39
  6
CONTINUOUS
 66
     1
 40
0.003000
 41
0.003000
 70
     1
  0
VERTEX
  8
EBENE_1
 62
    39
  6
CONTINUOUS
 10
-1.398488
 20
1.606609
  0
VERTEX
  8
EBENE_1
 62
    39
  6
CONTINUOUS
 10
-1.400636
 20
1.602011
  0
VERTEX
  8
EBENE_1
 62
    39
  6
CONTINUOUS
 10
-1.404618
 20
1.602012
  0
VERTEX
  8
EBENE_1
 62
    39
  6
CONTINUOUS
 10
-1.406764
 20
1.606611
  0
VERTEX
  8
EBENE_1
 62
    39
  6
CONTINUOUS
 10
-1.404617
 20
1.611209
  0
VERTEX
  8
EBENE_1
 62
    39
  6
CONTINUOUS
 10
-1.400634
 20
1.611209
  0
VERTEX
  8
EBENE_1
 62
    39
  6
CONTINUOUS
 10
-1.398488
 20
1.606610
  0
SEQEND
  8
0
  0
POLYLINE
  8
EBENE_1
 62
    39
  6
CONTINUOUS
 66
     1
 40
0.003000
 41
0.003000
 70
     1
  0
VERTEX
  8
EBENE_1
 62
    39
  6
CONTINUOUS
 10
-1.275917
 20
1.609058
  0
VERTEX
  8
EBENE_1
 62
    39
  6
CONTINUOUS
 10
-1.278067
 20
1.604457
  0
VERTEX
  8
EBENE_1
 62
    39
  6
CONTINUOUS
 10
-1.282053
 20
1.604457
  0
VERTEX
  8
EBENE_1
 62
    39
  6
CONTINUOUS
 10
-1.284201
 20
1.609060
  0
VERTEX
  8
EBENE_1
 62
    39
  6
CONTINUOUS
 10
-1.282052
 20
1.613661
  0
VERTEX
  8
EBENE_1
 62
    39
  6
CONTINUOUS
 10
-1.278065
 20
1.613661
  0
VERTEX
  8
EBENE_1
 62
    39
  6
CONTINUOUS
 10
-1.275917
 20
1.609059
  0
SEQEND
  8
0
  0
POLYLINE
  8
EBENE_1
 62
    39
  6
CONTINUOUS
 66
     1
 40
0.003000
 41
0.003000
 70
     1
  0
VERTEX
  8
EBENE_1
 62
    39
  6
CONTINUOUS
 10
-1.165669
 20
1.689984
  0
VERTEX
  8
EBENE_1
 62
    39
  6
CONTINUOUS
 10
-1.251929
 20
1.595098
  0
VERTEX
  8
EBENE_1
 62
    39
  6
CONTINUOUS
 10
-1.251929
 20
1.526094
  0
VERTEX
  8
EBENE_1
 62
    39
  6
CONTINUOUS
 10
-1.165669
 20
1.431209
  0
VERTEX
  8
EBENE_1
 62
    39
  6
CONTINUOUS
 10
-1.079413
 20
1.526094
  0
VERTEX
  8
EBENE_1
 62
    39
  6
CONTINUOUS
 10
-1.079413
 20
1.595098
  0
SEQEND
  8
0
  0
POLYLINE
  8
EBENE_1
 62
    39
  6
CONTINUOUS
 66
     1
 40
0.003000
 41
0.003000
 70
     1
  0
VERTEX
  8
EBENE_1
 62
    39
  6
CONTINUOUS
 10
-1.223465
 20
1.606609
  0
VERTEX
  8
EBENE_1
 62
    39
  6
CONTINUOUS
 10
-1.225612
 20
1.602011
  0
VERTEX
  8
EBENE_1
 62
    39
  6
CONTINUOUS
 10
-1.229595
 20
1.602012
  0
VERTEX
  8
EBENE_1
 62
    39
  6
CONTINUOUS
 10
-1.231740
 20
1.606611
  0
VERTEX
  8
EBENE_1
 62
    39
  6
CONTINUOUS
 10
-1.229593
 20
1.611209
  0
VERTEX
  8
EBENE_1
 62
    39
  6
CONTINUOUS
 10
-1.225610
 20
1.611209
  0
VERTEX
  8
EBENE_1
 62
    39
  6
CONTINUOUS
 10
-1.223465
 20
1.606610
  0
SEQEND
  8
0
  0
POLYLINE
  8
EBENE_1
 62
    39
  6
CONTINUOUS
 66
     1
 40
0.003000
 41
0.003000
 70
     1
  0
VERTEX
  8
EBENE_1
 62
    39
  6
CONTINUOUS
 10
-1.100894
 20
1.609058
  0
VERTEX
  8
EBENE_1
 62
    39
  6
CONTINUOUS
 10
-1.103041
 20
1.604457
  0
VERTEX
  8
EBENE_1
 62
    39
  6
CONTINUOUS
 10
-1.107024
 20
1.604457
  0
VERTEX
  8
EBENE_1
 62
    39
  6
CONTINUOUS
 10
-1.109169
 20
1.609060
  0
VERTEX
  8
EBENE_1
 62
    39
  6
CONTINUOUS
 10
-1.107022
 20
1.613661
  0
VERTEX
  8
EBENE_1
 62
    39
  6
CONTINUOUS
 10
-1.103040
 20
1.613661
  0
VERTEX
  8
EBENE_1
 62
    39
  6
CONTINUOUS
 10
-1.100894
 20
1.609059
  0
SEQEND
  8
0
  0
POLYLINE
  8
EBENE_1
 62
    39
  6
CONTINUOUS
 66
     1
 40
0.003000
 41
0.003000
 70
     1
  0
VERTEX
  8
EBENE_1
 62
    39
  6
CONTINUOUS
 10
-0.990646
 20
1.689984
  0
VERTEX
  8
EBENE_1
 62
    39
  6
CONTINUOUS
 10
-1.076906
 20
1.595098
  0
VERTEX
  8
EBENE_1
 62
    39
  6
CONTINUOUS
 10
-1.076906
 20
1.526094
  0
VERTEX
  8
EBENE_1
 62
    39
  6
CONTINUOUS
 10
-0.990646
 20
1.431209
  0
VERTEX
  8
EBENE_1
 62
    39
  6
CONTINUOUS
 10
-0.904386
 20
1.526094
  0
VERTEX
  8
EBENE_1
 62
    39
  6
CONTINUOUS
 10
-0.904386
 20
1.595098
  0
SEQEND
  8
0
  0
POLYLINE
  8
EBENE_1
 62
    39
  6
CONTINUOUS
 66
     1
 40
0.003000
 41
0.003000
 70
     1
  0
VERTEX
  8
EBENE_1
 62
    39
  6
CONTINUOUS
 10
-1.048437
 20
1.606609
  0
VERTEX
  8
EBENE_1
 62
    39
  6
CONTINUOUS
 10
-1.050587
 20
1.602011
  0
VERTEX
  8
EBENE_1
 62
    39
  6
CONTINUOUS
 10
-1.054573
 20
1.602012
  0
VERTEX
  8
EBENE_1
 62
    39
  6
CONTINUOUS
 10
-1.056720
 20
1.606611
  0
VERTEX
  8
EBENE_1
 62
    39
  6
CONTINUOUS
 10
-1.054571
 20
1.611209
  0
VERTEX
  8
EBENE_1
 62
    39
  6
CONTINUOUS
 10
-1.050585
 20
1.611209
  0
VERTEX
  8
EBENE_1
 62
    39
  6
CONTINUOUS
 10
-1.048437
 20
1.606610
  0
SEQEND
  8
0
  0
POLYLINE
  8
EBENE_1
 62
    39
  6
CONTINUOUS
 66
     1
 40
0.003000
 41
0.003000
 70
     1
  0
VERTEX
  8
EBENE_1
 62
    39
  6
CONTINUOUS
 10
-0.925870
 20
1.609058
  0
VERTEX
  8
EBENE_1
 62
    39
  6
CONTINUOUS
 10
-0.928018
 20
1.604457
  0
VERTEX
  8
EBENE_1
 62
    39
  6
CONTINUOUS
 10
-0.932000
 20
1.604457
  0
VERTEX
  8
EBENE_1
 62
    39
  6
CONTINUOUS
 10
-0.934146
 20
1.609060
  0
VERTEX
  8
EBENE_1
 62
    39
  6
CONTINUOUS
 10
-0.931998
 20
1.613661
  0
VERTEX
  8
EBENE_1
 62
    39
  6
CONTINUOUS
 10
-0.928016
 20
1.613661
  0
VERTEX
  8
EBENE_1
 62
    39
  6
CONTINUOUS
 10
-0.925870
 20
1.609059
  0
SEQEND
  8
0
  0
TEXT
  8
EBENE_1
 62
    39
 10
-2.456425
 20
2.110736
 40
0.276615
  1
Spitzwinkel Deckung
 41
1.000000
  7
SN0
 71
     0
 72
     5
 11
0.618455
 21
2.110736
  0
ENDSEC
  0
EOF
