  0
SECTION
  2
HEADER
  9
$ACADVER
  1
AC1006
  9
$EXTMIN
 10
-1.566677
 20
1.835799
  9
$EXTMAX
 10
1.443665
 20
3.004705
  9
$LTSCALE
 40
0.000394
  9
$PDMODE
 70
    35
  9
$PDSIZE
 40
0.000315
  0
ENDSEC
  0
SECTION
  2
TABLES
  0
TABLE
  2
LTYPE
 70
     9
  0
LTYPE
  2
CONTINUOUS
 70
    64
  3
Solid line
 72
    65
 73
     0
 40
0.000000
  0
LTYPE
  2
DASHED
 70
    64
  3
__ __ __ __ __ __ __ __ __ __ __ __ __ __ __
 72
    65
 73
     2
 40
0.000003
 49
0.000002
 49
-0.000001
  0
LTYPE
  2
HIDDEN
 70
    64
  3
 _ _ _ _ _ _ _ _ _ _ _ _ _ _ _ _ _ _ _ _ _ _
 72
    65
 73
     2
 40
0.000001
 49
0.000001
 49
-0.000000
  0
LTYPE
  2
CENTER
 70
    64
  3
____ _ ____ _ ____ _ ____ _ ____ _ ____ _ ____
 72
    65
 73
     4
 40
0.000008
 49
0.000005
 49
-0.000001
 49
0.000001
 49
-0.000001
  0
LTYPE
  2
PHANTOM
 70
    64
  3
_____ _ _ _____ _ _ _____ _ _ _____ _ _ ____
 72
    65
 73
     6
 40
0.000010
 49
0.000005
 49
-0.000001
 49
0.000001
 49
-0.000001
 49
0.000001
 49
-0.000001
  0
LTYPE
  2
DOT
 70
    64
  3
...............................................
 72
    65
 73
     2
 40
0.000001
 49
0.000000
 49
-0.000001
  0
LTYPE
  2
DASHDOT
 70
    64
  3
__ . __ . __ . __ . __ . __ . __ . __ . __ . __
 72
    65
 73
     4
 40
0.000004
 49
0.000002
 49
-0.000001
 49
0.000000
 49
-0.000001
  0
LTYPE
  2
BORDER
 70
    64
  3
__ __ . __ __ . __ __ . __ __ . __ __ . __ __
 72
    65
 73
     6
 40
0.000007
 49
0.000002
 49
-0.000001
 49
0.000002
 49
-0.000001
 49
0.000000
 49
-0.000001
  0
LTYPE
  2
DIVIDE
 70
    64
  3
__ . . __ . . __ . . __ . . __ . . __ . . __
 72
    65
 73
     6
 40
0.000005
 49
0.000002
 49
-0.000001
 49
0.000000
 49
-0.000001
 49
0.000000
 49
-0.000001
  0
LTYPE
  2
DOTDOT
 70
    64
  3
 . .  . .  . .  . .  . .  . . 
 72
    65
 73
     5
 40
0.000002
 49
-0.000001
 49
0.000000
 49
-0.000001
 49
0.000000
 49
-0.000001
  0
ENDTAB
  0
TABLE
  2
STYLE
 70
     2
  0
STYLE
 70
     0
  2
SN0
 40
0.000000
 41
0.000004
 50
0.000000
 71
     0
 42
0.000000
  3
SCRIPTS
  0
STYLE
 70
    68
  2
SV0
 40
0.000000
 41
0.000004
 50
0.000000
 71
     0
 42
0.000000
  3
SCRIPTS
  0
ENDTAB
  0
TABLE
  2
LAYER
 70
     3
  0
LAYER
  2
FOREGROUND
 70
    64
 62
     7
  6
CONTINUOUS
  0
LAYER
  2
BACKGROUND
 70
    65
 62
    -7
  6
CONTINUOUS
  0
LAYER
  2
EBENE_1
 70
    64
 62
     7
  6
CONTINUOUS
  0
ENDTAB
  0
ENDSEC
  0
SECTION
  2
ENTITIES
  0
POLYLINE
  8
EBENE_1
 62
    39
  6
CONTINUOUS
 66
     1
 40
0.003000
 41
0.003000
  0
VERTEX
  8
EBENE_1
 62
    39
  6
CONTINUOUS
 10
1.300232
 20
2.539630
  0
VERTEX
  8
EBENE_1
 62
    39
  6
CONTINUOUS
 10
1.190063
 20
2.187492
  0
VERTEX
  8
EBENE_1
 62
    39
  6
CONTINUOUS
 10
1.375933
 20
2.182087
  0
SEQEND
  8
0
  0
POLYLINE
  8
EBENE_1
 62
    39
  6
CONTINUOUS
 66
     1
 40
0.003000
 41
0.003000
  0
VERTEX
  8
EBENE_1
 62
    39
  6
CONTINUOUS
 10
1.375933
 20
2.182087
  0
VERTEX
  8
EBENE_1
 62
    39
  6
CONTINUOUS
 10
1.384917
 20
2.182142
  0
VERTEX
  8
EBENE_1
 62
    39
  6
CONTINUOUS
 10
1.393034
 20
2.182405
  0
VERTEX
  8
EBENE_1
 62
    39
  6
CONTINUOUS
 10
1.400328
 20
2.183022
  0
VERTEX
  8
EBENE_1
 62
    39
  6
CONTINUOUS
 10
1.406843
 20
2.184141
  0
VERTEX
  8
EBENE_1
 62
    39
  6
CONTINUOUS
 10
1.412625
 20
2.185908
  0
VERTEX
  8
EBENE_1
 62
    39
  6
CONTINUOUS
 10
1.417718
 20
2.188470
  0
VERTEX
  8
EBENE_1
 62
    39
  6
CONTINUOUS
 10
1.422167
 20
2.191973
  0
VERTEX
  8
EBENE_1
 62
    39
  6
CONTINUOUS
 10
1.426016
 20
2.196563
  0
VERTEX
  8
EBENE_1
 62
    39
  6
CONTINUOUS
 10
1.429310
 20
2.202388
  0
VERTEX
  8
EBENE_1
 62
    39
  6
CONTINUOUS
 10
1.432094
 20
2.209595
  0
VERTEX
  8
EBENE_1
 62
    39
  6
CONTINUOUS
 10
1.434412
 20
2.218329
  0
VERTEX
  8
EBENE_1
 62
    39
  6
CONTINUOUS
 10
1.436309
 20
2.228738
  0
VERTEX
  8
EBENE_1
 62
    39
  6
CONTINUOUS
 10
1.437830
 20
2.240968
  0
VERTEX
  8
EBENE_1
 62
    39
  6
CONTINUOUS
 10
1.439020
 20
2.255166
  0
VERTEX
  8
EBENE_1
 62
    39
  6
CONTINUOUS
 10
1.439922
 20
2.271478
  0
VERTEX
  8
EBENE_1
 62
    39
  6
CONTINUOUS
 10
1.440582
 20
2.290051
  0
VERTEX
  8
EBENE_1
 62
    39
  6
CONTINUOUS
 10
1.441044
 20
2.311033
  0
VERTEX
  8
EBENE_1
 62
    39
  6
CONTINUOUS
 10
1.441354
 20
2.334568
  0
VERTEX
  8
EBENE_1
 62
    39
  6
CONTINUOUS
 10
1.441555
 20
2.360805
  0
VERTEX
  8
EBENE_1
 62
    39
  6
CONTINUOUS
 10
1.441692
 20
2.389890
  0
VERTEX
  8
EBENE_1
 62
    39
  6
CONTINUOUS
 10
1.441811
 20
2.421969
  0
VERTEX
  8
EBENE_1
 62
    39
  6
CONTINUOUS
 10
1.441955
 20
2.457189
  0
VERTEX
  8
EBENE_1
 62
    39
  6
CONTINUOUS
 10
1.442169
 20
2.495697
  0
SEQEND
  8
0
  0
POLYLINE
  8
EBENE_1
 62
    39
  6
CONTINUOUS
 66
     1
 40
0.003000
 41
0.003000
  0
VERTEX
  8
EBENE_1
 62
    39
  6
CONTINUOUS
 10
1.442169
 20
2.495697
  0
VERTEX
  8
EBENE_1
 62
    39
  6
CONTINUOUS
 10
1.439234
 20
2.522423
  0
VERTEX
  8
EBENE_1
 62
    39
  6
CONTINUOUS
 10
1.434234
 20
2.543911
  0
VERTEX
  8
EBENE_1
 62
    39
  6
CONTINUOUS
 10
1.426793
 20
2.560331
  0
VERTEX
  8
EBENE_1
 62
    39
  6
CONTINUOUS
 10
1.416536
 20
2.571850
  0
VERTEX
  8
EBENE_1
 62
    39
  6
CONTINUOUS
 10
1.403087
 20
2.578637
  0
VERTEX
  8
EBENE_1
 62
    39
  6
CONTINUOUS
 10
1.386071
 20
2.580862
  0
SEQEND
  8
0
  0
POLYLINE
  8
EBENE_1
 62
    39
  6
CONTINUOUS
 66
     1
 40
0.003000
 41
0.003000
  0
VERTEX
  8
EBENE_1
 62
    39
  6
CONTINUOUS
 10
1.386071
 20
2.580862
  0
VERTEX
  8
EBENE_1
 62
    39
  6
CONTINUOUS
 10
1.392154
 20
2.579508
  0
SEQEND
  8
0
  0
POLYLINE
  8
EBENE_1
 62
    39
  6
CONTINUOUS
 66
     1
 40
0.003000
 41
0.003000
  0
VERTEX
  8
EBENE_1
 62
    39
  6
CONTINUOUS
 10
1.392154
 20
2.579508
  0
VERTEX
  8
EBENE_1
 62
    39
  6
CONTINUOUS
 10
1.364166
 20
2.577697
  0
VERTEX
  8
EBENE_1
 62
    39
  6
CONTINUOUS
 10
1.341013
 20
2.572479
  0
VERTEX
  8
EBENE_1
 62
    39
  6
CONTINUOUS
 10
1.322661
 20
2.564180
  0
VERTEX
  8
EBENE_1
 62
    39
  6
CONTINUOUS
 10
1.309079
 20
2.553122
  0
VERTEX
  8
EBENE_1
 62
    39
  6
CONTINUOUS
 10
1.300232
 20
2.539630
  0
SEQEND
  8
0
  0
POLYLINE
  8
EBENE_1
 62
    39
  6
CONTINUOUS
 66
     1
 40
0.003000
 41
0.003000
 70
     1
  0
VERTEX
  8
EBENE_1
 62
    39
  6
CONTINUOUS
 10
1.293472
 20
2.523409
  0
VERTEX
  8
EBENE_1
 62
    39
  6
CONTINUOUS
 10
1.189386
 20
2.184791
  0
VERTEX
  8
EBENE_1
 62
    39
  6
CONTINUOUS
 10
1.387421
 20
2.186142
  0
VERTEX
  8
EBENE_1
 62
    39
  6
CONTINUOUS
 10
1.396460
 20
2.187303
  0
VERTEX
  8
EBENE_1
 62
    39
  6
CONTINUOUS
 10
1.404277
 20
2.190015
  0
VERTEX
  8
EBENE_1
 62
    39
  6
CONTINUOUS
 10
1.410959
 20
2.194230
  0
VERTEX
  8
EBENE_1
 62
    39
  6
CONTINUOUS
 10
1.416593
 20
2.199900
  0
VERTEX
  8
EBENE_1
 62
    39
  6
CONTINUOUS
 10
1.421264
 20
2.206975
  0
VERTEX
  8
EBENE_1
 62
    39
  6
CONTINUOUS
 10
1.425058
 20
2.215406
  0
VERTEX
  8
EBENE_1
 62
    39
  6
CONTINUOUS
 10
1.428061
 20
2.225145
  0
VERTEX
  8
EBENE_1
 62
    39
  6
CONTINUOUS
 10
1.430360
 20
2.236143
  0
VERTEX
  8
EBENE_1
 62
    39
  6
CONTINUOUS
 10
1.432040
 20
2.248352
  0
VERTEX
  8
EBENE_1
 62
    39
  6
CONTINUOUS
 10
1.433188
 20
2.261722
  0
VERTEX
  8
EBENE_1
 62
    39
  6
CONTINUOUS
 10
1.433890
 20
2.276205
  0
VERTEX
  8
EBENE_1
 62
    39
  6
CONTINUOUS
 10
1.434231
 20
2.291752
  0
VERTEX
  8
EBENE_1
 62
    39
  6
CONTINUOUS
 10
1.434298
 20
2.308315
  0
VERTEX
  8
EBENE_1
 62
    39
  6
CONTINUOUS
 10
1.434177
 20
2.325844
  0
VERTEX
  8
EBENE_1
 62
    39
  6
CONTINUOUS
 10
1.433954
 20
2.344291
  0
VERTEX
  8
EBENE_1
 62
    39
  6
CONTINUOUS
 10
1.433715
 20
2.363607
  0
VERTEX
  8
EBENE_1
 62
    39
  6
CONTINUOUS
 10
1.433546
 20
2.383743
  0
VERTEX
  8
EBENE_1
 62
    39
  6
CONTINUOUS
 10
1.433533
 20
2.404651
  0
VERTEX
  8
EBENE_1
 62
    39
  6
CONTINUOUS
 10
1.433762
 20
2.426282
  0
VERTEX
  8
EBENE_1
 62
    39
  6
CONTINUOUS
 10
1.434320
 20
2.448587
  0
VERTEX
  8
EBENE_1
 62
    39
  6
CONTINUOUS
 10
1.435291
 20
2.471517
  0
VERTEX
  8
EBENE_1
 62
    39
  6
CONTINUOUS
 10
1.436764
 20
2.495024
  0
VERTEX
  8
EBENE_1
 62
    39
  6
CONTINUOUS
 10
1.435815
 20
2.521715
  0
VERTEX
  8
EBENE_1
 62
    39
  6
CONTINUOUS
 10
1.435260
 20
2.543638
  0
VERTEX
  8
EBENE_1
 62
    39
  6
CONTINUOUS
 10
1.433467
 20
2.560754
  0
VERTEX
  8
EBENE_1
 62
    39
  6
CONTINUOUS
 10
1.428801
 20
2.573027
  0
VERTEX
  8
EBENE_1
 62
    39
  6
CONTINUOUS
 10
1.419630
 20
2.580418
  0
VERTEX
  8
EBENE_1
 62
    39
  6
CONTINUOUS
 10
1.404319
 20
2.582890
  0
VERTEX
  8
EBENE_1
 62
    39
  6
CONTINUOUS
 10
1.349571
 20
2.572748
  0
VERTEX
  8
EBENE_1
 62
    39
  6
CONTINUOUS
 10
1.326607
 20
2.569888
  0
VERTEX
  8
EBENE_1
 62
    39
  6
CONTINUOUS
 10
1.313960
 20
2.562194
  0
VERTEX
  8
EBENE_1
 62
    39
  6
CONTINUOUS
 10
1.307185
 20
2.550997
  0
VERTEX
  8
EBENE_1
 62
    39
  6
CONTINUOUS
 10
1.301837
 20
2.537625
  0
SEQEND
  8
0
  0
POLYLINE
  8
EBENE_1
 62
    39
  6
CONTINUOUS
 66
     1
 40
0.003000
 41
0.003000
  0
VERTEX
  8
EBENE_1
 62
    39
  6
CONTINUOUS
 10
1.326591
 20
2.539630
  0
VERTEX
  8
EBENE_1
 62
    39
  6
CONTINUOUS
 10
1.323713
 20
2.537979
  0
VERTEX
  8
EBENE_1
 62
    39
  6
CONTINUOUS
 10
1.322036
 20
2.534974
  0
VERTEX
  8
EBENE_1
 62
    39
  6
CONTINUOUS
 10
1.321862
 20
2.531520
  0
SEQEND
  8
0
  0
POLYLINE
  8
EBENE_1
 62
    39
  6
CONTINUOUS
 66
     1
 40
0.003000
 41
0.003000
  0
VERTEX
  8
EBENE_1
 62
    39
  6
CONTINUOUS
 10
1.321862
 20
2.531520
  0
VERTEX
  8
EBENE_1
 62
    39
  6
CONTINUOUS
 10
1.323838
 20
2.528642
  0
VERTEX
  8
EBENE_1
 62
    39
  6
CONTINUOUS
 10
1.326866
 20
2.526966
  0
VERTEX
  8
EBENE_1
 62
    39
  6
CONTINUOUS
 10
1.330646
 20
2.526791
  0
SEQEND
  8
0
  0
POLYLINE
  8
EBENE_1
 62
    39
  6
CONTINUOUS
 66
     1
 40
0.003000
 41
0.003000
  0
VERTEX
  8
EBENE_1
 62
    39
  6
CONTINUOUS
 10
1.330646
 20
2.526791
  0
VERTEX
  8
EBENE_1
 62
    39
  6
CONTINUOUS
 10
1.333526
 20
2.528442
  0
VERTEX
  8
EBENE_1
 62
    39
  6
CONTINUOUS
 10
1.335204
 20
2.531444
  0
VERTEX
  8
EBENE_1
 62
    39
  6
CONTINUOUS
 10
1.335378
 20
2.534898
  0
SEQEND
  8
0
  0
POLYLINE
  8
EBENE_1
 62
    39
  6
CONTINUOUS
 66
     1
 40
0.003000
 41
0.003000
  0
VERTEX
  8
EBENE_1
 62
    39
  6
CONTINUOUS
 10
1.335378
 20
2.534898
  0
VERTEX
  8
EBENE_1
 62
    39
  6
CONTINUOUS
 10
1.333401
 20
2.538230
  0
VERTEX
  8
EBENE_1
 62
    39
  6
CONTINUOUS
 10
1.330371
 20
2.539907
  0
VERTEX
  8
EBENE_1
 62
    39
  6
CONTINUOUS
 10
1.326591
 20
2.539630
  0
SEQEND
  8
0
  0
POLYLINE
  8
EBENE_1
 62
    39
  6
CONTINUOUS
 66
     1
 40
0.003000
 41
0.003000
  0
VERTEX
  8
EBENE_1
 62
    39
  6
CONTINUOUS
 10
1.306992
 20
2.497051
  0
VERTEX
  8
EBENE_1
 62
    39
  6
CONTINUOUS
 10
1.304112
 20
2.495072
  0
VERTEX
  8
EBENE_1
 62
    39
  6
CONTINUOUS
 10
1.302434
 20
2.492043
  0
VERTEX
  8
EBENE_1
 62
    39
  6
CONTINUOUS
 10
1.302260
 20
2.488264
  0
SEQEND
  8
0
  0
POLYLINE
  8
EBENE_1
 62
    39
  6
CONTINUOUS
 66
     1
 40
0.003000
 41
0.003000
  0
VERTEX
  8
EBENE_1
 62
    39
  6
CONTINUOUS
 10
1.302260
 20
2.488264
  0
VERTEX
  8
EBENE_1
 62
    39
  6
CONTINUOUS
 10
1.303913
 20
2.485386
  0
VERTEX
  8
EBENE_1
 62
    39
  6
CONTINUOUS
 10
1.306917
 20
2.483709
  0
VERTEX
  8
EBENE_1
 62
    39
  6
CONTINUOUS
 10
1.310370
 20
2.483531
  0
SEQEND
  8
0
  0
POLYLINE
  8
EBENE_1
 62
    39
  6
CONTINUOUS
 66
     1
 40
0.003000
 41
0.003000
  0
VERTEX
  8
EBENE_1
 62
    39
  6
CONTINUOUS
 10
1.310370
 20
2.483531
  0
VERTEX
  8
EBENE_1
 62
    39
  6
CONTINUOUS
 10
1.313699
 20
2.485485
  0
VERTEX
  8
EBENE_1
 62
    39
  6
CONTINUOUS
 10
1.315377
 20
2.488339
  0
VERTEX
  8
EBENE_1
 62
    39
  6
CONTINUOUS
 10
1.315102
 20
2.491642
  0
SEQEND
  8
0
  0
POLYLINE
  8
EBENE_1
 62
    39
  6
CONTINUOUS
 66
     1
 40
0.003000
 41
0.003000
  0
VERTEX
  8
EBENE_1
 62
    39
  6
CONTINUOUS
 10
1.315102
 20
2.491642
  0
VERTEX
  8
EBENE_1
 62
    39
  6
CONTINUOUS
 10
1.313449
 20
2.494996
  0
VERTEX
  8
EBENE_1
 62
    39
  6
CONTINUOUS
 10
1.310446
 20
2.496849
  0
VERTEX
  8
EBENE_1
 62
    39
  6
CONTINUOUS
 10
1.306992
 20
2.497051
  0
SEQEND
  8
0
  0
POLYLINE
  8
EBENE_1
 62
    39
  6
CONTINUOUS
 66
     1
 40
0.003000
 41
0.003000
  0
VERTEX
  8
EBENE_1
 62
    39
  6
CONTINUOUS
 10
1.368496
 20
2.552472
  0
VERTEX
  8
EBENE_1
 62
    39
  6
CONTINUOUS
 10
1.365468
 20
2.550819
  0
VERTEX
  8
EBENE_1
 62
    39
  6
CONTINUOUS
 10
1.363641
 20
2.547816
  0
VERTEX
  8
EBENE_1
 62
    39
  6
CONTINUOUS
 10
1.363768
 20
2.544362
  0
SEQEND
  8
0
  0
POLYLINE
  8
EBENE_1
 62
    39
  6
CONTINUOUS
 66
     1
 40
0.003000
 41
0.003000
  0
VERTEX
  8
EBENE_1
 62
    39
  6
CONTINUOUS
 10
1.363768
 20
2.544362
  0
VERTEX
  8
EBENE_1
 62
    39
  6
CONTINUOUS
 10
1.365418
 20
2.541033
  0
VERTEX
  8
EBENE_1
 62
    39
  6
CONTINUOUS
 10
1.368421
 20
2.539355
  0
VERTEX
  8
EBENE_1
 62
    39
  6
CONTINUOUS
 10
1.371874
 20
2.539630
  0
SEQEND
  8
0
  0
POLYLINE
  8
EBENE_1
 62
    39
  6
CONTINUOUS
 66
     1
 40
0.003000
 41
0.003000
  0
VERTEX
  8
EBENE_1
 62
    39
  6
CONTINUOUS
 10
1.371874
 20
2.539630
  0
VERTEX
  8
EBENE_1
 62
    39
  6
CONTINUOUS
 10
1.374905
 20
2.541283
  0
VERTEX
  8
EBENE_1
 62
    39
  6
CONTINUOUS
 10
1.376733
 20
2.544287
  0
VERTEX
  8
EBENE_1
 62
    39
  6
CONTINUOUS
 10
1.376606
 20
2.547740
  0
SEQEND
  8
0
  0
POLYLINE
  8
EBENE_1
 62
    39
  6
CONTINUOUS
 66
     1
 40
0.003000
 41
0.003000
  0
VERTEX
  8
EBENE_1
 62
    39
  6
CONTINUOUS
 10
1.376606
 20
2.547740
  0
VERTEX
  8
EBENE_1
 62
    39
  6
CONTINUOUS
 10
1.374955
 20
2.550621
  0
VERTEX
  8
EBENE_1
 62
    39
  6
CONTINUOUS
 10
1.371950
 20
2.552298
  0
VERTEX
  8
EBENE_1
 62
    39
  6
CONTINUOUS
 10
1.368496
 20
2.552472
  0
SEQEND
  8
0
  0
POLYLINE
  8
EBENE_1
 62
    39
  6
CONTINUOUS
 66
     1
 40
0.003000
 41
0.003000
  0
VERTEX
  8
EBENE_1
 62
    39
  6
CONTINUOUS
 10
1.076512
 20
2.463256
  0
VERTEX
  8
EBENE_1
 62
    39
  6
CONTINUOUS
 10
0.994732
 20
2.182764
  0
VERTEX
  8
EBENE_1
 62
    39
  6
CONTINUOUS
 10
1.197496
 20
2.184114
  0
SEQEND
  8
0
  0
POLYLINE
  8
EBENE_1
 62
    39
  6
CONTINUOUS
 66
     1
 40
0.003000
 41
0.003000
  0
VERTEX
  8
EBENE_1
 62
    39
  6
CONTINUOUS
 10
1.197496
 20
2.184114
  0
VERTEX
  8
EBENE_1
 62
    39
  6
CONTINUOUS
 10
1.205873
 20
2.184934
  0
VERTEX
  8
EBENE_1
 62
    39
  6
CONTINUOUS
 10
1.214887
 20
2.186774
  0
VERTEX
  8
EBENE_1
 62
    39
  6
CONTINUOUS
 10
1.224466
 20
2.189612
  0
VERTEX
  8
EBENE_1
 62
    39
  6
CONTINUOUS
 10
1.234540
 20
2.193423
  0
VERTEX
  8
EBENE_1
 62
    39
  6
CONTINUOUS
 10
1.245038
 20
2.198183
  0
VERTEX
  8
EBENE_1
 62
    39
  6
CONTINUOUS
 10
1.255891
 20
2.203866
  0
VERTEX
  8
EBENE_1
 62
    39
  6
CONTINUOUS
 10
1.267027
 20
2.210450
  0
VERTEX
  8
EBENE_1
 62
    39
  6
CONTINUOUS
 10
1.278377
 20
2.217909
  0
VERTEX
  8
EBENE_1
 62
    39
  6
CONTINUOUS
 10
1.289869
 20
2.226220
  0
VERTEX
  8
EBENE_1
 62
    39
  6
CONTINUOUS
 10
1.301434
 20
2.235357
  0
VERTEX
  8
EBENE_1
 62
    39
  6
CONTINUOUS
 10
1.313001
 20
2.245297
  0
VERTEX
  8
EBENE_1
 62
    39
  6
CONTINUOUS
 10
1.324499
 20
2.256016
  0
VERTEX
  8
EBENE_1
 62
    39
  6
CONTINUOUS
 10
1.335857
 20
2.267489
  0
VERTEX
  8
EBENE_1
 62
    39
  6
CONTINUOUS
 10
1.347007
 20
2.279691
  0
VERTEX
  8
EBENE_1
 62
    39
  6
CONTINUOUS
 10
1.357876
 20
2.292599
  0
VERTEX
  8
EBENE_1
 62
    39
  6
CONTINUOUS
 10
1.368395
 20
2.306188
  0
VERTEX
  8
EBENE_1
 62
    39
  6
CONTINUOUS
 10
1.378493
 20
2.320434
  0
VERTEX
  8
EBENE_1
 62
    39
  6
CONTINUOUS
 10
1.388099
 20
2.335312
  0
VERTEX
  8
EBENE_1
 62
    39
  6
CONTINUOUS
 10
1.397144
 20
2.350798
  0
VERTEX
  8
EBENE_1
 62
    39
  6
CONTINUOUS
 10
1.405556
 20
2.366869
  0
VERTEX
  8
EBENE_1
 62
    39
  6
CONTINUOUS
 10
1.413266
 20
2.383499
  0
VERTEX
  8
EBENE_1
 62
    39
  6
CONTINUOUS
 10
1.420202
 20
2.400664
  0
VERTEX
  8
EBENE_1
 62
    39
  6
CONTINUOUS
 10
1.426295
 20
2.418341
  0
VERTEX
  8
EBENE_1
 62
    39
  6
CONTINUOUS
 10
1.431473
 20
2.436504
  0
VERTEX
  8
EBENE_1
 62
    39
  6
CONTINUOUS
 10
1.435667
 20
2.455129
  0
VERTEX
  8
EBENE_1
 62
    39
  6
CONTINUOUS
 10
1.438806
 20
2.474192
  0
VERTEX
  8
EBENE_1
 62
    39
  6
CONTINUOUS
 10
1.440819
 20
2.493669
  0
SEQEND
  8
0
  0
POLYLINE
  8
EBENE_1
 62
    39
  6
CONTINUOUS
 66
     1
 40
0.003000
 41
0.003000
  0
VERTEX
  8
EBENE_1
 62
    39
  6
CONTINUOUS
 10
1.440819
 20
2.493669
  0
VERTEX
  8
EBENE_1
 62
    39
  6
CONTINUOUS
 10
1.437546
 20
2.514290
  0
VERTEX
  8
EBENE_1
 62
    39
  6
CONTINUOUS
 10
1.431113
 20
2.531647
  0
VERTEX
  8
EBENE_1
 62
    39
  6
CONTINUOUS
 10
1.422035
 20
2.545899
  0
VERTEX
  8
EBENE_1
 62
    39
  6
CONTINUOUS
 10
1.410825
 20
2.557205
  0
VERTEX
  8
EBENE_1
 62
    39
  6
CONTINUOUS
 10
1.398000
 20
2.565722
  0
VERTEX
  8
EBENE_1
 62
    39
  6
CONTINUOUS
 10
1.384074
 20
2.571610
  0
VERTEX
  8
EBENE_1
 62
    39
  6
CONTINUOUS
 10
1.369563
 20
2.575026
  0
VERTEX
  8
EBENE_1
 62
    39
  6
CONTINUOUS
 10
1.354980
 20
2.576130
  0
SEQEND
  8
0
  0
POLYLINE
  8
EBENE_1
 62
    39
  6
CONTINUOUS
 66
     1
 40
0.003000
 41
0.003000
  0
VERTEX
  8
EBENE_1
 62
    39
  6
CONTINUOUS
 10
1.354980
 20
2.576130
  0
VERTEX
  8
EBENE_1
 62
    39
  6
CONTINUOUS
 10
1.156268
 20
2.525437
  0
SEQEND
  8
0
  0
POLYLINE
  8
EBENE_1
 62
    39
  6
CONTINUOUS
 66
     1
 40
0.003000
 41
0.003000
  0
VERTEX
  8
EBENE_1
 62
    39
  6
CONTINUOUS
 10
1.156268
 20
2.525437
  0
VERTEX
  8
EBENE_1
 62
    39
  6
CONTINUOUS
 10
1.134121
 20
2.522521
  0
VERTEX
  8
EBENE_1
 62
    39
  6
CONTINUOUS
 10
1.117418
 20
2.514723
  0
VERTEX
  8
EBENE_1
 62
    39
  6
CONTINUOUS
 10
1.104732
 20
2.503470
  0
VERTEX
  8
EBENE_1
 62
    39
  6
CONTINUOUS
 10
1.094637
 20
2.490191
  0
VERTEX
  8
EBENE_1
 62
    39
  6
CONTINUOUS
 10
1.085706
 20
2.476310
  0
VERTEX
  8
EBENE_1
 62
    39
  6
CONTINUOUS
 10
1.076512
 20
2.463256
  0
SEQEND
  8
0
  0
POLYLINE
  8
EBENE_1
 62
    39
  6
CONTINUOUS
 66
     1
 40
0.003000
 41
0.003000
 70
     1
  0
VERTEX
  8
EBENE_1
 62
    39
  6
CONTINUOUS
 10
1.081244
 20
2.472043
  0
VERTEX
  8
EBENE_1
 62
    39
  6
CONTINUOUS
 10
0.996756
 20
2.186819
  0
VERTEX
  8
EBENE_1
 62
    39
  6
CONTINUOUS
 10
1.196146
 20
2.188169
  0
VERTEX
  8
EBENE_1
 62
    39
  6
CONTINUOUS
 10
1.204696
 20
2.189032
  0
VERTEX
  8
EBENE_1
 62
    39
  6
CONTINUOUS
 10
1.213919
 20
2.190977
  0
VERTEX
  8
EBENE_1
 62
    39
  6
CONTINUOUS
 10
1.223737
 20
2.193979
  0
VERTEX
  8
EBENE_1
 62
    39
  6
CONTINUOUS
 10
1.234072
 20
2.198010
  0
VERTEX
  8
EBENE_1
 62
    39
  6
CONTINUOUS
 10
1.244847
 20
2.203044
  0
VERTEX
  8
EBENE_1
 62
    39
  6
CONTINUOUS
 10
1.255984
 20
2.209054
  0
VERTEX
  8
EBENE_1
 62
    39
  6
CONTINUOUS
 10
1.267406
 20
2.216014
  0
VERTEX
  8
EBENE_1
 62
    39
  6
CONTINUOUS
 10
1.279035
 20
2.223895
  0
VERTEX
  8
EBENE_1
 62
    39
  6
CONTINUOUS
 10
1.290794
 20
2.232673
  0
VERTEX
  8
EBENE_1
 62
    39
  6
CONTINUOUS
 10
1.302605
 20
2.242319
  0
VERTEX
  8
EBENE_1
 62
    39
  6
CONTINUOUS
 10
1.314390
 20
2.252807
  0
VERTEX
  8
EBENE_1
 62
    39
  6
CONTINUOUS
 10
1.326073
 20
2.264111
  0
VERTEX
  8
EBENE_1
 62
    39
  6
CONTINUOUS
 10
1.337575
 20
2.276204
  0
VERTEX
  8
EBENE_1
 62
    39
  6
CONTINUOUS
 10
1.348819
 20
2.289058
  0
VERTEX
  8
EBENE_1
 62
    39
  6
CONTINUOUS
 10
1.359728
 20
2.302648
  0
VERTEX
  8
EBENE_1
 62
    39
  6
CONTINUOUS
 10
1.370223
 20
2.316945
  0
VERTEX
  8
EBENE_1
 62
    39
  6
CONTINUOUS
 10
1.380228
 20
2.331925
  0
VERTEX
  8
EBENE_1
 62
    39
  6
CONTINUOUS
 10
1.389666
 20
2.347559
  0
VERTEX
  8
EBENE_1
 62
    39
  6
CONTINUOUS
 10
1.398457
 20
2.363822
  0
VERTEX
  8
EBENE_1
 62
    39
  6
CONTINUOUS
 10
1.406525
 20
2.380685
  0
VERTEX
  8
EBENE_1
 62
    39
  6
CONTINUOUS
 10
1.413793
 20
2.398123
  0
VERTEX
  8
EBENE_1
 62
    39
  6
CONTINUOUS
 10
1.420183
 20
2.416109
  0
VERTEX
  8
EBENE_1
 62
    39
  6
CONTINUOUS
 10
1.425617
 20
2.434616
  0
VERTEX
  8
EBENE_1
 62
    39
  6
CONTINUOUS
 10
1.430018
 20
2.453618
  0
VERTEX
  8
EBENE_1
 62
    39
  6
CONTINUOUS
 10
1.433308
 20
2.473087
  0
VERTEX
  8
EBENE_1
 62
    39
  6
CONTINUOUS
 10
1.435409
 20
2.492996
  0
VERTEX
  8
EBENE_1
 62
    39
  6
CONTINUOUS
 10
1.432328
 20
2.515828
  0
VERTEX
  8
EBENE_1
 62
    39
  6
CONTINUOUS
 10
1.426232
 20
2.534628
  0
VERTEX
  8
EBENE_1
 62
    39
  6
CONTINUOUS
 10
1.417499
 20
2.549586
  0
VERTEX
  8
EBENE_1
 62
    39
  6
CONTINUOUS
 10
1.406508
 20
2.560890
  0
VERTEX
  8
EBENE_1
 62
    39
  6
CONTINUOUS
 10
1.393636
 20
2.568731
  0
VERTEX
  8
EBENE_1
 62
    39
  6
CONTINUOUS
 10
1.379264
 20
2.573296
  0
VERTEX
  8
EBENE_1
 62
    39
  6
CONTINUOUS
 10
1.363768
 20
2.574776
  0
VERTEX
  8
EBENE_1
 62
    39
  6
CONTINUOUS
 10
1.167083
 20
2.528819
  0
VERTEX
  8
EBENE_1
 62
    39
  6
CONTINUOUS
 10
1.139060
 20
2.522269
  0
VERTEX
  8
EBENE_1
 62
    39
  6
CONTINUOUS
 10
1.120093
 20
2.514075
  0
VERTEX
  8
EBENE_1
 62
    39
  6
CONTINUOUS
 10
1.107901
 20
2.504912
  0
VERTEX
  8
EBENE_1
 62
    39
  6
CONTINUOUS
 10
1.100202
 20
2.495453
  0
VERTEX
  8
EBENE_1
 62
    39
  6
CONTINUOUS
 10
1.094715
 20
2.486373
  0
VERTEX
  8
EBENE_1
 62
    39
  6
CONTINUOUS
 10
1.089156
 20
2.478345
  0
SEQEND
  8
0
  0
POLYLINE
  8
EBENE_1
 62
    39
  6
CONTINUOUS
 66
     1
 40
0.003000
 41
0.003000
  0
VERTEX
  8
EBENE_1
 62
    39
  6
CONTINUOUS
 10
1.176543
 20
2.515299
  0
VERTEX
  8
EBENE_1
 62
    39
  6
CONTINUOUS
 10
1.173515
 20
2.513646
  0
VERTEX
  8
EBENE_1
 62
    39
  6
CONTINUOUS
 10
1.171688
 20
2.510642
  0
VERTEX
  8
EBENE_1
 62
    39
  6
CONTINUOUS
 10
1.171815
 20
2.507189
  0
SEQEND
  8
0
  0
POLYLINE
  8
EBENE_1
 62
    39
  6
CONTINUOUS
 66
     1
 40
0.003000
 41
0.003000
  0
VERTEX
  8
EBENE_1
 62
    39
  6
CONTINUOUS
 10
1.171815
 20
2.507189
  0
VERTEX
  8
EBENE_1
 62
    39
  6
CONTINUOUS
 10
1.173465
 20
2.504161
  0
VERTEX
  8
EBENE_1
 62
    39
  6
CONTINUOUS
 10
1.176469
 20
2.502333
  0
VERTEX
  8
EBENE_1
 62
    39
  6
CONTINUOUS
 10
1.179925
 20
2.502457
  0
SEQEND
  8
0
  0
POLYLINE
  8
EBENE_1
 62
    39
  6
CONTINUOUS
 66
     1
 40
0.003000
 41
0.003000
  0
VERTEX
  8
EBENE_1
 62
    39
  6
CONTINUOUS
 10
1.179925
 20
2.502457
  0
VERTEX
  8
EBENE_1
 62
    39
  6
CONTINUOUS
 10
1.182953
 20
2.504110
  0
VERTEX
  8
EBENE_1
 62
    39
  6
CONTINUOUS
 10
1.184780
 20
2.507113
  0
VERTEX
  8
EBENE_1
 62
    39
  6
CONTINUOUS
 10
1.184654
 20
2.510567
  0
SEQEND
  8
0
  0
POLYLINE
  8
EBENE_1
 62
    39
  6
CONTINUOUS
 66
     1
 40
0.003000
 41
0.003000
  0
VERTEX
  8
EBENE_1
 62
    39
  6
CONTINUOUS
 10
1.184654
 20
2.510567
  0
VERTEX
  8
EBENE_1
 62
    39
  6
CONTINUOUS
 10
1.183003
 20
2.513595
  0
VERTEX
  8
EBENE_1
 62
    39
  6
CONTINUOUS
 10
1.179999
 20
2.515423
  0
VERTEX
  8
EBENE_1
 62
    39
  6
CONTINUOUS
 10
1.176543
 20
2.515299
  0
SEQEND
  8
0
  0
POLYLINE
  8
EBENE_1
 62
    39
  6
CONTINUOUS
 66
     1
 40
0.003000
 41
0.003000
  0
VERTEX
  8
EBENE_1
 62
    39
  6
CONTINUOUS
 10
1.266437
 20
2.540984
  0
VERTEX
  8
EBENE_1
 62
    39
  6
CONTINUOUS
 10
1.263108
 20
2.539482
  0
VERTEX
  8
EBENE_1
 62
    39
  6
CONTINUOUS
 10
1.261430
 20
2.536627
  0
VERTEX
  8
EBENE_1
 62
    39
  6
CONTINUOUS
 10
1.261705
 20
2.532870
  0
SEQEND
  8
0
  0
POLYLINE
  8
EBENE_1
 62
    39
  6
CONTINUOUS
 66
     1
 40
0.003000
 41
0.003000
  0
VERTEX
  8
EBENE_1
 62
    39
  6
CONTINUOUS
 10
1.261705
 20
2.532870
  0
VERTEX
  8
EBENE_1
 62
    39
  6
CONTINUOUS
 10
1.263358
 20
2.529992
  0
VERTEX
  8
EBENE_1
 62
    39
  6
CONTINUOUS
 10
1.266363
 20
2.528316
  0
VERTEX
  8
EBENE_1
 62
    39
  6
CONTINUOUS
 10
1.269819
 20
2.528142
  0
SEQEND
  8
0
  0
POLYLINE
  8
EBENE_1
 62
    39
  6
CONTINUOUS
 66
     1
 40
0.003000
 41
0.003000
  0
VERTEX
  8
EBENE_1
 62
    39
  6
CONTINUOUS
 10
1.269819
 20
2.528142
  0
VERTEX
  8
EBENE_1
 62
    39
  6
CONTINUOUS
 10
1.272697
 20
2.530093
  0
VERTEX
  8
EBENE_1
 62
    39
  6
CONTINUOUS
 10
1.274373
 20
2.532946
  0
VERTEX
  8
EBENE_1
 62
    39
  6
CONTINUOUS
 10
1.274547
 20
2.536252
  0
SEQEND
  8
0
  0
POLYLINE
  8
EBENE_1
 62
    39
  6
CONTINUOUS
 66
     1
 40
0.003000
 41
0.003000
  0
VERTEX
  8
EBENE_1
 62
    39
  6
CONTINUOUS
 10
1.274547
 20
2.536252
  0
VERTEX
  8
EBENE_1
 62
    39
  6
CONTINUOUS
 10
1.272897
 20
2.539581
  0
VERTEX
  8
EBENE_1
 62
    39
  6
CONTINUOUS
 10
1.269893
 20
2.541259
  0
VERTEX
  8
EBENE_1
 62
    39
  6
CONTINUOUS
 10
1.266437
 20
2.540984
  0
SEQEND
  8
0
  0
POLYLINE
  8
EBENE_1
 62
    39
  6
CONTINUOUS
 66
     1
 40
0.003000
 41
0.003000
  0
VERTEX
  8
EBENE_1
 62
    39
  6
CONTINUOUS
 10
1.102874
 20
2.464606
  0
VERTEX
  8
EBENE_1
 62
    39
  6
CONTINUOUS
 10
1.099545
 20
2.462955
  0
VERTEX
  8
EBENE_1
 62
    39
  6
CONTINUOUS
 10
1.097867
 20
2.459950
  0
VERTEX
  8
EBENE_1
 62
    39
  6
CONTINUOUS
 10
1.098142
 20
2.456496
  0
SEQEND
  8
0
  0
POLYLINE
  8
EBENE_1
 62
    39
  6
CONTINUOUS
 66
     1
 40
0.003000
 41
0.003000
  0
VERTEX
  8
EBENE_1
 62
    39
  6
CONTINUOUS
 10
1.098142
 20
2.456496
  0
VERTEX
  8
EBENE_1
 62
    39
  6
CONTINUOUS
 10
1.099795
 20
2.453167
  0
VERTEX
  8
EBENE_1
 62
    39
  6
CONTINUOUS
 10
1.102798
 20
2.451491
  0
VERTEX
  8
EBENE_1
 62
    39
  6
CONTINUOUS
 10
1.106252
 20
2.451768
  0
SEQEND
  8
0
  0
POLYLINE
  8
EBENE_1
 62
    39
  6
CONTINUOUS
 66
     1
 40
0.003000
 41
0.003000
  0
VERTEX
  8
EBENE_1
 62
    39
  6
CONTINUOUS
 10
1.106252
 20
2.451768
  0
VERTEX
  8
EBENE_1
 62
    39
  6
CONTINUOUS
 10
1.109130
 20
2.453418
  0
VERTEX
  8
EBENE_1
 62
    39
  6
CONTINUOUS
 10
1.110807
 20
2.456421
  0
VERTEX
  8
EBENE_1
 62
    39
  6
CONTINUOUS
 10
1.110984
 20
2.459874
  0
SEQEND
  8
0
  0
POLYLINE
  8
EBENE_1
 62
    39
  6
CONTINUOUS
 66
     1
 40
0.003000
 41
0.003000
  0
VERTEX
  8
EBENE_1
 62
    39
  6
CONTINUOUS
 10
1.110984
 20
2.459874
  0
VERTEX
  8
EBENE_1
 62
    39
  6
CONTINUOUS
 10
1.109331
 20
2.462754
  0
VERTEX
  8
EBENE_1
 62
    39
  6
CONTINUOUS
 10
1.106328
 20
2.464432
  0
VERTEX
  8
EBENE_1
 62
    39
  6
CONTINUOUS
 10
1.102874
 20
2.464606
  0
SEQEND
  8
0
  0
POLYLINE
  8
EBENE_1
 62
    39
  6
CONTINUOUS
 66
     1
 40
0.003000
 41
0.003000
  0
VERTEX
  8
EBENE_1
 62
    39
  6
CONTINUOUS
 10
0.846035
 20
2.419323
  0
VERTEX
  8
EBENE_1
 62
    39
  6
CONTINUOUS
 10
0.777094
 20
2.180732
  0
VERTEX
  8
EBENE_1
 62
    39
  6
CONTINUOUS
 10
0.979862
 20
2.182087
  0
SEQEND
  8
0
  0
POLYLINE
  8
EBENE_1
 62
    39
  6
CONTINUOUS
 66
     1
 40
0.003000
 41
0.003000
  0
VERTEX
  8
EBENE_1
 62
    39
  6
CONTINUOUS
 10
0.979862
 20
2.182087
  0
VERTEX
  8
EBENE_1
 62
    39
  6
CONTINUOUS
 10
0.988167
 20
2.182906
  0
VERTEX
  8
EBENE_1
 62
    39
  6
CONTINUOUS
 10
0.997112
 20
2.184747
  0
VERTEX
  8
EBENE_1
 62
    39
  6
CONTINUOUS
 10
1.006629
 20
2.187585
  0
VERTEX
  8
EBENE_1
 62
    39
  6
CONTINUOUS
 10
1.016646
 20
2.191396
  0
VERTEX
  8
EBENE_1
 62
    39
  6
CONTINUOUS
 10
1.027092
 20
2.196155
  0
VERTEX
  8
EBENE_1
 62
    39
  6
CONTINUOUS
 10
1.037896
 20
2.201839
  0
VERTEX
  8
EBENE_1
 62
    39
  6
CONTINUOUS
 10
1.048989
 20
2.208422
  0
VERTEX
  8
EBENE_1
 62
    39
  6
CONTINUOUS
 10
1.060299
 20
2.215882
  0
VERTEX
  8
EBENE_1
 62
    39
  6
CONTINUOUS
 10
1.071756
 20
2.224192
  0
VERTEX
  8
EBENE_1
 62
    39
  6
CONTINUOUS
 10
1.083289
 20
2.233330
  0
VERTEX
  8
EBENE_1
 62
    39
  6
CONTINUOUS
 10
1.094827
 20
2.243270
  0
VERTEX
  8
EBENE_1
 62
    39
  6
CONTINUOUS
 10
1.106300
 20
2.253988
  0
VERTEX
  8
EBENE_1
 62
    39
  6
CONTINUOUS
 10
1.117637
 20
2.265461
  0
VERTEX
  8
EBENE_1
 62
    39
  6
CONTINUOUS
 10
1.128768
 20
2.277663
  0
VERTEX
  8
EBENE_1
 62
    39
  6
CONTINUOUS
 10
1.139621
 20
2.290571
  0
VERTEX
  8
EBENE_1
 62
    39
  6
CONTINUOUS
 10
1.150126
 20
2.304160
  0
VERTEX
  8
EBENE_1
 62
    39
  6
CONTINUOUS
 10
1.160212
 20
2.318406
  0
VERTEX
  8
EBENE_1
 62
    39
  6
CONTINUOUS
 10
1.169809
 20
2.333284
  0
VERTEX
  8
EBENE_1
 62
    39
  6
CONTINUOUS
 10
1.178847
 20
2.348771
  0
VERTEX
  8
EBENE_1
 62
    39
  6
CONTINUOUS
 10
1.187253
 20
2.364841
  0
VERTEX
  8
EBENE_1
 62
    39
  6
CONTINUOUS
 10
1.194958
 20
2.381471
  0
VERTEX
  8
EBENE_1
 62
    39
  6
CONTINUOUS
 10
1.201891
 20
2.398637
  0
VERTEX
  8
EBENE_1
 62
    39
  6
CONTINUOUS
 10
1.207982
 20
2.416313
  0
VERTEX
  8
EBENE_1
 62
    39
  6
CONTINUOUS
 10
1.213159
 20
2.434476
  0
VERTEX
  8
EBENE_1
 62
    39
  6
CONTINUOUS
 10
1.217352
 20
2.453101
  0
VERTEX
  8
EBENE_1
 62
    39
  6
CONTINUOUS
 10
1.220491
 20
2.472165
  0
VERTEX
  8
EBENE_1
 62
    39
  6
CONTINUOUS
 10
1.222504
 20
2.491642
  0
SEQEND
  8
0
  0
POLYLINE
  8
EBENE_1
 62
    39
  6
CONTINUOUS
 66
     1
 40
0.003000
 41
0.003000
  0
VERTEX
  8
EBENE_1
 62
    39
  6
CONTINUOUS
 10
1.222504
 20
2.491642
  0
VERTEX
  8
EBENE_1
 62
    39
  6
CONTINUOUS
 10
1.219485
 20
2.509881
  0
VERTEX
  8
EBENE_1
 62
    39
  6
CONTINUOUS
 10
1.213306
 20
2.520959
  0
VERTEX
  8
EBENE_1
 62
    39
  6
CONTINUOUS
 10
1.204481
 20
2.526335
  0
VERTEX
  8
EBENE_1
 62
    39
  6
CONTINUOUS
 10
1.193526
 20
2.527465
  0
VERTEX
  8
EBENE_1
 62
    39
  6
CONTINUOUS
 10
1.180955
 20
2.525806
  0
VERTEX
  8
EBENE_1
 62
    39
  6
CONTINUOUS
 10
1.167283
 20
2.522817
  0
VERTEX
  8
EBENE_1
 62
    39
  6
CONTINUOUS
 10
1.153025
 20
2.519955
  0
VERTEX
  8
EBENE_1
 62
    39
  6
CONTINUOUS
 10
1.138697
 20
2.518677
  0
SEQEND
  8
0
  0
POLYLINE
  8
EBENE_1
 62
    39
  6
CONTINUOUS
 66
     1
 40
0.003000
 41
0.003000
  0
VERTEX
  8
EBENE_1
 62
    39
  6
CONTINUOUS
 10
1.138697
 20
2.518677
  0
VERTEX
  8
EBENE_1
 62
    39
  6
CONTINUOUS
 10
0.908894
 20
2.463933
  0
SEQEND
  8
0
  0
POLYLINE
  8
EBENE_1
 62
    39
  6
CONTINUOUS
 66
     1
 40
0.003000
 41
0.003000
  0
VERTEX
  8
EBENE_1
 62
    39
  6
CONTINUOUS
 10
0.908894
 20
2.463933
  0
VERTEX
  8
EBENE_1
 62
    39
  6
CONTINUOUS
 10
0.884707
 20
2.461565
  0
VERTEX
  8
EBENE_1
 62
    39
  6
CONTINUOUS
 10
0.870319
 20
2.455044
  0
VERTEX
  8
EBENE_1
 62
    39
  6
CONTINUOUS
 10
0.861738
 20
2.445246
  0
VERTEX
  8
EBENE_1
 62
    39
  6
CONTINUOUS
 10
0.854973
 20
2.433047
  0
VERTEX
  8
EBENE_1
 62
    39
  6
CONTINUOUS
 10
0.846035
 20
2.419323
  0
SEQEND
  8
0
  0
POLYLINE
  8
EBENE_1
 62
    39
  6
CONTINUOUS
 66
     1
 40
0.003000
 41
0.003000
 70
     1
  0
VERTEX
  8
EBENE_1
 62
    39
  6
CONTINUOUS
 10
0.848063
 20
2.422028
  0
VERTEX
  8
EBENE_1
 62
    39
  6
CONTINUOUS
 10
0.779122
 20
2.184791
  0
VERTEX
  8
EBENE_1
 62
    39
  6
CONTINUOUS
 10
0.978508
 20
2.186819
  0
VERTEX
  8
EBENE_1
 62
    39
  6
CONTINUOUS
 10
0.987059
 20
2.187678
  0
VERTEX
  8
EBENE_1
 62
    39
  6
CONTINUOUS
 10
0.996282
 20
2.189615
  0
VERTEX
  8
EBENE_1
 62
    39
  6
CONTINUOUS
 10
1.006100
 20
2.192603
  0
VERTEX
  8
EBENE_1
 62
    39
  6
CONTINUOUS
 10
1.016435
 20
2.196616
  0
VERTEX
  8
EBENE_1
 62
    39
  6
CONTINUOUS
 10
1.027210
 20
2.201627
  0
VERTEX
  8
EBENE_1
 62
    39
  6
CONTINUOUS
 10
1.038347
 20
2.207611
  0
VERTEX
  8
EBENE_1
 62
    39
  6
CONTINUOUS
 10
1.049769
 20
2.214541
  0
VERTEX
  8
EBENE_1
 62
    39
  6
CONTINUOUS
 10
1.061398
 20
2.222390
  0
VERTEX
  8
EBENE_1
 62
    39
  6
CONTINUOUS
 10
1.073157
 20
2.231133
  0
VERTEX
  8
EBENE_1
 62
    39
  6
CONTINUOUS
 10
1.084968
 20
2.240743
  0
VERTEX
  8
EBENE_1
 62
    39
  6
CONTINUOUS
 10
1.096754
 20
2.251194
  0
VERTEX
  8
EBENE_1
 62
    39
  6
CONTINUOUS
 10
1.108437
 20
2.262460
  0
VERTEX
  8
EBENE_1
 62
    39
  6
CONTINUOUS
 10
1.119939
 20
2.274513
  0
VERTEX
  8
EBENE_1
 62
    39
  6
CONTINUOUS
 10
1.131183
 20
2.287329
  0
VERTEX
  8
EBENE_1
 62
    39
  6
CONTINUOUS
 10
1.142092
 20
2.300880
  0
VERTEX
  8
EBENE_1
 62
    39
  6
CONTINUOUS
 10
1.152588
 20
2.315140
  0
VERTEX
  8
EBENE_1
 62
    39
  6
CONTINUOUS
 10
1.162594
 20
2.330084
  0
VERTEX
  8
EBENE_1
 62
    39
  6
CONTINUOUS
 10
1.172031
 20
2.345684
  0
VERTEX
  8
EBENE_1
 62
    39
  6
CONTINUOUS
 10
1.180822
 20
2.361914
  0
VERTEX
  8
EBENE_1
 62
    39
  6
CONTINUOUS
 10
1.188891
 20
2.378749
  0
VERTEX
  8
EBENE_1
 62
    39
  6
CONTINUOUS
 10
1.196159
 20
2.396161
  0
VERTEX
  8
EBENE_1
 62
    39
  6
CONTINUOUS
 10
1.202549
 20
2.414125
  0
VERTEX
  8
EBENE_1
 62
    39
  6
CONTINUOUS
 10
1.207983
 20
2.432614
  0
VERTEX
  8
EBENE_1
 62
    39
  6
CONTINUOUS
 10
1.212384
 20
2.451602
  0
VERTEX
  8
EBENE_1
 62
    39
  6
CONTINUOUS
 10
1.215674
 20
2.471062
  0
VERTEX
  8
EBENE_1
 62
    39
  6
CONTINUOUS
 10
1.217776
 20
2.490969
  0
VERTEX
  8
EBENE_1
 62
    39
  6
CONTINUOUS
 10
1.214680
 20
2.508702
  0
VERTEX
  8
EBENE_1
 62
    39
  6
CONTINUOUS
 10
1.208725
 20
2.519292
  0
VERTEX
  8
EBENE_1
 62
    39
  6
CONTINUOUS
 10
1.200346
 20
2.524211
  0
VERTEX
  8
EBENE_1
 62
    39
  6
CONTINUOUS
 10
1.189978
 20
2.524931
  0
VERTEX
  8
EBENE_1
 62
    39
  6
CONTINUOUS
 10
1.178059
 20
2.522927
  0
VERTEX
  8
EBENE_1
 62
    39
  6
CONTINUOUS
 10
1.165022
 20
2.519672
  0
VERTEX
  8
EBENE_1
 62
    39
  6
CONTINUOUS
 10
1.151305
 20
2.516638
  0
VERTEX
  8
EBENE_1
 62
    39
  6
CONTINUOUS
 10
1.137343
 20
2.515299
  0
VERTEX
  8
EBENE_1
 62
    39
  6
CONTINUOUS
 10
0.905512
 20
2.467311
  0
VERTEX
  8
EBENE_1
 62
    39
  6
CONTINUOUS
 10
0.879294
 20
2.460201
  0
VERTEX
  8
EBENE_1
 62
    39
  6
CONTINUOUS
 10
0.862516
 20
2.448062
  0
VERTEX
  8
EBENE_1
 62
    39
  6
CONTINUOUS
 10
0.853103
 20
2.434950
  0
VERTEX
  8
EBENE_1
 62
    39
  6
CONTINUOUS
 10
0.848977
 20
2.424919
  0
SEQEND
  8
0
  0
POLYLINE
  8
EBENE_1
 62
    39
  6
CONTINUOUS
 66
     1
 40
0.003000
 41
0.003000
  0
VERTEX
  8
EBENE_1
 62
    39
  6
CONTINUOUS
 10
1.066374
 20
2.493669
  0
VERTEX
  8
EBENE_1
 62
    39
  6
CONTINUOUS
 10
1.063045
 20
2.492019
  0
VERTEX
  8
EBENE_1
 62
    39
  6
CONTINUOUS
 10
1.061368
 20
2.489015
  0
VERTEX
  8
EBENE_1
 62
    39
  6
CONTINUOUS
 10
1.061646
 20
2.485559
  0
SEQEND
  8
0
  0
POLYLINE
  8
EBENE_1
 62
    39
  6
CONTINUOUS
 66
     1
 40
0.003000
 41
0.003000
  0
VERTEX
  8
EBENE_1
 62
    39
  6
CONTINUOUS
 10
1.061646
 20
2.485559
  0
VERTEX
  8
EBENE_1
 62
    39
  6
CONTINUOUS
 10
1.063296
 20
2.482230
  0
VERTEX
  8
EBENE_1
 62
    39
  6
CONTINUOUS
 10
1.066299
 20
2.480552
  0
VERTEX
  8
EBENE_1
 62
    39
  6
CONTINUOUS
 10
1.069752
 20
2.480827
  0
SEQEND
  8
0
  0
POLYLINE
  8
EBENE_1
 62
    39
  6
CONTINUOUS
 66
     1
 40
0.003000
 41
0.003000
  0
VERTEX
  8
EBENE_1
 62
    39
  6
CONTINUOUS
 10
1.069752
 20
2.480827
  0
VERTEX
  8
EBENE_1
 62
    39
  6
CONTINUOUS
 10
1.072632
 20
2.482480
  0
VERTEX
  8
EBENE_1
 62
    39
  6
CONTINUOUS
 10
1.074310
 20
2.485485
  0
VERTEX
  8
EBENE_1
 62
    39
  6
CONTINUOUS
 10
1.074484
 20
2.488941
  0
SEQEND
  8
0
  0
POLYLINE
  8
EBENE_1
 62
    39
  6
CONTINUOUS
 66
     1
 40
0.003000
 41
0.003000
  0
VERTEX
  8
EBENE_1
 62
    39
  6
CONTINUOUS
 10
1.074484
 20
2.488941
  0
VERTEX
  8
EBENE_1
 62
    39
  6
CONTINUOUS
 10
1.072833
 20
2.491819
  0
VERTEX
  8
EBENE_1
 62
    39
  6
CONTINUOUS
 10
1.069828
 20
2.493495
  0
VERTEX
  8
EBENE_1
 62
    39
  6
CONTINUOUS
 10
1.066374
 20
2.493669
  0
SEQEND
  8
0
  0
POLYLINE
  8
EBENE_1
 62
    39
  6
CONTINUOUS
 66
     1
 40
0.003000
 41
0.003000
  0
VERTEX
  8
EBENE_1
 62
    39
  6
CONTINUOUS
 10
0.956882
 20
2.466634
  0
VERTEX
  8
EBENE_1
 62
    39
  6
CONTINUOUS
 10
0.954004
 20
2.465133
  0
VERTEX
  8
EBENE_1
 62
    39
  6
CONTINUOUS
 10
0.952327
 20
2.462279
  0
VERTEX
  8
EBENE_1
 62
    39
  6
CONTINUOUS
 10
0.952150
 20
2.458524
  0
SEQEND
  8
0
  0
POLYLINE
  8
EBENE_1
 62
    39
  6
CONTINUOUS
 66
     1
 40
0.003000
 41
0.003000
  0
VERTEX
  8
EBENE_1
 62
    39
  6
CONTINUOUS
 10
0.952150
 20
2.458524
  0
VERTEX
  8
EBENE_1
 62
    39
  6
CONTINUOUS
 10
0.954129
 20
2.455646
  0
VERTEX
  8
EBENE_1
 62
    39
  6
CONTINUOUS
 10
0.957157
 20
2.453970
  0
VERTEX
  8
EBENE_1
 62
    39
  6
CONTINUOUS
 10
0.960937
 20
2.453795
  0
SEQEND
  8
0
  0
POLYLINE
  8
EBENE_1
 62
    39
  6
CONTINUOUS
 66
     1
 40
0.003000
 41
0.003000
  0
VERTEX
  8
EBENE_1
 62
    39
  6
CONTINUOUS
 10
0.960937
 20
2.453795
  0
VERTEX
  8
EBENE_1
 62
    39
  6
CONTINUOUS
 10
0.963815
 20
2.455747
  0
VERTEX
  8
EBENE_1
 62
    39
  6
CONTINUOUS
 10
0.965492
 20
2.458600
  0
VERTEX
  8
EBENE_1
 62
    39
  6
CONTINUOUS
 10
0.965669
 20
2.461906
  0
SEQEND
  8
0
  0
POLYLINE
  8
EBENE_1
 62
    39
  6
CONTINUOUS
 66
     1
 40
0.003000
 41
0.003000
  0
VERTEX
  8
EBENE_1
 62
    39
  6
CONTINUOUS
 10
0.965669
 20
2.461906
  0
VERTEX
  8
EBENE_1
 62
    39
  6
CONTINUOUS
 10
0.963690
 20
2.465235
  0
VERTEX
  8
EBENE_1
 62
    39
  6
CONTINUOUS
 10
0.960661
 20
2.466911
  0
VERTEX
  8
EBENE_1
 62
    39
  6
CONTINUOUS
 10
0.956882
 20
2.466634
  0
SEQEND
  8
0
  0
POLYLINE
  8
EBENE_1
 62
    39
  6
CONTINUOUS
 66
     1
 40
0.003000
 41
0.003000
  0
VERTEX
  8
EBENE_1
 62
    39
  6
CONTINUOUS
 10
0.872394
 20
2.425406
  0
VERTEX
  8
EBENE_1
 62
    39
  6
CONTINUOUS
 10
0.869516
 20
2.423453
  0
VERTEX
  8
EBENE_1
 62
    39
  6
CONTINUOUS
 10
0.867838
 20
2.420599
  0
VERTEX
  8
EBENE_1
 62
    39
  6
CONTINUOUS
 10
0.867661
 20
2.417295
  0
SEQEND
  8
0
  0
POLYLINE
  8
EBENE_1
 62
    39
  6
CONTINUOUS
 66
     1
 40
0.003000
 41
0.003000
  0
VERTEX
  8
EBENE_1
 62
    39
  6
CONTINUOUS
 10
0.867661
 20
2.417295
  0
VERTEX
  8
EBENE_1
 62
    39
  6
CONTINUOUS
 10
0.869615
 20
2.413941
  0
VERTEX
  8
EBENE_1
 62
    39
  6
CONTINUOUS
 10
0.872470
 20
2.412089
  0
VERTEX
  8
EBENE_1
 62
    39
  6
CONTINUOUS
 10
0.875776
 20
2.411890
  0
SEQEND
  8
0
  0
POLYLINE
  8
EBENE_1
 62
    39
  6
CONTINUOUS
 66
     1
 40
0.003000
 41
0.003000
  0
VERTEX
  8
EBENE_1
 62
    39
  6
CONTINUOUS
 10
0.875776
 20
2.411890
  0
VERTEX
  8
EBENE_1
 62
    39
  6
CONTINUOUS
 10
0.879105
 20
2.413866
  0
VERTEX
  8
EBENE_1
 62
    39
  6
CONTINUOUS
 10
0.880781
 20
2.416894
  0
VERTEX
  8
EBENE_1
 62
    39
  6
CONTINUOUS
 10
0.880504
 20
2.420673
  0
SEQEND
  8
0
  0
POLYLINE
  8
EBENE_1
 62
    39
  6
CONTINUOUS
 66
     1
 40
0.003000
 41
0.003000
  0
VERTEX
  8
EBENE_1
 62
    39
  6
CONTINUOUS
 10
0.880504
 20
2.420673
  0
VERTEX
  8
EBENE_1
 62
    39
  6
CONTINUOUS
 10
0.879004
 20
2.423554
  0
VERTEX
  8
EBENE_1
 62
    39
  6
CONTINUOUS
 10
0.876151
 20
2.425231
  0
VERTEX
  8
EBENE_1
 62
    39
  6
CONTINUOUS
 10
0.872394
 20
2.425406
  0
SEQEND
  8
0
  0
POLYLINE
  8
EBENE_1
 62
    39
  6
CONTINUOUS
 66
     1
 40
0.003000
 41
0.003000
  0
VERTEX
  8
EBENE_1
 62
    39
  6
CONTINUOUS
 10
0.628398
 20
2.373362
  0
VERTEX
  8
EBENE_1
 62
    39
  6
CONTINUOUS
 10
0.571626
 20
2.184114
  0
VERTEX
  8
EBENE_1
 62
    39
  6
CONTINUOUS
 10
0.774390
 20
2.186142
  0
SEQEND
  8
0
  0
POLYLINE
  8
EBENE_1
 62
    39
  6
CONTINUOUS
 66
     1
 40
0.003000
 41
0.003000
  0
VERTEX
  8
EBENE_1
 62
    39
  6
CONTINUOUS
 10
0.774390
 20
2.186142
  0
VERTEX
  8
EBENE_1
 62
    39
  6
CONTINUOUS
 10
0.784066
 20
2.186825
  0
VERTEX
  8
EBENE_1
 62
    39
  6
CONTINUOUS
 10
0.794190
 20
2.188191
  0
VERTEX
  8
EBENE_1
 62
    39
  6
CONTINUOUS
 10
0.804704
 20
2.190269
  0
VERTEX
  8
EBENE_1
 62
    39
  6
CONTINUOUS
 10
0.815551
 20
2.193089
  0
VERTEX
  8
EBENE_1
 62
    39
  6
CONTINUOUS
 10
0.826671
 20
2.196683
  0
VERTEX
  8
EBENE_1
 62
    39
  6
CONTINUOUS
 10
0.838007
 20
2.201079
  0
VERTEX
  8
EBENE_1
 62
    39
  6
CONTINUOUS
 10
0.849501
 20
2.206309
  0
VERTEX
  8
EBENE_1
 62
    39
  6
CONTINUOUS
 10
0.861095
 20
2.212403
  0
VERTEX
  8
EBENE_1
 62
    39
  6
CONTINUOUS
 10
0.872732
 20
2.219392
  0
VERTEX
  8
EBENE_1
 62
    39
  6
CONTINUOUS
 10
0.884352
 20
2.227305
  0
VERTEX
  8
EBENE_1
 62
    39
  6
CONTINUOUS
 10
0.895898
 20
2.236172
  0
VERTEX
  8
EBENE_1
 62
    39
  6
CONTINUOUS
 10
0.907313
 20
2.246026
  0
VERTEX
  8
EBENE_1
 62
    39
  6
CONTINUOUS
 10
0.918537
 20
2.256894
  0
VERTEX
  8
EBENE_1
 62
    39
  6
CONTINUOUS
 10
0.929513
 20
2.268809
  0
VERTEX
  8
EBENE_1
 62
    39
  6
CONTINUOUS
 10
0.940184
 20
2.281799
  0
VERTEX
  8
EBENE_1
 62
    39
  6
CONTINUOUS
 10
0.950490
 20
2.295897
  0
VERTEX
  8
EBENE_1
 62
    39
  6
CONTINUOUS
 10
0.960375
 20
2.311131
  0
VERTEX
  8
EBENE_1
 62
    39
  6
CONTINUOUS
 10
0.969780
 20
2.327533
  0
VERTEX
  8
EBENE_1
 62
    39
  6
CONTINUOUS
 10
0.978647
 20
2.345132
  0
VERTEX
  8
EBENE_1
 62
    39
  6
CONTINUOUS
 10
0.986918
 20
2.363959
  0
VERTEX
  8
EBENE_1
 62
    39
  6
CONTINUOUS
 10
0.994535
 20
2.384044
  0
VERTEX
  8
EBENE_1
 62
    39
  6
CONTINUOUS
 10
1.001440
 20
2.405418
  0
VERTEX
  8
EBENE_1
 62
    39
  6
CONTINUOUS
 10
1.007575
 20
2.428110
  0
SEQEND
  8
0
  0
POLYLINE
  8
EBENE_1
 62
    39
  6
CONTINUOUS
 66
     1
 40
0.003000
 41
0.003000
  0
VERTEX
  8
EBENE_1
 62
    39
  6
CONTINUOUS
 10
1.007575
 20
2.428110
  0
VERTEX
  8
EBENE_1
 62
    39
  6
CONTINUOUS
 10
1.004373
 20
2.452183
  0
VERTEX
  8
EBENE_1
 62
    39
  6
CONTINUOUS
 10
0.998185
 20
2.467036
  0
VERTEX
  8
EBENE_1
 62
    39
  6
CONTINUOUS
 10
0.989070
 20
2.474831
  0
VERTEX
  8
EBENE_1
 62
    39
  6
CONTINUOUS
 10
0.977082
 20
2.477725
  0
VERTEX
  8
EBENE_1
 62
    39
  6
CONTINUOUS
 10
0.962279
 20
2.477878
  0
VERTEX
  8
EBENE_1
 62
    39
  6
CONTINUOUS
 10
0.944717
 20
2.477449
  0
SEQEND
  8
0
  0
POLYLINE
  8
EBENE_1
 62
    39
  6
CONTINUOUS
 66
     1
 40
0.003000
 41
0.003000
  0
VERTEX
  8
EBENE_1
 62
    39
  6
CONTINUOUS
 10
0.944717
 20
2.477449
  0
VERTEX
  8
EBENE_1
 62
    39
  6
CONTINUOUS
 10
0.712209
 20
2.421350
  0
SEQEND
  8
0
  0
POLYLINE
  8
EBENE_1
 62
    39
  6
CONTINUOUS
 66
     1
 40
0.003000
 41
0.003000
  0
VERTEX
  8
EBENE_1
 62
    39
  6
CONTINUOUS
 10
0.712209
 20
2.421350
  0
VERTEX
  8
EBENE_1
 62
    39
  6
CONTINUOUS
 10
0.684806
 20
2.415321
  0
VERTEX
  8
EBENE_1
 62
    39
  6
CONTINUOUS
 10
0.665092
 20
2.407670
  0
VERTEX
  8
EBENE_1
 62
    39
  6
CONTINUOUS
 10
0.650697
 20
2.398234
  0
VERTEX
  8
EBENE_1
 62
    39
  6
CONTINUOUS
 10
0.639255
 20
2.386852
  0
VERTEX
  8
EBENE_1
 62
    39
  6
CONTINUOUS
 10
0.628398
 20
2.373362
  0
SEQEND
  8
0
  0
POLYLINE
  8
EBENE_1
 62
    39
  6
CONTINUOUS
 66
     1
 40
0.003000
 41
0.003000
 70
     1
  0
VERTEX
  8
EBENE_1
 62
    39
  6
CONTINUOUS
 10
0.627047
 20
2.372012
  0
VERTEX
  8
EBENE_1
 62
    39
  6
CONTINUOUS
 10
0.573654
 20
2.188846
  0
VERTEX
  8
EBENE_1
 62
    39
  6
CONTINUOUS
 10
0.773039
 20
2.190197
  0
VERTEX
  8
EBENE_1
 62
    39
  6
CONTINUOUS
 10
0.782951
 20
2.190899
  0
VERTEX
  8
EBENE_1
 62
    39
  6
CONTINUOUS
 10
0.793294
 20
2.192293
  0
VERTEX
  8
EBENE_1
 62
    39
  6
CONTINUOUS
 10
0.804014
 20
2.194417
  0
VERTEX
  8
EBENE_1
 62
    39
  6
CONTINUOUS
 10
0.815056
 20
2.197311
  0
VERTEX
  8
EBENE_1
 62
    39
  6
CONTINUOUS
 10
0.826367
 20
2.201011
  0
VERTEX
  8
EBENE_1
 62
    39
  6
CONTINUOUS
 10
0.837891
 20
2.205558
  0
VERTEX
  8
EBENE_1
 62
    39
  6
CONTINUOUS
 10
0.849575
 20
2.210989
  0
VERTEX
  8
EBENE_1
 62
    39
  6
CONTINUOUS
 10
0.861363
 20
2.217342
  0
VERTEX
  8
EBENE_1
 62
    39
  6
CONTINUOUS
 10
0.873201
 20
2.224657
  0
VERTEX
  8
EBENE_1
 62
    39
  6
CONTINUOUS
 10
0.885036
 20
2.232972
  0
VERTEX
  8
EBENE_1
 62
    39
  6
CONTINUOUS
 10
0.896812
 20
2.242325
  0
VERTEX
  8
EBENE_1
 62
    39
  6
CONTINUOUS
 10
0.908474
 20
2.252754
  0
VERTEX
  8
EBENE_1
 62
    39
  6
CONTINUOUS
 10
0.919969
 20
2.264299
  0
VERTEX
  8
EBENE_1
 62
    39
  6
CONTINUOUS
 10
0.931242
 20
2.276997
  0
VERTEX
  8
EBENE_1
 62
    39
  6
CONTINUOUS
 10
0.942239
 20
2.290887
  0
VERTEX
  8
EBENE_1
 62
    39
  6
CONTINUOUS
 10
0.952904
 20
2.306008
  0
VERTEX
  8
EBENE_1
 62
    39
  6
CONTINUOUS
 10
0.963184
 20
2.322398
  0
VERTEX
  8
EBENE_1
 62
    39
  6
CONTINUOUS
 10
0.973025
 20
2.340095
  0
VERTEX
  8
EBENE_1
 62
    39
  6
CONTINUOUS
 10
0.982370
 20
2.359138
  0
VERTEX
  8
EBENE_1
 62
    39
  6
CONTINUOUS
 10
0.991168
 20
2.379566
  0
VERTEX
  8
EBENE_1
 62
    39
  6
CONTINUOUS
 10
0.999361
 20
2.401417
  0
VERTEX
  8
EBENE_1
 62
    39
  6
CONTINUOUS
 10
1.006898
 20
2.424728
  0
VERTEX
  8
EBENE_1
 62
    39
  6
CONTINUOUS
 10
1.003265
 20
2.448232
  0
VERTEX
  8
EBENE_1
 62
    39
  6
CONTINUOUS
 10
0.996534
 20
2.462704
  0
VERTEX
  8
EBENE_1
 62
    39
  6
CONTINUOUS
 10
0.986874
 20
2.470267
  0
VERTEX
  8
EBENE_1
 62
    39
  6
CONTINUOUS
 10
0.974454
 20
2.473042
  0
VERTEX
  8
EBENE_1
 62
    39
  6
CONTINUOUS
 10
0.959444
 20
2.473152
  0
VERTEX
  8
EBENE_1
 62
    39
  6
CONTINUOUS
 10
0.942012
 20
2.472717
  0
VERTEX
  8
EBENE_1
 62
    39
  6
CONTINUOUS
 10
0.693283
 20
2.417295
  0
VERTEX
  8
EBENE_1
 62
    39
  6
CONTINUOUS
 10
0.669006
 20
2.414857
  0
VERTEX
  8
EBENE_1
 62
    39
  6
CONTINUOUS
 10
0.653812
 20
2.408169
  0
VERTEX
  8
EBENE_1
 62
    39
  6
CONTINUOUS
 10
0.644134
 20
2.398172
  0
VERTEX
  8
EBENE_1
 62
    39
  6
CONTINUOUS
 10
0.636402
 20
2.385806
  0
SEQEND
  8
0
  0
POLYLINE
  8
EBENE_1
 62
    39
  6
CONTINUOUS
 66
     1
 40
0.003000
 41
0.003000
  0
VERTEX
  8
EBENE_1
 62
    39
  6
CONTINUOUS
 10
0.741949
 20
2.420000
  0
VERTEX
  8
EBENE_1
 62
    39
  6
CONTINUOUS
 10
0.739068
 20
2.418046
  0
VERTEX
  8
EBENE_1
 62
    39
  6
CONTINUOUS
 10
0.737391
 20
2.415193
  0
VERTEX
  8
EBENE_1
 62
    39
  6
CONTINUOUS
 10
0.737217
 20
2.411890
  0
SEQEND
  8
0
  0
POLYLINE
  8
EBENE_1
 62
    39
  6
CONTINUOUS
 66
     1
 40
0.003000
 41
0.003000
  0
VERTEX
  8
EBENE_1
 62
    39
  6
CONTINUOUS
 10
0.737217
 20
2.411890
  0
VERTEX
  8
EBENE_1
 62
    39
  6
CONTINUOUS
 10
0.738869
 20
2.408560
  0
VERTEX
  8
EBENE_1
 62
    39
  6
CONTINUOUS
 10
0.741873
 20
2.406881
  0
VERTEX
  8
EBENE_1
 62
    39
  6
CONTINUOUS
 10
0.745327
 20
2.407157
  0
SEQEND
  8
0
  0
POLYLINE
  8
EBENE_1
 62
    39
  6
CONTINUOUS
 66
     1
 40
0.003000
 41
0.003000
  0
VERTEX
  8
EBENE_1
 62
    39
  6
CONTINUOUS
 10
0.745327
 20
2.407157
  0
VERTEX
  8
EBENE_1
 62
    39
  6
CONTINUOUS
 10
0.748656
 20
2.408810
  0
VERTEX
  8
EBENE_1
 62
    39
  6
CONTINUOUS
 10
0.750333
 20
2.411814
  0
VERTEX
  8
EBENE_1
 62
    39
  6
CONTINUOUS
 10
0.750059
 20
2.415268
  0
SEQEND
  8
0
  0
POLYLINE
  8
EBENE_1
 62
    39
  6
CONTINUOUS
 66
     1
 40
0.003000
 41
0.003000
  0
VERTEX
  8
EBENE_1
 62
    39
  6
CONTINUOUS
 10
0.750059
 20
2.415268
  0
VERTEX
  8
EBENE_1
 62
    39
  6
CONTINUOUS
 10
0.748406
 20
2.418146
  0
VERTEX
  8
EBENE_1
 62
    39
  6
CONTINUOUS
 10
0.745402
 20
2.419823
  0
VERTEX
  8
EBENE_1
 62
    39
  6
CONTINUOUS
 10
0.741949
 20
2.420000
  0
SEQEND
  8
0
  0
POLYLINE
  8
EBENE_1
 62
    39
  6
CONTINUOUS
 66
     1
 40
0.003000
 41
0.003000
  0
VERTEX
  8
EBENE_1
 62
    39
  6
CONTINUOUS
 10
0.653409
 20
2.375390
  0
VERTEX
  8
EBENE_1
 62
    39
  6
CONTINUOUS
 10
0.650078
 20
2.373739
  0
VERTEX
  8
EBENE_1
 62
    39
  6
CONTINUOUS
 10
0.648400
 20
2.370734
  0
VERTEX
  8
EBENE_1
 62
    39
  6
CONTINUOUS
 10
0.648677
 20
2.367280
  0
SEQEND
  8
0
  0
POLYLINE
  8
EBENE_1
 62
    39
  6
CONTINUOUS
 66
     1
 40
0.003000
 41
0.003000
  0
VERTEX
  8
EBENE_1
 62
    39
  6
CONTINUOUS
 10
0.648677
 20
2.367280
  0
VERTEX
  8
EBENE_1
 62
    39
  6
CONTINUOUS
 10
0.650328
 20
2.363950
  0
VERTEX
  8
EBENE_1
 62
    39
  6
CONTINUOUS
 10
0.653333
 20
2.362273
  0
VERTEX
  8
EBENE_1
 62
    39
  6
CONTINUOUS
 10
0.656787
 20
2.362547
  0
SEQEND
  8
0
  0
POLYLINE
  8
EBENE_1
 62
    39
  6
CONTINUOUS
 66
     1
 40
0.003000
 41
0.003000
  0
VERTEX
  8
EBENE_1
 62
    39
  6
CONTINUOUS
 10
0.656787
 20
2.362547
  0
VERTEX
  8
EBENE_1
 62
    39
  6
CONTINUOUS
 10
0.659665
 20
2.364200
  0
VERTEX
  8
EBENE_1
 62
    39
  6
CONTINUOUS
 10
0.661341
 20
2.367204
  0
VERTEX
  8
EBENE_1
 62
    39
  6
CONTINUOUS
 10
0.661516
 20
2.370657
  0
SEQEND
  8
0
  0
POLYLINE
  8
EBENE_1
 62
    39
  6
CONTINUOUS
 66
     1
 40
0.003000
 41
0.003000
  0
VERTEX
  8
EBENE_1
 62
    39
  6
CONTINUOUS
 10
0.661516
 20
2.370657
  0
VERTEX
  8
EBENE_1
 62
    39
  6
CONTINUOUS
 10
0.659565
 20
2.373538
  0
VERTEX
  8
EBENE_1
 62
    39
  6
CONTINUOUS
 10
0.656712
 20
2.375215
  0
VERTEX
  8
EBENE_1
 62
    39
  6
CONTINUOUS
 10
0.653409
 20
2.375390
  0
SEQEND
  8
0
  0
POLYLINE
  8
EBENE_1
 62
    39
  6
CONTINUOUS
 66
     1
 40
0.003000
 41
0.003000
  0
VERTEX
  8
EBENE_1
 62
    39
  6
CONTINUOUS
 10
0.831165
 20
2.435543
  0
VERTEX
  8
EBENE_1
 62
    39
  6
CONTINUOUS
 10
0.828288
 20
2.433592
  0
VERTEX
  8
EBENE_1
 62
    39
  6
CONTINUOUS
 10
0.826610
 20
2.430739
  0
VERTEX
  8
EBENE_1
 62
    39
  6
CONTINUOUS
 10
0.826433
 20
2.427433
  0
SEQEND
  8
0
  0
POLYLINE
  8
EBENE_1
 62
    39
  6
CONTINUOUS
 66
     1
 40
0.003000
 41
0.003000
  0
VERTEX
  8
EBENE_1
 62
    39
  6
CONTINUOUS
 10
0.826433
 20
2.427433
  0
VERTEX
  8
EBENE_1
 62
    39
  6
CONTINUOUS
 10
0.828387
 20
2.424079
  0
VERTEX
  8
EBENE_1
 62
    39
  6
CONTINUOUS
 10
0.831240
 20
2.422227
  0
VERTEX
  8
EBENE_1
 62
    39
  6
CONTINUOUS
 10
0.834543
 20
2.422028
  0
SEQEND
  8
0
  0
POLYLINE
  8
EBENE_1
 62
    39
  6
CONTINUOUS
 66
     1
 40
0.003000
 41
0.003000
  0
VERTEX
  8
EBENE_1
 62
    39
  6
CONTINUOUS
 10
0.834543
 20
2.422028
  0
VERTEX
  8
EBENE_1
 62
    39
  6
CONTINUOUS
 10
0.837900
 20
2.424004
  0
VERTEX
  8
EBENE_1
 62
    39
  6
CONTINUOUS
 10
0.839753
 20
2.427033
  0
VERTEX
  8
EBENE_1
 62
    39
  6
CONTINUOUS
 10
0.839953
 20
2.430815
  0
SEQEND
  8
0
  0
POLYLINE
  8
EBENE_1
 62
    39
  6
CONTINUOUS
 66
     1
 40
0.003000
 41
0.003000
  0
VERTEX
  8
EBENE_1
 62
    39
  6
CONTINUOUS
 10
0.839953
 20
2.430815
  0
VERTEX
  8
EBENE_1
 62
    39
  6
CONTINUOUS
 10
0.837976
 20
2.433693
  0
VERTEX
  8
EBENE_1
 62
    39
  6
CONTINUOUS
 10
0.834946
 20
2.435369
  0
VERTEX
  8
EBENE_1
 62
    39
  6
CONTINUOUS
 10
0.831165
 20
2.435543
  0
SEQEND
  8
0
  0
POLYLINE
  8
EBENE_1
 62
    39
  6
CONTINUOUS
 66
     1
 40
0.003000
 41
0.003000
  0
VERTEX
  8
EBENE_1
 62
    39
  6
CONTINUOUS
 10
0.409413
 20
2.329429
  0
VERTEX
  8
EBENE_1
 62
    39
  6
CONTINUOUS
 10
0.366831
 20
2.179382
  0
VERTEX
  8
EBENE_1
 62
    39
  6
CONTINUOUS
 10
0.568921
 20
2.181409
  0
SEQEND
  8
0
  0
POLYLINE
  8
EBENE_1
 62
    39
  6
CONTINUOUS
 66
     1
 40
0.003000
 41
0.003000
  0
VERTEX
  8
EBENE_1
 62
    39
  6
CONTINUOUS
 10
0.568921
 20
2.181409
  0
VERTEX
  8
EBENE_1
 62
    39
  6
CONTINUOUS
 10
0.579761
 20
2.182008
  0
VERTEX
  8
EBENE_1
 62
    39
  6
CONTINUOUS
 10
0.590590
 20
2.183057
  0
VERTEX
  8
EBENE_1
 62
    39
  6
CONTINUOUS
 10
0.601419
 20
2.184650
  0
VERTEX
  8
EBENE_1
 62
    39
  6
CONTINUOUS
 10
0.612259
 20
2.186882
  0
VERTEX
  8
EBENE_1
 62
    39
  6
CONTINUOUS
 10
0.623118
 20
2.189848
  0
VERTEX
  8
EBENE_1
 62
    39
  6
CONTINUOUS
 10
0.634009
 20
2.193643
  0
VERTEX
  8
EBENE_1
 62
    39
  6
CONTINUOUS
 10
0.644939
 20
2.198361
  0
VERTEX
  8
EBENE_1
 62
    39
  6
CONTINUOUS
 10
0.655921
 20
2.204098
  0
VERTEX
  8
EBENE_1
 62
    39
  6
CONTINUOUS
 10
0.666963
 20
2.210948
  0
VERTEX
  8
EBENE_1
 62
    39
  6
CONTINUOUS
 10
0.678076
 20
2.219006
  0
VERTEX
  8
EBENE_1
 62
    39
  6
CONTINUOUS
 10
0.689271
 20
2.228367
  0
VERTEX
  8
EBENE_1
 62
    39
  6
CONTINUOUS
 10
0.700556
 20
2.239126
  0
VERTEX
  8
EBENE_1
 62
    39
  6
CONTINUOUS
 10
0.711943
 20
2.251376
  0
VERTEX
  8
EBENE_1
 62
    39
  6
CONTINUOUS
 10
0.723442
 20
2.265214
  0
VERTEX
  8
EBENE_1
 62
    39
  6
CONTINUOUS
 10
0.735062
 20
2.280734
  0
VERTEX
  8
EBENE_1
 62
    39
  6
CONTINUOUS
 10
0.746814
 20
2.298031
  0
VERTEX
  8
EBENE_1
 62
    39
  6
CONTINUOUS
 10
0.758708
 20
2.317200
  0
VERTEX
  8
EBENE_1
 62
    39
  6
CONTINUOUS
 10
0.770754
 20
2.338334
  0
VERTEX
  8
EBENE_1
 62
    39
  6
CONTINUOUS
 10
0.782962
 20
2.361530
  0
VERTEX
  8
EBENE_1
 62
    39
  6
CONTINUOUS
 10
0.795343
 20
2.386882
  0
SEQEND
  8
0
  0
POLYLINE
  8
EBENE_1
 62
    39
  6
CONTINUOUS
 66
     1
 40
0.003000
 41
0.003000
  0
VERTEX
  8
EBENE_1
 62
    39
  6
CONTINUOUS
 10
0.795343
 20
2.386882
  0
VERTEX
  8
EBENE_1
 62
    39
  6
CONTINUOUS
 10
0.791934
 20
2.407492
  0
VERTEX
  8
EBENE_1
 62
    39
  6
CONTINUOUS
 10
0.785451
 20
2.420099
  0
VERTEX
  8
EBENE_1
 62
    39
  6
CONTINUOUS
 10
0.776296
 20
2.426463
  0
VERTEX
  8
EBENE_1
 62
    39
  6
CONTINUOUS
 10
0.764872
 20
2.428347
  0
VERTEX
  8
EBENE_1
 62
    39
  6
CONTINUOUS
 10
0.751579
 20
2.427511
  0
VERTEX
  8
EBENE_1
 62
    39
  6
CONTINUOUS
 10
0.736819
 20
2.425718
  0
VERTEX
  8
EBENE_1
 62
    39
  6
CONTINUOUS
 10
0.720996
 20
2.424728
  0
SEQEND
  8
0
  0
POLYLINE
  8
EBENE_1
 62
    39
  6
CONTINUOUS
 66
     1
 40
0.003000
 41
0.003000
  0
VERTEX
  8
EBENE_1
 62
    39
  6
CONTINUOUS
 10
0.720996
 20
2.424728
  0
VERTEX
  8
EBENE_1
 62
    39
  6
CONTINUOUS
 10
0.497953
 20
2.372685
  0
SEQEND
  8
0
  0
POLYLINE
  8
EBENE_1
 62
    39
  6
CONTINUOUS
 66
     1
 40
0.003000
 41
0.003000
  0
VERTEX
  8
EBENE_1
 62
    39
  6
CONTINUOUS
 10
0.497953
 20
2.372685
  0
VERTEX
  8
EBENE_1
 62
    39
  6
CONTINUOUS
 10
0.470317
 20
2.367343
  0
VERTEX
  8
EBENE_1
 62
    39
  6
CONTINUOUS
 10
0.449462
 20
2.360769
  0
VERTEX
  8
EBENE_1
 62
    39
  6
CONTINUOUS
 10
0.433571
 20
2.352539
  0
VERTEX
  8
EBENE_1
 62
    39
  6
CONTINUOUS
 10
0.420828
 20
2.342234
  0
VERTEX
  8
EBENE_1
 62
    39
  6
CONTINUOUS
 10
0.409413
 20
2.329429
  0
SEQEND
  8
0
  0
POLYLINE
  8
EBENE_1
 62
    39
  6
CONTINUOUS
 66
     1
 40
0.003000
 41
0.003000
 70
     1
  0
VERTEX
  8
EBENE_1
 62
    39
  6
CONTINUOUS
 10
0.408059
 20
2.325374
  0
VERTEX
  8
EBENE_1
 62
    39
  6
CONTINUOUS
 10
0.368858
 20
2.184114
  0
VERTEX
  8
EBENE_1
 62
    39
  6
CONTINUOUS
 10
0.573654
 20
2.185465
  0
VERTEX
  8
EBENE_1
 62
    39
  6
CONTINUOUS
 10
0.585148
 20
2.186068
  0
VERTEX
  8
EBENE_1
 62
    39
  6
CONTINUOUS
 10
0.596590
 20
2.187102
  0
VERTEX
  8
EBENE_1
 62
    39
  6
CONTINUOUS
 10
0.607994
 20
2.188683
  0
VERTEX
  8
EBENE_1
 62
    39
  6
CONTINUOUS
 10
0.619375
 20
2.190925
  0
VERTEX
  8
EBENE_1
 62
    39
  6
CONTINUOUS
 10
0.630747
 20
2.193946
  0
VERTEX
  8
EBENE_1
 62
    39
  6
CONTINUOUS
 10
0.642127
 20
2.197860
  0
VERTEX
  8
EBENE_1
 62
    39
  6
CONTINUOUS
 10
0.653527
 20
2.202785
  0
VERTEX
  8
EBENE_1
 62
    39
  6
CONTINUOUS
 10
0.664963
 20
2.208835
  0
VERTEX
  8
EBENE_1
 62
    39
  6
CONTINUOUS
 10
0.676451
 20
2.216126
  0
VERTEX
  8
EBENE_1
 62
    39
  6
CONTINUOUS
 10
0.688004
 20
2.224776
  0
VERTEX
  8
EBENE_1
 62
    39
  6
CONTINUOUS
 10
0.699637
 20
2.234898
  0
VERTEX
  8
EBENE_1
 62
    39
  6
CONTINUOUS
 10
0.711365
 20
2.246610
  0
VERTEX
  8
EBENE_1
 62
    39
  6
CONTINUOUS
 10
0.723204
 20
2.260026
  0
VERTEX
  8
EBENE_1
 62
    39
  6
CONTINUOUS
 10
0.735167
 20
2.275264
  0
VERTEX
  8
EBENE_1
 62
    39
  6
CONTINUOUS
 10
0.747269
 20
2.292439
  0
VERTEX
  8
EBENE_1
 62
    39
  6
CONTINUOUS
 10
0.759526
 20
2.311666
  0
VERTEX
  8
EBENE_1
 62
    39
  6
CONTINUOUS
 10
0.771952
 20
2.333062
  0
VERTEX
  8
EBENE_1
 62
    39
  6
CONTINUOUS
 10
0.784562
 20
2.356742
  0
VERTEX
  8
EBENE_1
 62
    39
  6
CONTINUOUS
 10
0.797370
 20
2.382823
  0
VERTEX
  8
EBENE_1
 62
    39
  6
CONTINUOUS
 10
0.797370
 20
2.382823
  0
VERTEX
  8
EBENE_1
 62
    39
  6
CONTINUOUS
 10
0.798422
 20
2.404652
  0
VERTEX
  8
EBENE_1
 62
    39
  6
CONTINUOUS
 10
0.794518
 20
2.417544
  0
VERTEX
  8
EBENE_1
 62
    39
  6
CONTINUOUS
 10
0.786219
 20
2.423716
  0
VERTEX
  8
EBENE_1
 62
    39
  6
CONTINUOUS
 10
0.774091
 20
2.425381
  0
VERTEX
  8
EBENE_1
 62
    39
  6
CONTINUOUS
 10
0.758696
 20
2.424756
  0
VERTEX
  8
EBENE_1
 62
    39
  6
CONTINUOUS
 10
0.740598
 20
2.424055
  0
VERTEX
  8
EBENE_1
 62
    39
  6
CONTINUOUS
 10
0.470917
 20
2.365252
  0
VERTEX
  8
EBENE_1
 62
    39
  6
CONTINUOUS
 10
0.446796
 20
2.363376
  0
VERTEX
  8
EBENE_1
 62
    39
  6
CONTINUOUS
 10
0.432537
 20
2.358028
  0
VERTEX
  8
EBENE_1
 62
    39
  6
CONTINUOUS
 10
0.424054
 20
2.349631
  0
VERTEX
  8
EBENE_1
 62
    39
  6
CONTINUOUS
 10
0.417257
 20
2.338606
  0
SEQEND
  8
0
  0
POLYLINE
  8
EBENE_1
 62
    39
  6
CONTINUOUS
 66
     1
 40
0.003000
 41
0.003000
  0
VERTEX
  8
EBENE_1
 62
    39
  6
CONTINUOUS
 10
0.533098
 20
2.363224
  0
VERTEX
  8
EBENE_1
 62
    39
  6
CONTINUOUS
 10
0.530070
 20
2.361247
  0
VERTEX
  8
EBENE_1
 62
    39
  6
CONTINUOUS
 10
0.528242
 20
2.358217
  0
VERTEX
  8
EBENE_1
 62
    39
  6
CONTINUOUS
 10
0.528366
 20
2.354437
  0
SEQEND
  8
0
  0
POLYLINE
  8
EBENE_1
 62
    39
  6
CONTINUOUS
 66
     1
 40
0.003000
 41
0.003000
  0
VERTEX
  8
EBENE_1
 62
    39
  6
CONTINUOUS
 10
0.528366
 20
2.354437
  0
VERTEX
  8
EBENE_1
 62
    39
  6
CONTINUOUS
 10
0.530019
 20
2.351559
  0
VERTEX
  8
EBENE_1
 62
    39
  6
CONTINUOUS
 10
0.533024
 20
2.349882
  0
VERTEX
  8
EBENE_1
 62
    39
  6
CONTINUOUS
 10
0.536480
 20
2.349705
  0
SEQEND
  8
0
  0
POLYLINE
  8
EBENE_1
 62
    39
  6
CONTINUOUS
 66
     1
 40
0.003000
 41
0.003000
  0
VERTEX
  8
EBENE_1
 62
    39
  6
CONTINUOUS
 10
0.536480
 20
2.349705
  0
VERTEX
  8
EBENE_1
 62
    39
  6
CONTINUOUS
 10
0.539834
 20
2.351684
  0
VERTEX
  8
EBENE_1
 62
    39
  6
CONTINUOUS
 10
0.541686
 20
2.354713
  0
VERTEX
  8
EBENE_1
 62
    39
  6
CONTINUOUS
 10
0.541886
 20
2.358492
  0
SEQEND
  8
0
  0
POLYLINE
  8
EBENE_1
 62
    39
  6
CONTINUOUS
 66
     1
 40
0.003000
 41
0.003000
  0
VERTEX
  8
EBENE_1
 62
    39
  6
CONTINUOUS
 10
0.541886
 20
2.358492
  0
VERTEX
  8
EBENE_1
 62
    39
  6
CONTINUOUS
 10
0.539909
 20
2.361373
  0
VERTEX
  8
EBENE_1
 62
    39
  6
CONTINUOUS
 10
0.536879
 20
2.363050
  0
VERTEX
  8
EBENE_1
 62
    39
  6
CONTINUOUS
 10
0.533098
 20
2.363224
  0
SEQEND
  8
0
  0
POLYLINE
  8
EBENE_1
 62
    39
  6
CONTINUOUS
 66
     1
 40
0.003000
 41
0.003000
  0
VERTEX
  8
EBENE_1
 62
    39
  6
CONTINUOUS
 10
0.439150
 20
2.330106
  0
VERTEX
  8
EBENE_1
 62
    39
  6
CONTINUOUS
 10
0.436272
 20
2.328127
  0
VERTEX
  8
EBENE_1
 62
    39
  6
CONTINUOUS
 10
0.434596
 20
2.325098
  0
VERTEX
  8
EBENE_1
 62
    39
  6
CONTINUOUS
 10
0.434421
 20
2.321319
  0
SEQEND
  8
0
  0
POLYLINE
  8
EBENE_1
 62
    39
  6
CONTINUOUS
 66
     1
 40
0.003000
 41
0.003000
  0
VERTEX
  8
EBENE_1
 62
    39
  6
CONTINUOUS
 10
0.434421
 20
2.321319
  0
VERTEX
  8
EBENE_1
 62
    39
  6
CONTINUOUS
 10
0.436397
 20
2.318441
  0
VERTEX
  8
EBENE_1
 62
    39
  6
CONTINUOUS
 10
0.439425
 20
2.316764
  0
VERTEX
  8
EBENE_1
 62
    39
  6
CONTINUOUS
 10
0.443205
 20
2.316587
  0
SEQEND
  8
0
  0
POLYLINE
  8
EBENE_1
 62
    39
  6
CONTINUOUS
 66
     1
 40
0.003000
 41
0.003000
  0
VERTEX
  8
EBENE_1
 62
    39
  6
CONTINUOUS
 10
0.443205
 20
2.316587
  0
VERTEX
  8
EBENE_1
 62
    39
  6
CONTINUOUS
 10
0.446085
 20
2.318541
  0
VERTEX
  8
EBENE_1
 62
    39
  6
CONTINUOUS
 10
0.447763
 20
2.321394
  0
VERTEX
  8
EBENE_1
 62
    39
  6
CONTINUOUS
 10
0.447937
 20
2.324697
  0
SEQEND
  8
0
  0
POLYLINE
  8
EBENE_1
 62
    39
  6
CONTINUOUS
 66
     1
 40
0.003000
 41
0.003000
  0
VERTEX
  8
EBENE_1
 62
    39
  6
CONTINUOUS
 10
0.447937
 20
2.324697
  0
VERTEX
  8
EBENE_1
 62
    39
  6
CONTINUOUS
 10
0.446261
 20
2.328051
  0
VERTEX
  8
EBENE_1
 62
    39
  6
CONTINUOUS
 10
0.443080
 20
2.329904
  0
VERTEX
  8
EBENE_1
 62
    39
  6
CONTINUOUS
 10
0.439150
 20
2.330106
  0
SEQEND
  8
0
  0
POLYLINE
  8
EBENE_1
 62
    39
  6
CONTINUOUS
 66
     1
 40
0.003000
 41
0.003000
  0
VERTEX
  8
EBENE_1
 62
    39
  6
CONTINUOUS
 10
0.625020
 20
2.384177
  0
VERTEX
  8
EBENE_1
 62
    39
  6
CONTINUOUS
 10
0.622142
 20
2.382524
  0
VERTEX
  8
EBENE_1
 62
    39
  6
CONTINUOUS
 10
0.620464
 20
2.379520
  0
VERTEX
  8
EBENE_1
 62
    39
  6
CONTINUOUS
 10
0.620287
 20
2.376067
  0
SEQEND
  8
0
  0
POLYLINE
  8
EBENE_1
 62
    39
  6
CONTINUOUS
 66
     1
 40
0.003000
 41
0.003000
  0
VERTEX
  8
EBENE_1
 62
    39
  6
CONTINUOUS
 10
0.620287
 20
2.376067
  0
VERTEX
  8
EBENE_1
 62
    39
  6
CONTINUOUS
 10
0.622266
 20
2.372738
  0
VERTEX
  8
EBENE_1
 62
    39
  6
CONTINUOUS
 10
0.625295
 20
2.371060
  0
VERTEX
  8
EBENE_1
 62
    39
  6
CONTINUOUS
 10
0.629075
 20
2.371335
  0
SEQEND
  8
0
  0
POLYLINE
  8
EBENE_1
 62
    39
  6
CONTINUOUS
 66
     1
 40
0.003000
 41
0.003000
  0
VERTEX
  8
EBENE_1
 62
    39
  6
CONTINUOUS
 10
0.629075
 20
2.371335
  0
VERTEX
  8
EBENE_1
 62
    39
  6
CONTINUOUS
 10
0.631955
 20
2.372988
  0
VERTEX
  8
EBENE_1
 62
    39
  6
CONTINUOUS
 10
0.633633
 20
2.375991
  0
VERTEX
  8
EBENE_1
 62
    39
  6
CONTINUOUS
 10
0.633807
 20
2.379445
  0
SEQEND
  8
0
  0
POLYLINE
  8
EBENE_1
 62
    39
  6
CONTINUOUS
 66
     1
 40
0.003000
 41
0.003000
  0
VERTEX
  8
EBENE_1
 62
    39
  6
CONTINUOUS
 10
0.633807
 20
2.379445
  0
VERTEX
  8
EBENE_1
 62
    39
  6
CONTINUOUS
 10
0.632129
 20
2.382323
  0
VERTEX
  8
EBENE_1
 62
    39
  6
CONTINUOUS
 10
0.628950
 20
2.384000
  0
VERTEX
  8
EBENE_1
 62
    39
  6
CONTINUOUS
 10
0.625020
 20
2.384177
  0
SEQEND
  8
0
  0
POLYLINE
  8
EBENE_1
 62
    39
  6
CONTINUOUS
 66
     1
 40
0.003000
 41
0.003000
 70
     1
  0
VERTEX
  8
EBENE_1
 62
    39
  6
CONTINUOUS
 10
0.073496
 20
2.533547
  0
VERTEX
  8
EBENE_1
 62
    39
  6
CONTINUOUS
 10
-0.056272
 20
2.182764
  0
VERTEX
  8
EBENE_1
 62
    39
  6
CONTINUOUS
 10
0.385756
 20
2.178031
  0
VERTEX
  8
EBENE_1
 62
    39
  6
CONTINUOUS
 10
0.411353
 20
2.183631
  0
VERTEX
  8
EBENE_1
 62
    39
  6
CONTINUOUS
 10
0.431381
 20
2.192542
  0
VERTEX
  8
EBENE_1
 62
    39
  6
CONTINUOUS
 10
0.446728
 20
2.203355
  0
VERTEX
  8
EBENE_1
 62
    39
  6
CONTINUOUS
 10
0.458279
 20
2.214666
  0
VERTEX
  8
EBENE_1
 62
    39
  6
CONTINUOUS
 10
0.466921
 20
2.225066
  0
VERTEX
  8
EBENE_1
 62
    39
  6
CONTINUOUS
 10
0.473542
 20
2.233149
  0
VERTEX
  8
EBENE_1
 62
    39
  6
CONTINUOUS
 10
0.479028
 20
2.237508
  0
VERTEX
  8
EBENE_1
 62
    39
  6
CONTINUOUS
 10
0.478148
 20
2.239483
  0
VERTEX
  8
EBENE_1
 62
    39
  6
CONTINUOUS
 10
0.475439
 20
2.244548
  0
VERTEX
  8
EBENE_1
 62
    39
  6
CONTINUOUS
 10
0.471049
 20
2.252429
  0
VERTEX
  8
EBENE_1
 62
    39
  6
CONTINUOUS
 10
0.465129
 20
2.262851
  0
VERTEX
  8
EBENE_1
 62
    39
  6
CONTINUOUS
 10
0.457826
 20
2.275539
  0
VERTEX
  8
EBENE_1
 62
    39
  6
CONTINUOUS
 10
0.449289
 20
2.290217
  0
VERTEX
  8
EBENE_1
 62
    39
  6
CONTINUOUS
 10
0.439669
 20
2.306612
  0
VERTEX
  8
EBENE_1
 62
    39
  6
CONTINUOUS
 10
0.429113
 20
2.324448
  0
VERTEX
  8
EBENE_1
 62
    39
  6
CONTINUOUS
 10
0.417771
 20
2.343451
  0
VERTEX
  8
EBENE_1
 62
    39
  6
CONTINUOUS
 10
0.405792
 20
2.363344
  0
VERTEX
  8
EBENE_1
 62
    39
  6
CONTINUOUS
 10
0.393325
 20
2.383855
  0
VERTEX
  8
EBENE_1
 62
    39
  6
CONTINUOUS
 10
0.380518
 20
2.404707
  0
VERTEX
  8
EBENE_1
 62
    39
  6
CONTINUOUS
 10
0.367522
 20
2.425626
  0
VERTEX
  8
EBENE_1
 62
    39
  6
CONTINUOUS
 10
0.354484
 20
2.446337
  0
VERTEX
  8
EBENE_1
 62
    39
  6
CONTINUOUS
 10
0.341554
 20
2.466566
  0
VERTEX
  8
EBENE_1
 62
    39
  6
CONTINUOUS
 10
0.328882
 20
2.486036
  0
VERTEX
  8
EBENE_1
 62
    39
  6
CONTINUOUS
 10
0.316615
 20
2.504474
  0
VERTEX
  8
EBENE_1
 62
    39
  6
CONTINUOUS
 10
0.304903
 20
2.521604
  0
VERTEX
  8
EBENE_1
 62
    39
  6
CONTINUOUS
 10
0.293896
 20
2.537152
  0
VERTEX
  8
EBENE_1
 62
    39
  6
CONTINUOUS
 10
0.283741
 20
2.550843
  0
VERTEX
  8
EBENE_1
 62
    39
  6
CONTINUOUS
 10
0.274589
 20
2.562401
  0
VERTEX
  8
EBENE_1
 62
    39
  6
CONTINUOUS
 10
0.266587
 20
2.571553
  0
VERTEX
  8
EBENE_1
 62
    39
  6
CONTINUOUS
 10
0.259886
 20
2.578023
  0
VERTEX
  8
EBENE_1
 62
    39
  6
CONTINUOUS
 10
0.254634
 20
2.581535
  0
VERTEX
  8
EBENE_1
 62
    39
  6
CONTINUOUS
 10
0.254634
 20
2.581535
  0
VERTEX
  8
EBENE_1
 62
    39
  6
CONTINUOUS
 10
0.252606
 20
2.580185
  0
VERTEX
  8
EBENE_1
 62
    39
  6
CONTINUOUS
 10
0.235912
 20
2.585568
  0
VERTEX
  8
EBENE_1
 62
    39
  6
CONTINUOUS
 10
0.219548
 20
2.590066
  0
VERTEX
  8
EBENE_1
 62
    39
  6
CONTINUOUS
 10
0.203557
 20
2.593511
  0
VERTEX
  8
EBENE_1
 62
    39
  6
CONTINUOUS
 10
0.187982
 20
2.595738
  0
VERTEX
  8
EBENE_1
 62
    39
  6
CONTINUOUS
 10
0.172864
 20
2.596580
  0
VERTEX
  8
EBENE_1
 62
    39
  6
CONTINUOUS
 10
0.158246
 20
2.595872
  0
VERTEX
  8
EBENE_1
 62
    39
  6
CONTINUOUS
 10
0.144171
 20
2.593447
  0
VERTEX
  8
EBENE_1
 62
    39
  6
CONTINUOUS
 10
0.130682
 20
2.589139
  0
VERTEX
  8
EBENE_1
 62
    39
  6
CONTINUOUS
 10
0.117819
 20
2.582783
  0
VERTEX
  8
EBENE_1
 62
    39
  6
CONTINUOUS
 10
0.105627
 20
2.574212
  0
VERTEX
  8
EBENE_1
 62
    39
  6
CONTINUOUS
 10
0.094148
 20
2.563260
  0
VERTEX
  8
EBENE_1
 62
    39
  6
CONTINUOUS
 10
0.083423
 20
2.549760
  0
SEQEND
  8
0
  0
POLYLINE
  8
EBENE_1
 62
    39
  6
CONTINUOUS
 66
     1
 40
0.003000
 41
0.003000
 70
     1
  0
VERTEX
  8
EBENE_1
 62
    39
  6
CONTINUOUS
 10
0.072819
 20
2.538280
  0
VERTEX
  8
EBENE_1
 62
    39
  6
CONTINUOUS
 10
-0.054917
 20
2.188846
  0
VERTEX
  8
EBENE_1
 62
    39
  6
CONTINUOUS
 10
0.387106
 20
2.183437
  0
VERTEX
  8
EBENE_1
 62
    39
  6
CONTINUOUS
 10
0.415582
 20
2.190130
  0
VERTEX
  8
EBENE_1
 62
    39
  6
CONTINUOUS
 10
0.436473
 20
2.200710
  0
VERTEX
  8
EBENE_1
 62
    39
  6
CONTINUOUS
 10
0.451317
 20
2.213092
  0
VERTEX
  8
EBENE_1
 62
    39
  6
CONTINUOUS
 10
0.461656
 20
2.225192
  0
VERTEX
  8
EBENE_1
 62
    39
  6
CONTINUOUS
 10
0.469028
 20
2.234927
  0
VERTEX
  8
EBENE_1
 62
    39
  6
CONTINUOUS
 10
0.474972
 20
2.240213
  0
VERTEX
  8
EBENE_1
 62
    39
  6
CONTINUOUS
 10
0.474204
 20
2.242015
  0
VERTEX
  8
EBENE_1
 62
    39
  6
CONTINUOUS
 10
0.471822
 20
2.246641
  0
VERTEX
  8
EBENE_1
 62
    39
  6
CONTINUOUS
 10
0.467947
 20
2.253853
  0
VERTEX
  8
EBENE_1
 62
    39
  6
CONTINUOUS
 10
0.462700
 20
2.263417
  0
VERTEX
  8
EBENE_1
 62
    39
  6
CONTINUOUS
 10
0.456201
 20
2.275094
  0
VERTEX
  8
EBENE_1
 62
    39
  6
CONTINUOUS
 10
0.448570
 20
2.288650
  0
VERTEX
  8
EBENE_1
 62
    39
  6
CONTINUOUS
 10
0.439928
 20
2.303848
  0
VERTEX
  8
EBENE_1
 62
    39
  6
CONTINUOUS
 10
0.430396
 20
2.320451
  0
VERTEX
  8
EBENE_1
 62
    39
  6
CONTINUOUS
 10
0.420093
 20
2.338224
  0
VERTEX
  8
EBENE_1
 62
    39
  6
CONTINUOUS
 10
0.409141
 20
2.356929
  0
VERTEX
  8
EBENE_1
 62
    39
  6
CONTINUOUS
 10
0.397659
 20
2.376332
  0
VERTEX
  8
EBENE_1
 62
    39
  6
CONTINUOUS
 10
0.385769
 20
2.396195
  0
VERTEX
  8
EBENE_1
 62
    39
  6
CONTINUOUS
 10
0.373590
 20
2.416282
  0
VERTEX
  8
EBENE_1
 62
    39
  6
CONTINUOUS
 10
0.361243
 20
2.436357
  0
VERTEX
  8
EBENE_1
 62
    39
  6
CONTINUOUS
 10
0.348848
 20
2.456184
  0
VERTEX
  8
EBENE_1
 62
    39
  6
CONTINUOUS
 10
0.336527
 20
2.475527
  0
VERTEX
  8
EBENE_1
 62
    39
  6
CONTINUOUS
 10
0.324398
 20
2.494148
  0
VERTEX
  8
EBENE_1
 62
    39
  6
CONTINUOUS
 10
0.312584
 20
2.511813
  0
VERTEX
  8
EBENE_1
 62
    39
  6
CONTINUOUS
 10
0.301204
 20
2.528284
  0
VERTEX
  8
EBENE_1
 62
    39
  6
CONTINUOUS
 10
0.290378
 20
2.543326
  0
VERTEX
  8
EBENE_1
 62
    39
  6
CONTINUOUS
 10
0.280228
 20
2.556702
  0
VERTEX
  8
EBENE_1
 62
    39
  6
CONTINUOUS
 10
0.270873
 20
2.568175
  0
VERTEX
  8
EBENE_1
 62
    39
  6
CONTINUOUS
 10
0.262435
 20
2.577510
  0
VERTEX
  8
EBENE_1
 62
    39
  6
CONTINUOUS
 10
0.255032
 20
2.584471
  0
VERTEX
  8
EBENE_1
 62
    39
  6
CONTINUOUS
 10
0.248787
 20
2.588820
  0
VERTEX
  8
EBENE_1
 62
    39
  6
CONTINUOUS
 10
0.243819
 20
2.590323
  0
VERTEX
  8
EBENE_1
 62
    39
  6
CONTINUOUS
 10
0.245846
 20
2.588969
  0
VERTEX
  8
EBENE_1
 62
    39
  6
CONTINUOUS
 10
0.228308
 20
2.594825
  0
VERTEX
  8
EBENE_1
 62
    39
  6
CONTINUOUS
 10
0.211204
 20
2.599436
  0
VERTEX
  8
EBENE_1
 62
    39
  6
CONTINUOUS
 10
0.194574
 20
2.602624
  0
VERTEX
  8
EBENE_1
 62
    39
  6
CONTINUOUS
 10
0.178458
 20
2.604214
  0
VERTEX
  8
EBENE_1
 62
    39
  6
CONTINUOUS
 10
0.162896
 20
2.604030
  0
VERTEX
  8
EBENE_1
 62
    39
  6
CONTINUOUS
 10
0.147928
 20
2.601896
  0
VERTEX
  8
EBENE_1
 62
    39
  6
CONTINUOUS
 10
0.133593
 20
2.597636
  0
VERTEX
  8
EBENE_1
 62
    39
  6
CONTINUOUS
 10
0.119932
 20
2.591073
  0
VERTEX
  8
EBENE_1
 62
    39
  6
CONTINUOUS
 10
0.106984
 20
2.582032
  0
VERTEX
  8
EBENE_1
 62
    39
  6
CONTINUOUS
 10
0.094789
 20
2.570337
  0
VERTEX
  8
EBENE_1
 62
    39
  6
CONTINUOUS
 10
0.083387
 20
2.555811
  0
SEQEND
  8
0
  0
POLYLINE
  8
EBENE_1
 62
    39
  6
CONTINUOUS
 66
     1
 40
0.003000
 41
0.003000
 70
     1
  0
VERTEX
  8
EBENE_1
 62
    39
  6
CONTINUOUS
 10
0.116752
 20
2.570043
  0
VERTEX
  8
EBENE_1
 62
    39
  6
CONTINUOUS
 10
0.113874
 20
2.568393
  0
VERTEX
  8
EBENE_1
 62
    39
  6
CONTINUOUS
 10
0.112197
 20
2.565390
  0
VERTEX
  8
EBENE_1
 62
    39
  6
CONTINUOUS
 10
0.112020
 20
2.561937
  0
VERTEX
  8
EBENE_1
 62
    39
  6
CONTINUOUS
 10
0.113999
 20
2.558906
  0
VERTEX
  8
EBENE_1
 62
    39
  6
CONTINUOUS
 10
0.117028
 20
2.557078
  0
VERTEX
  8
EBENE_1
 62
    39
  6
CONTINUOUS
 10
0.120807
 20
2.557205
  0
VERTEX
  8
EBENE_1
 62
    39
  6
CONTINUOUS
 10
0.123686
 20
2.558858
  0
VERTEX
  8
EBENE_1
 62
    39
  6
CONTINUOUS
 10
0.125364
 20
2.561861
  0
VERTEX
  8
EBENE_1
 62
    39
  6
CONTINUOUS
 10
0.125539
 20
2.565315
  0
VERTEX
  8
EBENE_1
 62
    39
  6
CONTINUOUS
 10
0.123560
 20
2.568343
  0
VERTEX
  8
EBENE_1
 62
    39
  6
CONTINUOUS
 10
0.120531
 20
2.570170
  0
SEQEND
  8
0
  0
POLYLINE
  8
EBENE_1
 62
    39
  6
CONTINUOUS
 66
     1
 40
0.003000
 41
0.003000
 70
     1
  0
VERTEX
  8
EBENE_1
 62
    39
  6
CONTINUOUS
 10
0.081606
 20
2.509894
  0
VERTEX
  8
EBENE_1
 62
    39
  6
CONTINUOUS
 10
0.078728
 20
2.508241
  0
VERTEX
  8
EBENE_1
 62
    39
  6
CONTINUOUS
 10
0.077051
 20
2.505236
  0
VERTEX
  8
EBENE_1
 62
    39
  6
CONTINUOUS
 10
0.076874
 20
2.501780
  0
VERTEX
  8
EBENE_1
 62
    39
  6
CONTINUOUS
 10
0.078527
 20
2.498902
  0
VERTEX
  8
EBENE_1
 62
    39
  6
CONTINUOUS
 10
0.081531
 20
2.497225
  0
VERTEX
  8
EBENE_1
 62
    39
  6
CONTINUOUS
 10
0.084984
 20
2.497051
  0
VERTEX
  8
EBENE_1
 62
    39
  6
CONTINUOUS
 10
0.088014
 20
2.498702
  0
VERTEX
  8
EBENE_1
 62
    39
  6
CONTINUOUS
 10
0.089841
 20
2.501705
  0
VERTEX
  8
EBENE_1
 62
    39
  6
CONTINUOUS
 10
0.089717
 20
2.505161
  0
VERTEX
  8
EBENE_1
 62
    39
  6
CONTINUOUS
 10
0.088064
 20
2.508491
  0
VERTEX
  8
EBENE_1
 62
    39
  6
CONTINUOUS
 10
0.085060
 20
2.510168
  0
SEQEND
  8
0
  0
POLYLINE
  8
EBENE_1
 62
    39
  6
CONTINUOUS
 66
     1
 40
0.003000
 41
0.003000
 70
     1
  0
VERTEX
  8
EBENE_1
 62
    39
  6
CONTINUOUS
 10
0.261394
 20
2.549094
  0
VERTEX
  8
EBENE_1
 62
    39
  6
CONTINUOUS
 10
0.258064
 20
2.547141
  0
VERTEX
  8
EBENE_1
 62
    39
  6
CONTINUOUS
 10
0.256387
 20
2.544287
  0
VERTEX
  8
EBENE_1
 62
    39
  6
CONTINUOUS
 10
0.256661
 20
2.540984
  0
VERTEX
  8
EBENE_1
 62
    39
  6
CONTINUOUS
 10
0.258314
 20
2.537654
  0
VERTEX
  8
EBENE_1
 62
    39
  6
CONTINUOUS
 10
0.261318
 20
2.535976
  0
VERTEX
  8
EBENE_1
 62
    39
  6
CONTINUOUS
 10
0.264772
 20
2.536252
  0
VERTEX
  8
EBENE_1
 62
    39
  6
CONTINUOUS
 10
0.267649
 20
2.537754
  0
VERTEX
  8
EBENE_1
 62
    39
  6
CONTINUOUS
 10
0.269327
 20
2.540608
  0
VERTEX
  8
EBENE_1
 62
    39
  6
CONTINUOUS
 10
0.269504
 20
2.544362
  0
VERTEX
  8
EBENE_1
 62
    39
  6
CONTINUOUS
 10
0.267851
 20
2.547240
  0
VERTEX
  8
EBENE_1
 62
    39
  6
CONTINUOUS
 10
0.264847
 20
2.548917
  0
SEQEND
  8
0
  0
POLYLINE
  8
EBENE_1
 62
    39
  6
CONTINUOUS
 66
     1
 40
0.003000
 41
0.003000
  0
VERTEX
  8
EBENE_1
 62
    39
  6
CONTINUOUS
 10
-0.199559
 20
2.451768
  0
VERTEX
  8
EBENE_1
 62
    39
  6
CONTINUOUS
 10
-0.287425
 20
2.182087
  0
VERTEX
  8
EBENE_1
 62
    39
  6
CONTINUOUS
 10
-0.070465
 20
2.183437
  0
SEQEND
  8
0
  0
POLYLINE
  8
EBENE_1
 62
    39
  6
CONTINUOUS
 66
     1
 40
0.003000
 41
0.003000
  0
VERTEX
  8
EBENE_1
 62
    39
  6
CONTINUOUS
 10
-0.070465
 20
2.183437
  0
VERTEX
  8
EBENE_1
 62
    39
  6
CONTINUOUS
 10
-0.061535
 20
2.184234
  0
VERTEX
  8
EBENE_1
 62
    39
  6
CONTINUOUS
 10
-0.051920
 20
2.186010
  0
VERTEX
  8
EBENE_1
 62
    39
  6
CONTINUOUS
 10
-0.041694
 20
2.188742
  0
VERTEX
  8
EBENE_1
 62
    39
  6
CONTINUOUS
 10
-0.030933
 20
2.192406
  0
VERTEX
  8
EBENE_1
 62
    39
  6
CONTINUOUS
 10
-0.019714
 20
2.196979
  0
VERTEX
  8
EBENE_1
 62
    39
  6
CONTINUOUS
 10
-0.008111
 20
2.202440
  0
VERTEX
  8
EBENE_1
 62
    39
  6
CONTINUOUS
 10
0.003799
 20
2.208765
  0
VERTEX
  8
EBENE_1
 62
    39
  6
CONTINUOUS
 10
0.015940
 20
2.215931
  0
VERTEX
  8
EBENE_1
 62
    39
  6
CONTINUOUS
 10
0.028237
 20
2.223916
  0
VERTEX
  8
EBENE_1
 62
    39
  6
CONTINUOUS
 10
0.040613
 20
2.232696
  0
VERTEX
  8
EBENE_1
 62
    39
  6
CONTINUOUS
 10
0.052994
 20
2.242248
  0
VERTEX
  8
EBENE_1
 62
    39
  6
CONTINUOUS
 10
0.065302
 20
2.252551
  0
VERTEX
  8
EBENE_1
 62
    39
  6
CONTINUOUS
 10
0.077463
 20
2.263580
  0
VERTEX
  8
EBENE_1
 62
    39
  6
CONTINUOUS
 10
0.089401
 20
2.275313
  0
VERTEX
  8
EBENE_1
 62
    39
  6
CONTINUOUS
 10
0.101039
 20
2.287727
  0
VERTEX
  8
EBENE_1
 62
    39
  6
CONTINUOUS
 10
0.112301
 20
2.300800
  0
VERTEX
  8
EBENE_1
 62
    39
  6
CONTINUOUS
 10
0.123113
 20
2.314508
  0
VERTEX
  8
EBENE_1
 62
    39
  6
CONTINUOUS
 10
0.133398
 20
2.328828
  0
VERTEX
  8
EBENE_1
 62
    39
  6
CONTINUOUS
 10
0.143081
 20
2.343739
  0
VERTEX
  8
EBENE_1
 62
    39
  6
CONTINUOUS
 10
0.152085
 20
2.359216
  0
VERTEX
  8
EBENE_1
 62
    39
  6
CONTINUOUS
 10
0.160335
 20
2.375237
  0
VERTEX
  8
EBENE_1
 62
    39
  6
CONTINUOUS
 10
0.167754
 20
2.391778
  0
VERTEX
  8
EBENE_1
 62
    39
  6
CONTINUOUS
 10
0.174268
 20
2.408819
  0
VERTEX
  8
EBENE_1
 62
    39
  6
CONTINUOUS
 10
0.179800
 20
2.426334
  0
VERTEX
  8
EBENE_1
 62
    39
  6
CONTINUOUS
 10
0.184275
 20
2.444302
  0
VERTEX
  8
EBENE_1
 62
    39
  6
CONTINUOUS
 10
0.187616
 20
2.462700
  0
VERTEX
  8
EBENE_1
 62
    39
  6
CONTINUOUS
 10
0.189748
 20
2.481504
  0
SEQEND
  8
0
  0
POLYLINE
  8
EBENE_1
 62
    39
  6
CONTINUOUS
 66
     1
 40
0.003000
 41
0.003000
  0
VERTEX
  8
EBENE_1
 62
    39
  6
CONTINUOUS
 10
0.189748
 20
2.481504
  0
VERTEX
  8
EBENE_1
 62
    39
  6
CONTINUOUS
 10
0.186326
 20
2.501174
  0
VERTEX
  8
EBENE_1
 62
    39
  6
CONTINUOUS
 10
0.179483
 20
2.517707
  0
VERTEX
  8
EBENE_1
 62
    39
  6
CONTINUOUS
 10
0.169788
 20
2.531262
  0
VERTEX
  8
EBENE_1
 62
    39
  6
CONTINUOUS
 10
0.157812
 20
2.541998
  0
VERTEX
  8
EBENE_1
 62
    39
  6
CONTINUOUS
 10
0.144125
 20
2.550072
  0
VERTEX
  8
EBENE_1
 62
    39
  6
CONTINUOUS
 10
0.129298
 20
2.555643
  0
VERTEX
  8
EBENE_1
 62
    39
  6
CONTINUOUS
 10
0.113901
 20
2.558869
  0
VERTEX
  8
EBENE_1
 62
    39
  6
CONTINUOUS
 10
0.098504
 20
2.559909
  0
SEQEND
  8
0
  0
POLYLINE
  8
EBENE_1
 62
    39
  6
CONTINUOUS
 66
     1
 40
0.003000
 41
0.003000
  0
VERTEX
  8
EBENE_1
 62
    39
  6
CONTINUOUS
 10
0.098504
 20
2.559909
  0
VERTEX
  8
EBENE_1
 62
    39
  6
CONTINUOUS
 10
-0.114398
 20
2.511244
  0
SEQEND
  8
0
  0
POLYLINE
  8
EBENE_1
 62
    39
  6
CONTINUOUS
 66
     1
 40
0.003000
 41
0.003000
  0
VERTEX
  8
EBENE_1
 62
    39
  6
CONTINUOUS
 10
-0.114398
 20
2.511244
  0
VERTEX
  8
EBENE_1
 62
    39
  6
CONTINUOUS
 10
-0.138072
 20
2.508481
  0
VERTEX
  8
EBENE_1
 62
    39
  6
CONTINUOUS
 10
-0.156002
 20
2.501081
  0
VERTEX
  8
EBENE_1
 62
    39
  6
CONTINUOUS
 10
-0.169652
 20
2.490376
  0
VERTEX
  8
EBENE_1
 62
    39
  6
CONTINUOUS
 10
-0.180485
 20
2.477700
  0
VERTEX
  8
EBENE_1
 62
    39
  6
CONTINUOUS
 10
-0.189966
 20
2.464386
  0
VERTEX
  8
EBENE_1
 62
    39
  6
CONTINUOUS
 10
-0.199559
 20
2.451768
  0
SEQEND
  8
0
  0
POLYLINE
  8
EBENE_1
 62
    39
  6
CONTINUOUS
 66
     1
 40
0.003000
 41
0.003000
 70
     1
  0
VERTEX
  8
EBENE_1
 62
    39
  6
CONTINUOUS
 10
-0.200236
 20
2.460551
  0
VERTEX
  8
EBENE_1
 62
    39
  6
CONTINUOUS
 10
-0.291480
 20
2.186142
  0
VERTEX
  8
EBENE_1
 62
    39
  6
CONTINUOUS
 10
-0.075197
 20
2.187492
  0
VERTEX
  8
EBENE_1
 62
    39
  6
CONTINUOUS
 10
-0.066270
 20
2.188281
  0
VERTEX
  8
EBENE_1
 62
    39
  6
CONTINUOUS
 10
-0.056662
 20
2.190032
  0
VERTEX
  8
EBENE_1
 62
    39
  6
CONTINUOUS
 10
-0.046448
 20
2.192723
  0
VERTEX
  8
EBENE_1
 62
    39
  6
CONTINUOUS
 10
-0.035703
 20
2.196332
  0
VERTEX
  8
EBENE_1
 62
    39
  6
CONTINUOUS
 10
-0.024502
 20
2.200835
  0
VERTEX
  8
EBENE_1
 62
    39
  6
CONTINUOUS
 10
-0.012921
 20
2.206210
  0
VERTEX
  8
EBENE_1
 62
    39
  6
CONTINUOUS
 10
-0.001034
 20
2.212435
  0
VERTEX
  8
EBENE_1
 62
    39
  6
CONTINUOUS
 10
0.011083
 20
2.219487
  0
VERTEX
  8
EBENE_1
 62
    39
  6
CONTINUOUS
 10
0.023355
 20
2.227345
  0
VERTEX
  8
EBENE_1
 62
    39
  6
CONTINUOUS
 10
0.035707
 20
2.235985
  0
VERTEX
  8
EBENE_1
 62
    39
  6
CONTINUOUS
 10
0.048063
 20
2.245385
  0
VERTEX
  8
EBENE_1
 62
    39
  6
CONTINUOUS
 10
0.060348
 20
2.255523
  0
VERTEX
  8
EBENE_1
 62
    39
  6
CONTINUOUS
 10
0.072488
 20
2.266375
  0
VERTEX
  8
EBENE_1
 62
    39
  6
CONTINUOUS
 10
0.084407
 20
2.277921
  0
VERTEX
  8
EBENE_1
 62
    39
  6
CONTINUOUS
 10
0.096029
 20
2.290137
  0
VERTEX
  8
EBENE_1
 62
    39
  6
CONTINUOUS
 10
0.107280
 20
2.303000
  0
VERTEX
  8
EBENE_1
 62
    39
  6
CONTINUOUS
 10
0.118084
 20
2.316489
  0
VERTEX
  8
EBENE_1
 62
    39
  6
CONTINUOUS
 10
0.128367
 20
2.330580
  0
VERTEX
  8
EBENE_1
 62
    39
  6
CONTINUOUS
 10
0.138052
 20
2.345252
  0
VERTEX
  8
EBENE_1
 62
    39
  6
CONTINUOUS
 10
0.147065
 20
2.360482
  0
VERTEX
  8
EBENE_1
 62
    39
  6
CONTINUOUS
 10
0.155331
 20
2.376247
  0
VERTEX
  8
EBENE_1
 62
    39
  6
CONTINUOUS
 10
0.162774
 20
2.392526
  0
VERTEX
  8
EBENE_1
 62
    39
  6
CONTINUOUS
 10
0.169319
 20
2.409295
  0
VERTEX
  8
EBENE_1
 62
    39
  6
CONTINUOUS
 10
0.174891
 20
2.426532
  0
VERTEX
  8
EBENE_1
 62
    39
  6
CONTINUOUS
 10
0.179414
 20
2.444214
  0
VERTEX
  8
EBENE_1
 62
    39
  6
CONTINUOUS
 10
0.182814
 20
2.462320
  0
VERTEX
  8
EBENE_1
 62
    39
  6
CONTINUOUS
 10
0.185016
 20
2.480827
  0
VERTEX
  8
EBENE_1
 62
    39
  6
CONTINUOUS
 10
0.185016
 20
2.480827
  0
VERTEX
  8
EBENE_1
 62
    39
  6
CONTINUOUS
 10
0.181560
 20
2.502622
  0
VERTEX
  8
EBENE_1
 62
    39
  6
CONTINUOUS
 10
0.174911
 20
2.520609
  0
VERTEX
  8
EBENE_1
 62
    39
  6
CONTINUOUS
 10
0.165437
 20
2.534955
  0
VERTEX
  8
EBENE_1
 62
    39
  6
CONTINUOUS
 10
0.153504
 20
2.545825
  0
VERTEX
  8
EBENE_1
 62
    39
  6
CONTINUOUS
 10
0.139478
 20
2.553384
  0
VERTEX
  8
EBENE_1
 62
    39
  6
CONTINUOUS
 10
0.123726
 20
2.557798
  0
VERTEX
  8
EBENE_1
 62
    39
  6
CONTINUOUS
 10
0.106614
 20
2.559232
  0
VERTEX
  8
EBENE_1
 62
    39
  6
CONTINUOUS
 10
-0.106965
 20
2.514622
  0
VERTEX
  8
EBENE_1
 62
    39
  6
CONTINUOUS
 10
-0.134008
 20
2.509277
  0
VERTEX
  8
EBENE_1
 62
    39
  6
CONTINUOUS
 10
-0.153378
 20
2.502657
  0
VERTEX
  8
EBENE_1
 62
    39
  6
CONTINUOUS
 10
-0.166712
 20
2.495198
  0
VERTEX
  8
EBENE_1
 62
    39
  6
CONTINUOUS
 10
-0.175650
 20
2.487334
  0
VERTEX
  8
EBENE_1
 62
    39
  6
CONTINUOUS
 10
-0.181832
 20
2.479502
  0
VERTEX
  8
EBENE_1
 62
    39
  6
CONTINUOUS
 10
-0.186898
 20
2.472137
  0
VERTEX
  8
EBENE_1
 62
    39
  6
CONTINUOUS
 10
-0.192486
 20
2.465675
  0
SEQEND
  8
0
  0
POLYLINE
  8
EBENE_1
 62
    39
  6
CONTINUOUS
 66
     1
 40
0.003000
 41
0.003000
  0
VERTEX
  8
EBENE_1
 62
    39
  6
CONTINUOUS
 10
-0.064382
 20
2.501780
  0
VERTEX
  8
EBENE_1
 62
    39
  6
CONTINUOUS
 10
-0.067236
 20
2.500304
  0
VERTEX
  8
EBENE_1
 62
    39
  6
CONTINUOUS
 10
-0.068737
 20
2.497625
  0
VERTEX
  8
EBENE_1
 62
    39
  6
CONTINUOUS
 10
-0.068437
 20
2.494346
  0
SEQEND
  8
0
  0
POLYLINE
  8
EBENE_1
 62
    39
  6
CONTINUOUS
 66
     1
 40
0.003000
 41
0.003000
  0
VERTEX
  8
EBENE_1
 62
    39
  6
CONTINUOUS
 10
-0.068437
 20
2.494346
  0
VERTEX
  8
EBENE_1
 62
    39
  6
CONTINUOUS
 10
-0.066961
 20
2.491017
  0
VERTEX
  8
EBENE_1
 62
    39
  6
CONTINUOUS
 10
-0.064283
 20
2.489340
  0
VERTEX
  8
EBENE_1
 62
    39
  6
CONTINUOUS
 10
-0.061004
 20
2.489614
  0
SEQEND
  8
0
  0
POLYLINE
  8
EBENE_1
 62
    39
  6
CONTINUOUS
 66
     1
 40
0.003000
 41
0.003000
  0
VERTEX
  8
EBENE_1
 62
    39
  6
CONTINUOUS
 10
-0.061004
 20
2.489614
  0
VERTEX
  8
EBENE_1
 62
    39
  6
CONTINUOUS
 10
-0.057973
 20
2.491117
  0
VERTEX
  8
EBENE_1
 62
    39
  6
CONTINUOUS
 10
-0.056145
 20
2.493970
  0
VERTEX
  8
EBENE_1
 62
    39
  6
CONTINUOUS
 10
-0.056272
 20
2.497724
  0
SEQEND
  8
0
  0
POLYLINE
  8
EBENE_1
 62
    39
  6
CONTINUOUS
 66
     1
 40
0.003000
 41
0.003000
  0
VERTEX
  8
EBENE_1
 62
    39
  6
CONTINUOUS
 10
-0.056272
 20
2.497724
  0
VERTEX
  8
EBENE_1
 62
    39
  6
CONTINUOUS
 10
-0.057923
 20
2.500580
  0
VERTEX
  8
EBENE_1
 62
    39
  6
CONTINUOUS
 10
-0.060928
 20
2.502082
  0
VERTEX
  8
EBENE_1
 62
    39
  6
CONTINUOUS
 10
-0.064382
 20
2.501780
  0
SEQEND
  8
0
  0
POLYLINE
  8
EBENE_1
 62
    39
  6
CONTINUOUS
 66
     1
 40
0.003000
 41
0.003000
  0
VERTEX
  8
EBENE_1
 62
    39
  6
CONTINUOUS
 10
0.022130
 20
2.526791
  0
VERTEX
  8
EBENE_1
 62
    39
  6
CONTINUOUS
 10
0.019249
 20
2.525288
  0
VERTEX
  8
EBENE_1
 62
    39
  6
CONTINUOUS
 10
0.017572
 20
2.522433
  0
VERTEX
  8
EBENE_1
 62
    39
  6
CONTINUOUS
 10
0.017398
 20
2.518677
  0
SEQEND
  8
0
  0
POLYLINE
  8
EBENE_1
 62
    39
  6
CONTINUOUS
 66
     1
 40
0.003000
 41
0.003000
  0
VERTEX
  8
EBENE_1
 62
    39
  6
CONTINUOUS
 10
0.017398
 20
2.518677
  0
VERTEX
  8
EBENE_1
 62
    39
  6
CONTINUOUS
 10
0.019350
 20
2.515824
  0
VERTEX
  8
EBENE_1
 62
    39
  6
CONTINUOUS
 10
0.022204
 20
2.514323
  0
VERTEX
  8
EBENE_1
 62
    39
  6
CONTINUOUS
 10
0.025508
 20
2.514622
  0
SEQEND
  8
0
  0
POLYLINE
  8
EBENE_1
 62
    39
  6
CONTINUOUS
 66
     1
 40
0.003000
 41
0.003000
  0
VERTEX
  8
EBENE_1
 62
    39
  6
CONTINUOUS
 10
0.025508
 20
2.514622
  0
VERTEX
  8
EBENE_1
 62
    39
  6
CONTINUOUS
 10
0.028386
 20
2.516100
  0
VERTEX
  8
EBENE_1
 62
    39
  6
CONTINUOUS
 10
0.030063
 20
2.518778
  0
VERTEX
  8
EBENE_1
 62
    39
  6
CONTINUOUS
 10
0.030240
 20
2.522059
  0
SEQEND
  8
0
  0
POLYLINE
  8
EBENE_1
 62
    39
  6
CONTINUOUS
 66
     1
 40
0.003000
 41
0.003000
  0
VERTEX
  8
EBENE_1
 62
    39
  6
CONTINUOUS
 10
0.030240
 20
2.522059
  0
VERTEX
  8
EBENE_1
 62
    39
  6
CONTINUOUS
 10
0.028286
 20
2.525388
  0
VERTEX
  8
EBENE_1
 62
    39
  6
CONTINUOUS
 10
0.025433
 20
2.527066
  0
VERTEX
  8
EBENE_1
 62
    39
  6
CONTINUOUS
 10
0.022130
 20
2.526791
  0
SEQEND
  8
0
  0
POLYLINE
  8
EBENE_1
 62
    39
  6
CONTINUOUS
 66
     1
 40
0.003000
 41
0.003000
  0
VERTEX
  8
EBENE_1
 62
    39
  6
CONTINUOUS
 10
-0.135350
 20
2.453118
  0
VERTEX
  8
EBENE_1
 62
    39
  6
CONTINUOUS
 10
-0.138203
 20
2.451465
  0
VERTEX
  8
EBENE_1
 62
    39
  6
CONTINUOUS
 10
-0.139705
 20
2.448461
  0
VERTEX
  8
EBENE_1
 62
    39
  6
CONTINUOUS
 10
-0.139406
 20
2.445008
  0
SEQEND
  8
0
  0
POLYLINE
  8
EBENE_1
 62
    39
  6
CONTINUOUS
 66
     1
 40
0.003000
 41
0.003000
  0
VERTEX
  8
EBENE_1
 62
    39
  6
CONTINUOUS
 10
-0.139406
 20
2.445008
  0
VERTEX
  8
EBENE_1
 62
    39
  6
CONTINUOUS
 10
-0.137928
 20
2.442153
  0
VERTEX
  8
EBENE_1
 62
    39
  6
CONTINUOUS
 10
-0.135249
 20
2.440651
  0
VERTEX
  8
EBENE_1
 62
    39
  6
CONTINUOUS
 10
-0.131969
 20
2.440953
  0
SEQEND
  8
0
  0
POLYLINE
  8
EBENE_1
 62
    39
  6
CONTINUOUS
 66
     1
 40
0.003000
 41
0.003000
  0
VERTEX
  8
EBENE_1
 62
    39
  6
CONTINUOUS
 10
-0.131969
 20
2.440953
  0
VERTEX
  8
EBENE_1
 62
    39
  6
CONTINUOUS
 10
-0.128642
 20
2.442428
  0
VERTEX
  8
EBENE_1
 62
    39
  6
CONTINUOUS
 10
-0.126966
 20
2.445107
  0
VERTEX
  8
EBENE_1
 62
    39
  6
CONTINUOUS
 10
-0.127240
 20
2.448386
  0
SEQEND
  8
0
  0
POLYLINE
  8
EBENE_1
 62
    39
  6
CONTINUOUS
 66
     1
 40
0.003000
 41
0.003000
  0
VERTEX
  8
EBENE_1
 62
    39
  6
CONTINUOUS
 10
-0.127240
 20
2.448386
  0
VERTEX
  8
EBENE_1
 62
    39
  6
CONTINUOUS
 10
-0.128743
 20
2.451416
  0
VERTEX
  8
EBENE_1
 62
    39
  6
CONTINUOUS
 10
-0.131596
 20
2.453243
  0
VERTEX
  8
EBENE_1
 62
    39
  6
CONTINUOUS
 10
-0.135350
 20
2.453118
  0
SEQEND
  8
0
  0
POLYLINE
  8
EBENE_1
 62
    39
  6
CONTINUOUS
 66
     1
 40
0.003000
 41
0.003000
  0
VERTEX
  8
EBENE_1
 62
    39
  6
CONTINUOUS
 10
-0.403677
 20
2.409185
  0
VERTEX
  8
EBENE_1
 62
    39
  6
CONTINUOUS
 10
-0.471941
 20
2.184114
  0
VERTEX
  8
EBENE_1
 62
    39
  6
CONTINUOUS
 10
-0.274583
 20
2.181409
  0
SEQEND
  8
0
  0
POLYLINE
  8
EBENE_1
 62
    39
  6
CONTINUOUS
 66
     1
 40
0.003000
 41
0.003000
  0
VERTEX
  8
EBENE_1
 62
    39
  6
CONTINUOUS
 10
-0.274583
 20
2.181409
  0
VERTEX
  8
EBENE_1
 62
    39
  6
CONTINUOUS
 10
-0.266272
 20
2.182257
  0
VERTEX
  8
EBENE_1
 62
    39
  6
CONTINUOUS
 10
-0.257299
 20
2.184159
  0
VERTEX
  8
EBENE_1
 62
    39
  6
CONTINUOUS
 10
-0.247740
 20
2.187090
  0
VERTEX
  8
EBENE_1
 62
    39
  6
CONTINUOUS
 10
-0.237670
 20
2.191023
  0
VERTEX
  8
EBENE_1
 62
    39
  6
CONTINUOUS
 10
-0.227167
 20
2.195934
  0
VERTEX
  8
EBENE_1
 62
    39
  6
CONTINUOUS
 10
-0.216305
 20
2.201796
  0
VERTEX
  8
EBENE_1
 62
    39
  6
CONTINUOUS
 10
-0.205161
 20
2.208585
  0
VERTEX
  8
EBENE_1
 62
    39
  6
CONTINUOUS
 10
-0.193811
 20
2.216274
  0
VERTEX
  8
EBENE_1
 62
    39
  6
CONTINUOUS
 10
-0.182329
 20
2.224839
  0
VERTEX
  8
EBENE_1
 62
    39
  6
CONTINUOUS
 10
-0.170793
 20
2.234252
  0
VERTEX
  8
EBENE_1
 62
    39
  6
CONTINUOUS
 10
-0.159279
 20
2.244489
  0
VERTEX
  8
EBENE_1
 62
    39
  6
CONTINUOUS
 10
-0.147861
 20
2.255524
  0
VERTEX
  8
EBENE_1
 62
    39
  6
CONTINUOUS
 10
-0.136617
 20
2.267332
  0
VERTEX
  8
EBENE_1
 62
    39
  6
CONTINUOUS
 10
-0.125621
 20
2.279887
  0
VERTEX
  8
EBENE_1
 62
    39
  6
CONTINUOUS
 10
-0.114950
 20
2.293163
  0
VERTEX
  8
EBENE_1
 62
    39
  6
CONTINUOUS
 10
-0.104680
 20
2.307134
  0
VERTEX
  8
EBENE_1
 62
    39
  6
CONTINUOUS
 10
-0.094887
 20
2.321776
  0
VERTEX
  8
EBENE_1
 62
    39
  6
CONTINUOUS
 10
-0.085647
 20
2.337062
  0
VERTEX
  8
EBENE_1
 62
    39
  6
CONTINUOUS
 10
-0.077035
 20
2.352967
  0
VERTEX
  8
EBENE_1
 62
    39
  6
CONTINUOUS
 10
-0.069127
 20
2.369465
  0
VERTEX
  8
EBENE_1
 62
    39
  6
CONTINUOUS
 10
-0.061999
 20
2.386530
  0
VERTEX
  8
EBENE_1
 62
    39
  6
CONTINUOUS
 10
-0.055728
 20
2.404138
  0
VERTEX
  8
EBENE_1
 62
    39
  6
CONTINUOUS
 10
-0.050389
 20
2.422262
  0
VERTEX
  8
EBENE_1
 62
    39
  6
CONTINUOUS
 10
-0.046058
 20
2.440877
  0
VERTEX
  8
EBENE_1
 62
    39
  6
CONTINUOUS
 10
-0.042811
 20
2.459957
  0
VERTEX
  8
EBENE_1
 62
    39
  6
CONTINUOUS
 10
-0.040724
 20
2.479476
  0
SEQEND
  8
0
  0
POLYLINE
  8
EBENE_1
 62
    39
  6
CONTINUOUS
 66
     1
 40
0.003000
 41
0.003000
  0
VERTEX
  8
EBENE_1
 62
    39
  6
CONTINUOUS
 10
-0.040724
 20
2.479476
  0
VERTEX
  8
EBENE_1
 62
    39
  6
CONTINUOUS
 10
-0.044579
 20
2.498814
  0
VERTEX
  8
EBENE_1
 62
    39
  6
CONTINUOUS
 10
-0.052193
 20
2.509532
  0
VERTEX
  8
EBENE_1
 62
    39
  6
CONTINUOUS
 10
-0.062858
 20
2.513688
  0
VERTEX
  8
EBENE_1
 62
    39
  6
CONTINUOUS
 10
-0.075864
 20
2.513340
  0
VERTEX
  8
EBENE_1
 62
    39
  6
CONTINUOUS
 10
-0.090502
 20
2.510544
  0
VERTEX
  8
EBENE_1
 62
    39
  6
CONTINUOUS
 10
-0.106062
 20
2.507358
  0
VERTEX
  8
EBENE_1
 62
    39
  6
CONTINUOUS
 10
-0.121835
 20
2.505839
  0
SEQEND
  8
0
  0
POLYLINE
  8
EBENE_1
 62
    39
  6
CONTINUOUS
 66
     1
 40
0.003000
 41
0.003000
  0
VERTEX
  8
EBENE_1
 62
    39
  6
CONTINUOUS
 10
-0.121835
 20
2.505839
  0
VERTEX
  8
EBENE_1
 62
    39
  6
CONTINUOUS
 10
-0.342846
 20
2.452441
  0
SEQEND
  8
0
  0
POLYLINE
  8
EBENE_1
 62
    39
  6
CONTINUOUS
 66
     1
 40
0.003000
 41
0.003000
  0
VERTEX
  8
EBENE_1
 62
    39
  6
CONTINUOUS
 10
-0.342846
 20
2.452441
  0
VERTEX
  8
EBENE_1
 62
    39
  6
CONTINUOUS
 10
-0.366044
 20
2.450213
  0
VERTEX
  8
EBENE_1
 62
    39
  6
CONTINUOUS
 10
-0.379832
 20
2.444028
  0
VERTEX
  8
EBENE_1
 62
    39
  6
CONTINUOUS
 10
-0.388105
 20
2.434631
  0
VERTEX
  8
EBENE_1
 62
    39
  6
CONTINUOUS
 10
-0.394755
 20
2.422768
  0
VERTEX
  8
EBENE_1
 62
    39
  6
CONTINUOUS
 10
-0.403677
 20
2.409185
  0
SEQEND
  8
0
  0
POLYLINE
  8
EBENE_1
 62
    39
  6
CONTINUOUS
 66
     1
 40
0.003000
 41
0.003000
 70
     1
  0
VERTEX
  8
EBENE_1
 62
    39
  6
CONTINUOUS
 10
-0.405705
 20
2.416618
  0
VERTEX
  8
EBENE_1
 62
    39
  6
CONTINUOUS
 10
-0.469913
 20
2.192902
  0
VERTEX
  8
EBENE_1
 62
    39
  6
CONTINUOUS
 10
-0.271882
 20
2.190197
  0
VERTEX
  8
EBENE_1
 62
    39
  6
CONTINUOUS
 10
-0.263355
 20
2.191091
  0
VERTEX
  8
EBENE_1
 62
    39
  6
CONTINUOUS
 10
-0.254212
 20
2.193105
  0
VERTEX
  8
EBENE_1
 62
    39
  6
CONTINUOUS
 10
-0.244527
 20
2.196210
  0
VERTEX
  8
EBENE_1
 62
    39
  6
CONTINUOUS
 10
-0.234379
 20
2.200378
  0
VERTEX
  8
EBENE_1
 62
    39
  6
CONTINUOUS
 10
-0.223844
 20
2.205581
  0
VERTEX
  8
EBENE_1
 62
    39
  6
CONTINUOUS
 10
-0.212999
 20
2.211789
  0
VERTEX
  8
EBENE_1
 62
    39
  6
CONTINUOUS
 10
-0.201920
 20
2.218974
  0
VERTEX
  8
EBENE_1
 62
    39
  6
CONTINUOUS
 10
-0.190685
 20
2.227108
  0
VERTEX
  8
EBENE_1
 62
    39
  6
CONTINUOUS
 10
-0.179370
 20
2.236162
  0
VERTEX
  8
EBENE_1
 62
    39
  6
CONTINUOUS
 10
-0.168053
 20
2.246107
  0
VERTEX
  8
EBENE_1
 62
    39
  6
CONTINUOUS
 10
-0.156809
 20
2.256915
  0
VERTEX
  8
EBENE_1
 62
    39
  6
CONTINUOUS
 10
-0.145717
 20
2.268558
  0
VERTEX
  8
EBENE_1
 62
    39
  6
CONTINUOUS
 10
-0.134852
 20
2.281007
  0
VERTEX
  8
EBENE_1
 62
    39
  6
CONTINUOUS
 10
-0.124291
 20
2.294233
  0
VERTEX
  8
EBENE_1
 62
    39
  6
CONTINUOUS
 10
-0.114112
 20
2.308208
  0
VERTEX
  8
EBENE_1
 62
    39
  6
CONTINUOUS
 10
-0.104390
 20
2.322903
  0
VERTEX
  8
EBENE_1
 62
    39
  6
CONTINUOUS
 10
-0.095204
 20
2.338289
  0
VERTEX
  8
EBENE_1
 62
    39
  6
CONTINUOUS
 10
-0.086630
 20
2.354339
  0
VERTEX
  8
EBENE_1
 62
    39
  6
CONTINUOUS
 10
-0.078744
 20
2.371024
  0
VERTEX
  8
EBENE_1
 62
    39
  6
CONTINUOUS
 10
-0.071623
 20
2.388314
  0
VERTEX
  8
EBENE_1
 62
    39
  6
CONTINUOUS
 10
-0.065344
 20
2.406182
  0
VERTEX
  8
EBENE_1
 62
    39
  6
CONTINUOUS
 10
-0.059985
 20
2.424599
  0
VERTEX
  8
EBENE_1
 62
    39
  6
CONTINUOUS
 10
-0.055621
 20
2.443537
  0
VERTEX
  8
EBENE_1
 62
    39
  6
CONTINUOUS
 10
-0.052330
 20
2.462966
  0
VERTEX
  8
EBENE_1
 62
    39
  6
CONTINUOUS
 10
-0.050189
 20
2.482858
  0
VERTEX
  8
EBENE_1
 62
    39
  6
CONTINUOUS
 10
-0.050189
 20
2.482858
  0
VERTEX
  8
EBENE_1
 62
    39
  6
CONTINUOUS
 10
-0.053856
 20
2.501832
  0
VERTEX
  8
EBENE_1
 62
    39
  6
CONTINUOUS
 10
-0.060987
 20
2.512080
  0
VERTEX
  8
EBENE_1
 62
    39
  6
CONTINUOUS
 10
-0.070991
 20
2.515719
  0
VERTEX
  8
EBENE_1
 62
    39
  6
CONTINUOUS
 10
-0.083278
 20
2.514866
  0
VERTEX
  8
EBENE_1
 62
    39
  6
CONTINUOUS
 10
-0.097255
 20
2.511636
  0
VERTEX
  8
EBENE_1
 62
    39
  6
CONTINUOUS
 10
-0.112332
 20
2.508145
  0
VERTEX
  8
EBENE_1
 62
    39
  6
CONTINUOUS
 10
-0.127917
 20
2.506512
  0
VERTEX
  8
EBENE_1
 62
    39
  6
CONTINUOUS
 10
-0.350957
 20
2.460551
  0
VERTEX
  8
EBENE_1
 62
    39
  6
CONTINUOUS
 10
-0.380613
 20
2.450645
  0
VERTEX
  8
EBENE_1
 62
    39
  6
CONTINUOUS
 10
-0.397088
 20
2.435037
  0
VERTEX
  8
EBENE_1
 62
    39
  6
CONTINUOUS
 10
-0.404184
 20
2.421202
  0
SEQEND
  8
0
  0
POLYLINE
  8
EBENE_1
 62
    39
  6
CONTINUOUS
 66
     1
 40
0.003000
 41
0.003000
  0
VERTEX
  8
EBENE_1
 62
    39
  6
CONTINUOUS
 10
-0.170496
 20
2.480827
  0
VERTEX
  8
EBENE_1
 62
    39
  6
CONTINUOUS
 10
-0.173350
 20
2.479351
  0
VERTEX
  8
EBENE_1
 62
    39
  6
CONTINUOUS
 10
-0.174852
 20
2.476672
  0
VERTEX
  8
EBENE_1
 62
    39
  6
CONTINUOUS
 10
-0.174551
 20
2.473394
  0
SEQEND
  8
0
  0
POLYLINE
  8
EBENE_1
 62
    39
  6
CONTINUOUS
 66
     1
 40
0.003000
 41
0.003000
  0
VERTEX
  8
EBENE_1
 62
    39
  6
CONTINUOUS
 10
-0.174551
 20
2.473394
  0
VERTEX
  8
EBENE_1
 62
    39
  6
CONTINUOUS
 10
-0.173074
 20
2.470516
  0
VERTEX
  8
EBENE_1
 62
    39
  6
CONTINUOUS
 10
-0.170396
 20
2.468838
  0
VERTEX
  8
EBENE_1
 62
    39
  6
CONTINUOUS
 10
-0.167118
 20
2.468661
  0
SEQEND
  8
0
  0
POLYLINE
  8
EBENE_1
 62
    39
  6
CONTINUOUS
 66
     1
 40
0.003000
 41
0.003000
  0
VERTEX
  8
EBENE_1
 62
    39
  6
CONTINUOUS
 10
-0.167118
 20
2.468661
  0
VERTEX
  8
EBENE_1
 62
    39
  6
CONTINUOUS
 10
-0.163789
 20
2.470314
  0
VERTEX
  8
EBENE_1
 62
    39
  6
CONTINUOUS
 10
-0.162111
 20
2.473318
  0
VERTEX
  8
EBENE_1
 62
    39
  6
CONTINUOUS
 10
-0.162386
 20
2.476772
  0
SEQEND
  8
0
  0
POLYLINE
  8
EBENE_1
 62
    39
  6
CONTINUOUS
 66
     1
 40
0.003000
 41
0.003000
  0
VERTEX
  8
EBENE_1
 62
    39
  6
CONTINUOUS
 10
-0.162386
 20
2.476772
  0
VERTEX
  8
EBENE_1
 62
    39
  6
CONTINUOUS
 10
-0.163888
 20
2.479627
  0
VERTEX
  8
EBENE_1
 62
    39
  6
CONTINUOUS
 10
-0.166742
 20
2.481129
  0
VERTEX
  8
EBENE_1
 62
    39
  6
CONTINUOUS
 10
-0.170496
 20
2.480827
  0
SEQEND
  8
0
  0
POLYLINE
  8
EBENE_1
 62
    39
  6
CONTINUOUS
 66
     1
 40
0.003000
 41
0.003000
  0
VERTEX
  8
EBENE_1
 62
    39
  6
CONTINUOUS
 10
-0.275260
 20
2.455146
  0
VERTEX
  8
EBENE_1
 62
    39
  6
CONTINUOUS
 10
-0.278138
 20
2.453668
  0
VERTEX
  8
EBENE_1
 62
    39
  6
CONTINUOUS
 10
-0.279814
 20
2.450989
  0
VERTEX
  8
EBENE_1
 62
    39
  6
CONTINUOUS
 10
-0.279988
 20
2.447709
  0
SEQEND
  8
0
  0
POLYLINE
  8
EBENE_1
 62
    39
  6
CONTINUOUS
 66
     1
 40
0.003000
 41
0.003000
  0
VERTEX
  8
EBENE_1
 62
    39
  6
CONTINUOUS
 10
-0.279988
 20
2.447709
  0
VERTEX
  8
EBENE_1
 62
    39
  6
CONTINUOUS
 10
-0.278037
 20
2.444681
  0
VERTEX
  8
EBENE_1
 62
    39
  6
CONTINUOUS
 10
-0.275185
 20
2.442854
  0
VERTEX
  8
EBENE_1
 62
    39
  6
CONTINUOUS
 10
-0.271882
 20
2.442980
  0
SEQEND
  8
0
  0
POLYLINE
  8
EBENE_1
 62
    39
  6
CONTINUOUS
 66
     1
 40
0.003000
 41
0.003000
  0
VERTEX
  8
EBENE_1
 62
    39
  6
CONTINUOUS
 10
-0.271882
 20
2.442980
  0
VERTEX
  8
EBENE_1
 62
    39
  6
CONTINUOUS
 10
-0.269001
 20
2.444631
  0
VERTEX
  8
EBENE_1
 62
    39
  6
CONTINUOUS
 10
-0.267324
 20
2.447634
  0
VERTEX
  8
EBENE_1
 62
    39
  6
CONTINUOUS
 10
-0.267150
 20
2.451091
  0
SEQEND
  8
0
  0
POLYLINE
  8
EBENE_1
 62
    39
  6
CONTINUOUS
 66
     1
 40
0.003000
 41
0.003000
  0
VERTEX
  8
EBENE_1
 62
    39
  6
CONTINUOUS
 10
-0.267150
 20
2.451091
  0
VERTEX
  8
EBENE_1
 62
    39
  6
CONTINUOUS
 10
-0.268801
 20
2.453943
  0
VERTEX
  8
EBENE_1
 62
    39
  6
CONTINUOUS
 10
-0.271805
 20
2.455445
  0
VERTEX
  8
EBENE_1
 62
    39
  6
CONTINUOUS
 10
-0.275260
 20
2.455146
  0
SEQEND
  8
0
  0
POLYLINE
  8
EBENE_1
 62
    39
  6
CONTINUOUS
 66
     1
 40
0.003000
 41
0.003000
  0
VERTEX
  8
EBENE_1
 62
    39
  6
CONTINUOUS
 10
-0.356366
 20
2.415268
  0
VERTEX
  8
EBENE_1
 62
    39
  6
CONTINUOUS
 10
-0.359244
 20
2.413615
  0
VERTEX
  8
EBENE_1
 62
    39
  6
CONTINUOUS
 10
-0.360921
 20
2.410611
  0
VERTEX
  8
EBENE_1
 62
    39
  6
CONTINUOUS
 10
-0.361098
 20
2.407157
  0
SEQEND
  8
0
  0
POLYLINE
  8
EBENE_1
 62
    39
  6
CONTINUOUS
 66
     1
 40
0.003000
 41
0.003000
  0
VERTEX
  8
EBENE_1
 62
    39
  6
CONTINUOUS
 10
-0.361098
 20
2.407157
  0
VERTEX
  8
EBENE_1
 62
    39
  6
CONTINUOUS
 10
-0.359445
 20
2.404302
  0
VERTEX
  8
EBENE_1
 62
    39
  6
CONTINUOUS
 10
-0.356441
 20
2.402800
  0
VERTEX
  8
EBENE_1
 62
    39
  6
CONTINUOUS
 10
-0.352984
 20
2.403102
  0
SEQEND
  8
0
  0
POLYLINE
  8
EBENE_1
 62
    39
  6
CONTINUOUS
 66
     1
 40
0.003000
 41
0.003000
  0
VERTEX
  8
EBENE_1
 62
    39
  6
CONTINUOUS
 10
-0.352984
 20
2.403102
  0
VERTEX
  8
EBENE_1
 62
    39
  6
CONTINUOUS
 10
-0.350107
 20
2.404578
  0
VERTEX
  8
EBENE_1
 62
    39
  6
CONTINUOUS
 10
-0.348430
 20
2.407257
  0
VERTEX
  8
EBENE_1
 62
    39
  6
CONTINUOUS
 10
-0.348256
 20
2.410535
  0
SEQEND
  8
0
  0
POLYLINE
  8
EBENE_1
 62
    39
  6
CONTINUOUS
 66
     1
 40
0.003000
 41
0.003000
  0
VERTEX
  8
EBENE_1
 62
    39
  6
CONTINUOUS
 10
-0.348256
 20
2.410535
  0
VERTEX
  8
EBENE_1
 62
    39
  6
CONTINUOUS
 10
-0.350207
 20
2.413416
  0
VERTEX
  8
EBENE_1
 62
    39
  6
CONTINUOUS
 10
-0.353061
 20
2.415093
  0
VERTEX
  8
EBENE_1
 62
    39
  6
CONTINUOUS
 10
-0.356366
 20
2.415268
  0
SEQEND
  8
0
  0
POLYLINE
  8
EBENE_1
 62
    39
  6
CONTINUOUS
 66
     1
 40
0.003000
 41
0.003000
  0
VERTEX
  8
EBENE_1
 62
    39
  6
CONTINUOUS
 10
-0.591575
 20
2.365929
  0
VERTEX
  8
EBENE_1
 62
    39
  6
CONTINUOUS
 10
-0.645646
 20
2.183437
  0
VERTEX
  8
EBENE_1
 62
    39
  6
CONTINUOUS
 10
-0.450988
 20
2.184791
  0
SEQEND
  8
0
  0
POLYLINE
  8
EBENE_1
 62
    39
  6
CONTINUOUS
 66
     1
 40
0.003000
 41
0.003000
  0
VERTEX
  8
EBENE_1
 62
    39
  6
CONTINUOUS
 10
-0.450988
 20
2.184791
  0
VERTEX
  8
EBENE_1
 62
    39
  6
CONTINUOUS
 10
-0.441238
 20
2.185509
  0
VERTEX
  8
EBENE_1
 62
    39
  6
CONTINUOUS
 10
-0.431016
 20
2.186946
  0
VERTEX
  8
EBENE_1
 62
    39
  6
CONTINUOUS
 10
-0.420386
 20
2.189137
  0
VERTEX
  8
EBENE_1
 62
    39
  6
CONTINUOUS
 10
-0.409413
 20
2.192115
  0
VERTEX
  8
EBENE_1
 62
    39
  6
CONTINUOUS
 10
-0.398161
 20
2.195912
  0
VERTEX
  8
EBENE_1
 62
    39
  6
CONTINUOUS
 10
-0.386695
 20
2.200562
  0
VERTEX
  8
EBENE_1
 62
    39
  6
CONTINUOUS
 10
-0.375079
 20
2.206098
  0
VERTEX
  8
EBENE_1
 62
    39
  6
CONTINUOUS
 10
-0.363377
 20
2.212553
  0
VERTEX
  8
EBENE_1
 62
    39
  6
CONTINUOUS
 10
-0.351654
 20
2.219960
  0
VERTEX
  8
EBENE_1
 62
    39
  6
CONTINUOUS
 10
-0.339973
 20
2.228352
  0
VERTEX
  8
EBENE_1
 62
    39
  6
CONTINUOUS
 10
-0.328401
 20
2.237763
  0
VERTEX
  8
EBENE_1
 62
    39
  6
CONTINUOUS
 10
-0.316999
 20
2.248226
  0
VERTEX
  8
EBENE_1
 62
    39
  6
CONTINUOUS
 10
-0.305834
 20
2.259773
  0
VERTEX
  8
EBENE_1
 62
    39
  6
CONTINUOUS
 10
-0.294970
 20
2.272437
  0
VERTEX
  8
EBENE_1
 62
    39
  6
CONTINUOUS
 10
-0.284470
 20
2.286253
  0
VERTEX
  8
EBENE_1
 62
    39
  6
CONTINUOUS
 10
-0.274400
 20
2.301253
  0
VERTEX
  8
EBENE_1
 62
    39
  6
CONTINUOUS
 10
-0.264823
 20
2.317470
  0
VERTEX
  8
EBENE_1
 62
    39
  6
CONTINUOUS
 10
-0.255804
 20
2.334937
  0
VERTEX
  8
EBENE_1
 62
    39
  6
CONTINUOUS
 10
-0.247407
 20
2.353688
  0
VERTEX
  8
EBENE_1
 62
    39
  6
CONTINUOUS
 10
-0.239697
 20
2.373756
  0
VERTEX
  8
EBENE_1
 62
    39
  6
CONTINUOUS
 10
-0.232738
 20
2.395173
  0
VERTEX
  8
EBENE_1
 62
    39
  6
CONTINUOUS
 10
-0.226594
 20
2.417972
  0
SEQEND
  8
0
  0
POLYLINE
  8
EBENE_1
 62
    39
  6
CONTINUOUS
 66
     1
 40
0.003000
 41
0.003000
  0
VERTEX
  8
EBENE_1
 62
    39
  6
CONTINUOUS
 10
-0.226594
 20
2.417972
  0
VERTEX
  8
EBENE_1
 62
    39
  6
CONTINUOUS
 10
-0.229693
 20
2.441240
  0
VERTEX
  8
EBENE_1
 62
    39
  6
CONTINUOUS
 10
-0.235608
 20
2.455646
  0
VERTEX
  8
EBENE_1
 62
    39
  6
CONTINUOUS
 10
-0.244338
 20
2.463256
  0
VERTEX
  8
EBENE_1
 62
    39
  6
CONTINUOUS
 10
-0.255884
 20
2.466135
  0
VERTEX
  8
EBENE_1
 62
    39
  6
CONTINUOUS
 10
-0.270247
 20
2.466348
  0
VERTEX
  8
EBENE_1
 62
    39
  6
CONTINUOUS
 10
-0.287425
 20
2.465961
  0
SEQEND
  8
0
  0
POLYLINE
  8
EBENE_1
 62
    39
  6
CONTINUOUS
 66
     1
 40
0.003000
 41
0.003000
  0
VERTEX
  8
EBENE_1
 62
    39
  6
CONTINUOUS
 10
-0.287425
 20
2.465961
  0
VERTEX
  8
EBENE_1
 62
    39
  6
CONTINUOUS
 10
-0.511146
 20
2.411213
  0
SEQEND
  8
0
  0
POLYLINE
  8
EBENE_1
 62
    39
  6
CONTINUOUS
 66
     1
 40
0.003000
 41
0.003000
  0
VERTEX
  8
EBENE_1
 62
    39
  6
CONTINUOUS
 10
-0.511146
 20
2.411213
  0
VERTEX
  8
EBENE_1
 62
    39
  6
CONTINUOUS
 10
-0.537483
 20
2.405595
  0
VERTEX
  8
EBENE_1
 62
    39
  6
CONTINUOUS
 10
-0.556391
 20
2.398388
  0
VERTEX
  8
EBENE_1
 62
    39
  6
CONTINUOUS
 10
-0.570174
 20
2.389461
  0
VERTEX
  8
EBENE_1
 62
    39
  6
CONTINUOUS
 10
-0.581134
 20
2.378684
  0
VERTEX
  8
EBENE_1
 62
    39
  6
CONTINUOUS
 10
-0.591575
 20
2.365929
  0
SEQEND
  8
0
  0
POLYLINE
  8
EBENE_1
 62
    39
  6
CONTINUOUS
 66
     1
 40
0.003000
 41
0.003000
 70
     1
  0
VERTEX
  8
EBENE_1
 62
    39
  6
CONTINUOUS
 10
-0.592925
 20
2.364575
  0
VERTEX
  8
EBENE_1
 62
    39
  6
CONTINUOUS
 10
-0.644295
 20
2.188169
  0
VERTEX
  8
EBENE_1
 62
    39
  6
CONTINUOUS
 10
-0.452343
 20
2.189520
  0
VERTEX
  8
EBENE_1
 62
    39
  6
CONTINUOUS
 10
-0.442343
 20
2.190258
  0
VERTEX
  8
EBENE_1
 62
    39
  6
CONTINUOUS
 10
-0.431889
 20
2.191728
  0
VERTEX
  8
EBENE_1
 62
    39
  6
CONTINUOUS
 10
-0.421041
 20
2.193972
  0
VERTEX
  8
EBENE_1
 62
    39
  6
CONTINUOUS
 10
-0.409859
 20
2.197031
  0
VERTEX
  8
EBENE_1
 62
    39
  6
CONTINUOUS
 10
-0.398404
 20
2.200949
  0
VERTEX
  8
EBENE_1
 62
    39
  6
CONTINUOUS
 10
-0.386736
 20
2.205766
  0
VERTEX
  8
EBENE_1
 62
    39
  6
CONTINUOUS
 10
-0.374916
 20
2.211525
  0
VERTEX
  8
EBENE_1
 62
    39
  6
CONTINUOUS
 10
-0.363003
 20
2.218268
  0
VERTEX
  8
EBENE_1
 62
    39
  6
CONTINUOUS
 10
-0.351059
 20
2.226037
  0
VERTEX
  8
EBENE_1
 62
    39
  6
CONTINUOUS
 10
-0.339144
 20
2.234874
  0
VERTEX
  8
EBENE_1
 62
    39
  6
CONTINUOUS
 10
-0.327319
 20
2.244821
  0
VERTEX
  8
EBENE_1
 62
    39
  6
CONTINUOUS
 10
-0.315643
 20
2.255920
  0
VERTEX
  8
EBENE_1
 62
    39
  6
CONTINUOUS
 10
-0.304177
 20
2.268213
  0
VERTEX
  8
EBENE_1
 62
    39
  6
CONTINUOUS
 10
-0.292982
 20
2.281743
  0
VERTEX
  8
EBENE_1
 62
    39
  6
CONTINUOUS
 10
-0.282118
 20
2.296550
  0
VERTEX
  8
EBENE_1
 62
    39
  6
CONTINUOUS
 10
-0.271646
 20
2.312678
  0
VERTEX
  8
EBENE_1
 62
    39
  6
CONTINUOUS
 10
-0.261625
 20
2.330168
  0
VERTEX
  8
EBENE_1
 62
    39
  6
CONTINUOUS
 10
-0.252117
 20
2.349062
  0
VERTEX
  8
EBENE_1
 62
    39
  6
CONTINUOUS
 10
-0.243182
 20
2.369403
  0
VERTEX
  8
EBENE_1
 62
    39
  6
CONTINUOUS
 10
-0.234880
 20
2.391231
  0
VERTEX
  8
EBENE_1
 62
    39
  6
CONTINUOUS
 10
-0.227272
 20
2.414591
  0
VERTEX
  8
EBENE_1
 62
    39
  6
CONTINUOUS
 10
-0.230801
 20
2.437240
  0
VERTEX
  8
EBENE_1
 62
    39
  6
CONTINUOUS
 10
-0.237259
 20
2.451140
  0
VERTEX
  8
EBENE_1
 62
    39
  6
CONTINUOUS
 10
-0.246534
 20
2.458355
  0
VERTEX
  8
EBENE_1
 62
    39
  6
CONTINUOUS
 10
-0.258512
 20
2.460952
  0
VERTEX
  8
EBENE_1
 62
    39
  6
CONTINUOUS
 10
-0.273082
 20
2.460996
  0
VERTEX
  8
EBENE_1
 62
    39
  6
CONTINUOUS
 10
-0.290130
 20
2.460551
  0
VERTEX
  8
EBENE_1
 62
    39
  6
CONTINUOUS
 10
-0.529394
 20
2.407835
  0
VERTEX
  8
EBENE_1
 62
    39
  6
CONTINUOUS
 10
-0.552417
 20
2.405477
  0
VERTEX
  8
EBENE_1
 62
    39
  6
CONTINUOUS
 10
-0.566940
 20
2.399032
  0
VERTEX
  8
EBENE_1
 62
    39
  6
CONTINUOUS
 10
-0.576305
 20
2.389439
  0
VERTEX
  8
EBENE_1
 62
    39
  6
CONTINUOUS
 10
-0.583853
 20
2.377640
  0
SEQEND
  8
0
  0
POLYLINE
  8
EBENE_1
 62
    39
  6
CONTINUOUS
 66
     1
 40
0.003000
 41
0.003000
  0
VERTEX
  8
EBENE_1
 62
    39
  6
CONTINUOUS
 10
-0.482083
 20
2.410535
  0
VERTEX
  8
EBENE_1
 62
    39
  6
CONTINUOUS
 10
-0.484960
 20
2.408583
  0
VERTEX
  8
EBENE_1
 62
    39
  6
CONTINUOUS
 10
-0.486637
 20
2.405729
  0
VERTEX
  8
EBENE_1
 62
    39
  6
CONTINUOUS
 10
-0.486811
 20
2.402425
  0
SEQEND
  8
0
  0
POLYLINE
  8
EBENE_1
 62
    39
  6
CONTINUOUS
 66
     1
 40
0.003000
 41
0.003000
  0
VERTEX
  8
EBENE_1
 62
    39
  6
CONTINUOUS
 10
-0.486811
 20
2.402425
  0
VERTEX
  8
EBENE_1
 62
    39
  6
CONTINUOUS
 10
-0.484860
 20
2.399547
  0
VERTEX
  8
EBENE_1
 62
    39
  6
CONTINUOUS
 10
-0.482006
 20
2.397870
  0
VERTEX
  8
EBENE_1
 62
    39
  6
CONTINUOUS
 10
-0.478701
 20
2.397693
  0
SEQEND
  8
0
  0
POLYLINE
  8
EBENE_1
 62
    39
  6
CONTINUOUS
 66
     1
 40
0.003000
 41
0.003000
  0
VERTEX
  8
EBENE_1
 62
    39
  6
CONTINUOUS
 10
-0.478701
 20
2.397693
  0
VERTEX
  8
EBENE_1
 62
    39
  6
CONTINUOUS
 10
-0.475823
 20
2.399346
  0
VERTEX
  8
EBENE_1
 62
    39
  6
CONTINUOUS
 10
-0.474146
 20
2.402350
  0
VERTEX
  8
EBENE_1
 62
    39
  6
CONTINUOUS
 10
-0.473969
 20
2.405803
  0
SEQEND
  8
0
  0
POLYLINE
  8
EBENE_1
 62
    39
  6
CONTINUOUS
 66
     1
 40
0.003000
 41
0.003000
  0
VERTEX
  8
EBENE_1
 62
    39
  6
CONTINUOUS
 10
-0.473969
 20
2.405803
  0
VERTEX
  8
EBENE_1
 62
    39
  6
CONTINUOUS
 10
-0.475622
 20
2.408684
  0
VERTEX
  8
EBENE_1
 62
    39
  6
CONTINUOUS
 10
-0.478626
 20
2.410361
  0
VERTEX
  8
EBENE_1
 62
    39
  6
CONTINUOUS
 10
-0.482083
 20
2.410535
  0
SEQEND
  8
0
  0
POLYLINE
  8
EBENE_1
 62
    39
  6
CONTINUOUS
 66
     1
 40
0.003000
 41
0.003000
  0
VERTEX
  8
EBENE_1
 62
    39
  6
CONTINUOUS
 10
-0.567244
 20
2.367280
  0
VERTEX
  8
EBENE_1
 62
    39
  6
CONTINUOUS
 10
-0.570122
 20
2.365777
  0
VERTEX
  8
EBENE_1
 62
    39
  6
CONTINUOUS
 10
-0.571799
 20
2.362924
  0
VERTEX
  8
EBENE_1
 62
    39
  6
CONTINUOUS
 10
-0.571976
 20
2.359169
  0
SEQEND
  8
0
  0
POLYLINE
  8
EBENE_1
 62
    39
  6
CONTINUOUS
 66
     1
 40
0.003000
 41
0.003000
  0
VERTEX
  8
EBENE_1
 62
    39
  6
CONTINUOUS
 10
-0.571976
 20
2.359169
  0
VERTEX
  8
EBENE_1
 62
    39
  6
CONTINUOUS
 10
-0.570323
 20
2.356317
  0
VERTEX
  8
EBENE_1
 62
    39
  6
CONTINUOUS
 10
-0.567318
 20
2.354815
  0
VERTEX
  8
EBENE_1
 62
    39
  6
CONTINUOUS
 10
-0.563862
 20
2.355114
  0
SEQEND
  8
0
  0
POLYLINE
  8
EBENE_1
 62
    39
  6
CONTINUOUS
 66
     1
 40
0.003000
 41
0.003000
  0
VERTEX
  8
EBENE_1
 62
    39
  6
CONTINUOUS
 10
-0.563862
 20
2.355114
  0
VERTEX
  8
EBENE_1
 62
    39
  6
CONTINUOUS
 10
-0.561009
 20
2.356592
  0
VERTEX
  8
EBENE_1
 62
    39
  6
CONTINUOUS
 10
-0.559508
 20
2.359269
  0
VERTEX
  8
EBENE_1
 62
    39
  6
CONTINUOUS
 10
-0.559807
 20
2.362547
  0
SEQEND
  8
0
  0
POLYLINE
  8
EBENE_1
 62
    39
  6
CONTINUOUS
 66
     1
 40
0.003000
 41
0.003000
  0
VERTEX
  8
EBENE_1
 62
    39
  6
CONTINUOUS
 10
-0.559807
 20
2.362547
  0
VERTEX
  8
EBENE_1
 62
    39
  6
CONTINUOUS
 10
-0.561285
 20
2.365577
  0
VERTEX
  8
EBENE_1
 62
    39
  6
CONTINUOUS
 10
-0.563963
 20
2.367404
  0
VERTEX
  8
EBENE_1
 62
    39
  6
CONTINUOUS
 10
-0.567244
 20
2.367280
  0
SEQEND
  8
0
  0
POLYLINE
  8
EBENE_1
 62
    39
  6
CONTINUOUS
 66
     1
 40
0.003000
 41
0.003000
  0
VERTEX
  8
EBENE_1
 62
    39
  6
CONTINUOUS
 10
-0.396244
 20
2.425406
  0
VERTEX
  8
EBENE_1
 62
    39
  6
CONTINUOUS
 10
-0.399122
 20
2.423453
  0
VERTEX
  8
EBENE_1
 62
    39
  6
CONTINUOUS
 10
-0.400799
 20
2.420599
  0
VERTEX
  8
EBENE_1
 62
    39
  6
CONTINUOUS
 10
-0.400976
 20
2.417295
  0
SEQEND
  8
0
  0
POLYLINE
  8
EBENE_1
 62
    39
  6
CONTINUOUS
 66
     1
 40
0.003000
 41
0.003000
  0
VERTEX
  8
EBENE_1
 62
    39
  6
CONTINUOUS
 10
-0.400976
 20
2.417295
  0
VERTEX
  8
EBENE_1
 62
    39
  6
CONTINUOUS
 10
-0.399022
 20
2.414417
  0
VERTEX
  8
EBENE_1
 62
    39
  6
CONTINUOUS
 10
-0.396168
 20
2.412740
  0
VERTEX
  8
EBENE_1
 62
    39
  6
CONTINUOUS
 10
-0.392862
 20
2.412563
  0
SEQEND
  8
0
  0
POLYLINE
  8
EBENE_1
 62
    39
  6
CONTINUOUS
 66
     1
 40
0.003000
 41
0.003000
  0
VERTEX
  8
EBENE_1
 62
    39
  6
CONTINUOUS
 10
-0.392862
 20
2.412563
  0
VERTEX
  8
EBENE_1
 62
    39
  6
CONTINUOUS
 10
-0.389985
 20
2.414216
  0
VERTEX
  8
EBENE_1
 62
    39
  6
CONTINUOUS
 10
-0.388308
 20
2.417220
  0
VERTEX
  8
EBENE_1
 62
    39
  6
CONTINUOUS
 10
-0.388134
 20
2.420673
  0
SEQEND
  8
0
  0
POLYLINE
  8
EBENE_1
 62
    39
  6
CONTINUOUS
 66
     1
 40
0.003000
 41
0.003000
  0
VERTEX
  8
EBENE_1
 62
    39
  6
CONTINUOUS
 10
-0.388134
 20
2.420673
  0
VERTEX
  8
EBENE_1
 62
    39
  6
CONTINUOUS
 10
-0.389784
 20
2.423554
  0
VERTEX
  8
EBENE_1
 62
    39
  6
CONTINUOUS
 10
-0.392788
 20
2.425231
  0
VERTEX
  8
EBENE_1
 62
    39
  6
CONTINUOUS
 10
-0.396244
 20
2.425406
  0
SEQEND
  8
0
  0
POLYLINE
  8
EBENE_1
 62
    39
  6
CONTINUOUS
 66
     1
 40
0.003000
 41
0.003000
  0
VERTEX
  8
EBENE_1
 62
    39
  6
CONTINUOUS
 10
-0.802453
 20
2.323346
  0
VERTEX
  8
EBENE_1
 62
    39
  6
CONTINUOUS
 10
-0.843681
 20
2.179382
  0
VERTEX
  8
EBENE_1
 62
    39
  6
CONTINUOUS
 10
-0.648350
 20
2.180732
  0
SEQEND
  8
0
  0
POLYLINE
  8
EBENE_1
 62
    39
  6
CONTINUOUS
 66
     1
 40
0.003000
 41
0.003000
  0
VERTEX
  8
EBENE_1
 62
    39
  6
CONTINUOUS
 10
-0.648350
 20
2.180732
  0
VERTEX
  8
EBENE_1
 62
    39
  6
CONTINUOUS
 10
-0.637373
 20
2.181368
  0
VERTEX
  8
EBENE_1
 62
    39
  6
CONTINUOUS
 10
-0.626416
 20
2.182491
  0
VERTEX
  8
EBENE_1
 62
    39
  6
CONTINUOUS
 10
-0.615467
 20
2.184206
  0
VERTEX
  8
EBENE_1
 62
    39
  6
CONTINUOUS
 10
-0.604512
 20
2.186619
  0
VERTEX
  8
EBENE_1
 62
    39
  6
CONTINUOUS
 10
-0.593540
 20
2.189834
  0
VERTEX
  8
EBENE_1
 62
    39
  6
CONTINUOUS
 10
-0.582536
 20
2.193958
  0
VERTEX
  8
EBENE_1
 62
    39
  6
CONTINUOUS
 10
-0.571487
 20
2.199096
  0
VERTEX
  8
EBENE_1
 62
    39
  6
CONTINUOUS
 10
-0.560382
 20
2.205351
  0
VERTEX
  8
EBENE_1
 62
    39
  6
CONTINUOUS
 10
-0.549206
 20
2.212831
  0
VERTEX
  8
EBENE_1
 62
    39
  6
CONTINUOUS
 10
-0.537946
 20
2.221640
  0
VERTEX
  8
EBENE_1
 62
    39
  6
CONTINUOUS
 10
-0.526590
 20
2.231883
  0
VERTEX
  8
EBENE_1
 62
    39
  6
CONTINUOUS
 10
-0.515125
 20
2.243666
  0
VERTEX
  8
EBENE_1
 62
    39
  6
CONTINUOUS
 10
-0.503538
 20
2.257094
  0
VERTEX
  8
EBENE_1
 62
    39
  6
CONTINUOUS
 10
-0.491815
 20
2.272272
  0
VERTEX
  8
EBENE_1
 62
    39
  6
CONTINUOUS
 10
-0.479943
 20
2.289305
  0
VERTEX
  8
EBENE_1
 62
    39
  6
CONTINUOUS
 10
-0.467910
 20
2.308298
  0
VERTEX
  8
EBENE_1
 62
    39
  6
CONTINUOUS
 10
-0.455703
 20
2.329357
  0
VERTEX
  8
EBENE_1
 62
    39
  6
CONTINUOUS
 10
-0.443308
 20
2.352588
  0
VERTEX
  8
EBENE_1
 62
    39
  6
CONTINUOUS
 10
-0.430713
 20
2.378094
  0
SEQEND
  8
0
  0
POLYLINE
  8
EBENE_1
 62
    39
  6
CONTINUOUS
 66
     1
 40
0.003000
 41
0.003000
  0
VERTEX
  8
EBENE_1
 62
    39
  6
CONTINUOUS
 10
-0.430713
 20
2.378094
  0
VERTEX
  8
EBENE_1
 62
    39
  6
CONTINUOUS
 10
-0.433829
 20
2.398031
  0
VERTEX
  8
EBENE_1
 62
    39
  6
CONTINUOUS
 10
-0.440009
 20
2.410293
  0
VERTEX
  8
EBENE_1
 62
    39
  6
CONTINUOUS
 10
-0.448837
 20
2.416561
  0
VERTEX
  8
EBENE_1
 62
    39
  6
CONTINUOUS
 10
-0.459900
 20
2.418514
  0
VERTEX
  8
EBENE_1
 62
    39
  6
CONTINUOUS
 10
-0.472783
 20
2.417830
  0
VERTEX
  8
EBENE_1
 62
    39
  6
CONTINUOUS
 10
-0.487074
 20
2.416188
  0
VERTEX
  8
EBENE_1
 62
    39
  6
CONTINUOUS
 10
-0.502358
 20
2.415268
  0
SEQEND
  8
0
  0
POLYLINE
  8
EBENE_1
 62
    39
  6
CONTINUOUS
 66
     1
 40
0.003000
 41
0.003000
  0
VERTEX
  8
EBENE_1
 62
    39
  6
CONTINUOUS
 10
-0.502358
 20
2.415268
  0
VERTEX
  8
EBENE_1
 62
    39
  6
CONTINUOUS
 10
-0.716614
 20
2.365252
  0
SEQEND
  8
0
  0
POLYLINE
  8
EBENE_1
 62
    39
  6
CONTINUOUS
 66
     1
 40
0.003000
 41
0.003000
  0
VERTEX
  8
EBENE_1
 62
    39
  6
CONTINUOUS
 10
-0.716614
 20
2.365252
  0
VERTEX
  8
EBENE_1
 62
    39
  6
CONTINUOUS
 10
-0.743514
 20
2.359986
  0
VERTEX
  8
EBENE_1
 62
    39
  6
CONTINUOUS
 10
-0.763763
 20
2.353616
  0
VERTEX
  8
EBENE_1
 62
    39
  6
CONTINUOUS
 10
-0.779146
 20
2.345689
  0
VERTEX
  8
EBENE_1
 62
    39
  6
CONTINUOUS
 10
-0.791448
 20
2.335750
  0
VERTEX
  8
EBENE_1
 62
    39
  6
CONTINUOUS
 10
-0.802453
 20
2.323346
  0
SEQEND
  8
0
  0
POLYLINE
  8
EBENE_1
 62
    39
  6
CONTINUOUS
 66
     1
 40
0.003000
 41
0.003000
 70
     1
  0
VERTEX
  8
EBENE_1
 62
    39
  6
CONTINUOUS
 10
-0.803803
 20
2.319291
  0
VERTEX
  8
EBENE_1
 62
    39
  6
CONTINUOUS
 10
-0.841654
 20
2.183437
  0
VERTEX
  8
EBENE_1
 62
    39
  6
CONTINUOUS
 10
-0.643618
 20
2.184791
  0
VERTEX
  8
EBENE_1
 62
    39
  6
CONTINUOUS
 10
-0.632551
 20
2.185388
  0
VERTEX
  8
EBENE_1
 62
    39
  6
CONTINUOUS
 10
-0.621537
 20
2.186399
  0
VERTEX
  8
EBENE_1
 62
    39
  6
CONTINUOUS
 10
-0.610561
 20
2.187936
  0
VERTEX
  8
EBENE_1
 62
    39
  6
CONTINUOUS
 10
-0.599611
 20
2.190110
  0
VERTEX
  8
EBENE_1
 62
    39
  6
CONTINUOUS
 10
-0.588671
 20
2.193031
  0
VERTEX
  8
EBENE_1
 62
    39
  6
CONTINUOUS
 10
-0.577728
 20
2.196812
  0
VERTEX
  8
EBENE_1
 62
    39
  6
CONTINUOUS
 10
-0.566767
 20
2.201563
  0
VERTEX
  8
EBENE_1
 62
    39
  6
CONTINUOUS
 10
-0.555773
 20
2.207395
  0
VERTEX
  8
EBENE_1
 62
    39
  6
CONTINUOUS
 10
-0.544734
 20
2.214420
  0
VERTEX
  8
EBENE_1
 62
    39
  6
CONTINUOUS
 10
-0.533635
 20
2.222749
  0
VERTEX
  8
EBENE_1
 62
    39
  6
CONTINUOUS
 10
-0.522461
 20
2.232493
  0
VERTEX
  8
EBENE_1
 62
    39
  6
CONTINUOUS
 10
-0.511198
 20
2.243763
  0
VERTEX
  8
EBENE_1
 62
    39
  6
CONTINUOUS
 10
-0.499832
 20
2.256669
  0
VERTEX
  8
EBENE_1
 62
    39
  6
CONTINUOUS
 10
-0.488350
 20
2.271325
  0
VERTEX
  8
EBENE_1
 62
    39
  6
CONTINUOUS
 10
-0.476736
 20
2.287839
  0
VERTEX
  8
EBENE_1
 62
    39
  6
CONTINUOUS
 10
-0.464977
 20
2.306325
  0
VERTEX
  8
EBENE_1
 62
    39
  6
CONTINUOUS
 10
-0.453058
 20
2.326892
  0
VERTEX
  8
EBENE_1
 62
    39
  6
CONTINUOUS
 10
-0.440966
 20
2.349652
  0
VERTEX
  8
EBENE_1
 62
    39
  6
CONTINUOUS
 10
-0.428685
 20
2.374717
  0
VERTEX
  8
EBENE_1
 62
    39
  6
CONTINUOUS
 10
-0.428685
 20
2.374717
  0
VERTEX
  8
EBENE_1
 62
    39
  6
CONTINUOUS
 10
-0.427578
 20
2.395690
  0
VERTEX
  8
EBENE_1
 62
    39
  6
CONTINUOUS
 10
-0.431315
 20
2.408008
  0
VERTEX
  8
EBENE_1
 62
    39
  6
CONTINUOUS
 10
-0.439332
 20
2.413832
  0
VERTEX
  8
EBENE_1
 62
    39
  6
CONTINUOUS
 10
-0.451066
 20
2.415318
  0
VERTEX
  8
EBENE_1
 62
    39
  6
CONTINUOUS
 10
-0.465954
 20
2.414627
  0
VERTEX
  8
EBENE_1
 62
    39
  6
CONTINUOUS
 10
-0.483433
 20
2.413917
  0
VERTEX
  8
EBENE_1
 62
    39
  6
CONTINUOUS
 10
-0.742299
 20
2.357142
  0
VERTEX
  8
EBENE_1
 62
    39
  6
CONTINUOUS
 10
-0.770063
 20
2.354364
  0
VERTEX
  8
EBENE_1
 62
    39
  6
CONTINUOUS
 10
-0.784456
 20
2.346580
  0
VERTEX
  8
EBENE_1
 62
    39
  6
CONTINUOUS
 10
-0.793147
 20
2.334615
  0
SEQEND
  8
0
  0
POLYLINE
  8
EBENE_1
 62
    39
  6
CONTINUOUS
 66
     1
 40
0.003000
 41
0.003000
  0
VERTEX
  8
EBENE_1
 62
    39
  6
CONTINUOUS
 10
-0.682819
 20
2.355791
  0
VERTEX
  8
EBENE_1
 62
    39
  6
CONTINUOUS
 10
-0.685699
 20
2.353837
  0
VERTEX
  8
EBENE_1
 62
    39
  6
CONTINUOUS
 10
-0.687377
 20
2.350983
  0
VERTEX
  8
EBENE_1
 62
    39
  6
CONTINUOUS
 10
-0.687551
 20
2.347677
  0
SEQEND
  8
0
  0
POLYLINE
  8
EBENE_1
 62
    39
  6
CONTINUOUS
 66
     1
 40
0.003000
 41
0.003000
  0
VERTEX
  8
EBENE_1
 62
    39
  6
CONTINUOUS
 10
-0.687551
 20
2.347677
  0
VERTEX
  8
EBENE_1
 62
    39
  6
CONTINUOUS
 10
-0.685898
 20
2.344800
  0
VERTEX
  8
EBENE_1
 62
    39
  6
CONTINUOUS
 10
-0.682894
 20
2.343123
  0
VERTEX
  8
EBENE_1
 62
    39
  6
CONTINUOUS
 10
-0.679441
 20
2.342949
  0
SEQEND
  8
0
  0
POLYLINE
  8
EBENE_1
 62
    39
  6
CONTINUOUS
 66
     1
 40
0.003000
 41
0.003000
  0
VERTEX
  8
EBENE_1
 62
    39
  6
CONTINUOUS
 10
-0.679441
 20
2.342949
  0
VERTEX
  8
EBENE_1
 62
    39
  6
CONTINUOUS
 10
-0.676411
 20
2.344599
  0
VERTEX
  8
EBENE_1
 62
    39
  6
CONTINUOUS
 10
-0.674584
 20
2.347603
  0
VERTEX
  8
EBENE_1
 62
    39
  6
CONTINUOUS
 10
-0.674709
 20
2.351059
  0
SEQEND
  8
0
  0
POLYLINE
  8
EBENE_1
 62
    39
  6
CONTINUOUS
 66
     1
 40
0.003000
 41
0.003000
  0
VERTEX
  8
EBENE_1
 62
    39
  6
CONTINUOUS
 10
-0.674709
 20
2.351059
  0
VERTEX
  8
EBENE_1
 62
    39
  6
CONTINUOUS
 10
-0.676362
 20
2.353937
  0
VERTEX
  8
EBENE_1
 62
    39
  6
CONTINUOUS
 10
-0.679365
 20
2.355614
  0
VERTEX
  8
EBENE_1
 62
    39
  6
CONTINUOUS
 10
-0.682819
 20
2.355791
  0
SEQEND
  8
0
  0
POLYLINE
  8
EBENE_1
 62
    39
  6
CONTINUOUS
 66
     1
 40
0.003000
 41
0.003000
  0
VERTEX
  8
EBENE_1
 62
    39
  6
CONTINUOUS
 10
-0.773390
 20
2.323346
  0
VERTEX
  8
EBENE_1
 62
    39
  6
CONTINUOUS
 10
-0.776719
 20
2.321846
  0
VERTEX
  8
EBENE_1
 62
    39
  6
CONTINUOUS
 10
-0.778395
 20
2.318992
  0
VERTEX
  8
EBENE_1
 62
    39
  6
CONTINUOUS
 10
-0.778118
 20
2.315236
  0
SEQEND
  8
0
  0
POLYLINE
  8
EBENE_1
 62
    39
  6
CONTINUOUS
 66
     1
 40
0.003000
 41
0.003000
  0
VERTEX
  8
EBENE_1
 62
    39
  6
CONTINUOUS
 10
-0.778118
 20
2.315236
  0
VERTEX
  8
EBENE_1
 62
    39
  6
CONTINUOUS
 10
-0.776617
 20
2.312383
  0
VERTEX
  8
EBENE_1
 62
    39
  6
CONTINUOUS
 10
-0.773763
 20
2.310880
  0
VERTEX
  8
EBENE_1
 62
    39
  6
CONTINUOUS
 10
-0.770008
 20
2.311181
  0
SEQEND
  8
0
  0
POLYLINE
  8
EBENE_1
 62
    39
  6
CONTINUOUS
 66
     1
 40
0.003000
 41
0.003000
  0
VERTEX
  8
EBENE_1
 62
    39
  6
CONTINUOUS
 10
-0.770008
 20
2.311181
  0
VERTEX
  8
EBENE_1
 62
    39
  6
CONTINUOUS
 10
-0.767130
 20
2.312659
  0
VERTEX
  8
EBENE_1
 62
    39
  6
CONTINUOUS
 10
-0.765453
 20
2.315336
  0
VERTEX
  8
EBENE_1
 62
    39
  6
CONTINUOUS
 10
-0.765276
 20
2.318614
  0
SEQEND
  8
0
  0
POLYLINE
  8
EBENE_1
 62
    39
  6
CONTINUOUS
 66
     1
 40
0.003000
 41
0.003000
  0
VERTEX
  8
EBENE_1
 62
    39
  6
CONTINUOUS
 10
-0.765276
 20
2.318614
  0
VERTEX
  8
EBENE_1
 62
    39
  6
CONTINUOUS
 10
-0.767230
 20
2.321945
  0
VERTEX
  8
EBENE_1
 62
    39
  6
CONTINUOUS
 10
-0.770084
 20
2.323622
  0
VERTEX
  8
EBENE_1
 62
    39
  6
CONTINUOUS
 10
-0.773390
 20
2.323346
  0
SEQEND
  8
0
  0
POLYLINE
  8
EBENE_1
 62
    39
  6
CONTINUOUS
 66
     1
 40
0.003000
 41
0.003000
  0
VERTEX
  8
EBENE_1
 62
    39
  6
CONTINUOUS
 10
-0.594280
 20
2.376067
  0
VERTEX
  8
EBENE_1
 62
    39
  6
CONTINUOUS
 10
-0.597157
 20
2.374115
  0
VERTEX
  8
EBENE_1
 62
    39
  6
CONTINUOUS
 10
-0.598834
 20
2.371261
  0
VERTEX
  8
EBENE_1
 62
    39
  6
CONTINUOUS
 10
-0.599008
 20
2.367957
  0
SEQEND
  8
0
  0
POLYLINE
  8
EBENE_1
 62
    39
  6
CONTINUOUS
 66
     1
 40
0.003000
 41
0.003000
  0
VERTEX
  8
EBENE_1
 62
    39
  6
CONTINUOUS
 10
-0.599008
 20
2.367957
  0
VERTEX
  8
EBENE_1
 62
    39
  6
CONTINUOUS
 10
-0.597358
 20
2.365076
  0
VERTEX
  8
EBENE_1
 62
    39
  6
CONTINUOUS
 10
-0.594354
 20
2.363399
  0
VERTEX
  8
EBENE_1
 62
    39
  6
CONTINUOUS
 10
-0.590898
 20
2.363224
  0
SEQEND
  8
0
  0
POLYLINE
  8
EBENE_1
 62
    39
  6
CONTINUOUS
 66
     1
 40
0.003000
 41
0.003000
  0
VERTEX
  8
EBENE_1
 62
    39
  6
CONTINUOUS
 10
-0.590898
 20
2.363224
  0
VERTEX
  8
EBENE_1
 62
    39
  6
CONTINUOUS
 10
-0.587869
 20
2.364877
  0
VERTEX
  8
EBENE_1
 62
    39
  6
CONTINUOUS
 10
-0.586043
 20
2.367881
  0
VERTEX
  8
EBENE_1
 62
    39
  6
CONTINUOUS
 10
-0.586169
 20
2.371335
  0
SEQEND
  8
0
  0
POLYLINE
  8
EBENE_1
 62
    39
  6
CONTINUOUS
 66
     1
 40
0.003000
 41
0.003000
  0
VERTEX
  8
EBENE_1
 62
    39
  6
CONTINUOUS
 10
-0.586169
 20
2.371335
  0
VERTEX
  8
EBENE_1
 62
    39
  6
CONTINUOUS
 10
-0.587820
 20
2.374215
  0
VERTEX
  8
EBENE_1
 62
    39
  6
CONTINUOUS
 10
-0.590823
 20
2.375893
  0
VERTEX
  8
EBENE_1
 62
    39
  6
CONTINUOUS
 10
-0.594280
 20
2.376067
  0
SEQEND
  8
0
  0
POLYLINE
  8
EBENE_1
 62
    39
  6
CONTINUOUS
 66
     1
 40
0.003000
 41
0.003000
 70
     1
  0
VERTEX
  8
EBENE_1
 62
    39
  6
CONTINUOUS
 10
0.515528
 20
2.584240
  0
VERTEX
  8
EBENE_1
 62
    39
  6
CONTINUOUS
 10
0.703421
 20
2.276709
  0
VERTEX
  8
EBENE_1
 62
    39
  6
CONTINUOUS
 10
0.506740
 20
2.226020
  0
VERTEX
  8
EBENE_1
 62
    39
  6
CONTINUOUS
 10
0.498539
 20
2.224631
  0
VERTEX
  8
EBENE_1
 62
    39
  6
CONTINUOUS
 10
0.489455
 20
2.224066
  0
VERTEX
  8
EBENE_1
 62
    39
  6
CONTINUOUS
 10
0.479562
 20
2.224319
  0
VERTEX
  8
EBENE_1
 62
    39
  6
CONTINUOUS
 10
0.468935
 20
2.225384
  0
VERTEX
  8
EBENE_1
 62
    39
  6
CONTINUOUS
 10
0.457649
 20
2.227257
  0
VERTEX
  8
EBENE_1
 62
    39
  6
CONTINUOUS
 10
0.445776
 20
2.229932
  0
VERTEX
  8
EBENE_1
 62
    39
  6
CONTINUOUS
 10
0.433391
 20
2.233404
  0
VERTEX
  8
EBENE_1
 62
    39
  6
CONTINUOUS
 10
0.420569
 20
2.237668
  0
VERTEX
  8
EBENE_1
 62
    39
  6
CONTINUOUS
 10
0.407383
 20
2.242717
  0
VERTEX
  8
EBENE_1
 62
    39
  6
CONTINUOUS
 10
0.393908
 20
2.248547
  0
VERTEX
  8
EBENE_1
 62
    39
  6
CONTINUOUS
 10
0.380219
 20
2.255152
  0
VERTEX
  8
EBENE_1
 62
    39
  6
CONTINUOUS
 10
0.366388
 20
2.262527
  0
VERTEX
  8
EBENE_1
 62
    39
  6
CONTINUOUS
 10
0.352490
 20
2.270667
  0
VERTEX
  8
EBENE_1
 62
    39
  6
CONTINUOUS
 10
0.338600
 20
2.279566
  0
VERTEX
  8
EBENE_1
 62
    39
  6
CONTINUOUS
 10
0.324791
 20
2.289219
  0
VERTEX
  8
EBENE_1
 62
    39
  6
CONTINUOUS
 10
0.311139
 20
2.299620
  0
VERTEX
  8
EBENE_1
 62
    39
  6
CONTINUOUS
 10
0.297716
 20
2.310764
  0
VERTEX
  8
EBENE_1
 62
    39
  6
CONTINUOUS
 10
0.284597
 20
2.322647
  0
VERTEX
  8
EBENE_1
 62
    39
  6
CONTINUOUS
 10
0.271857
 20
2.335261
  0
VERTEX
  8
EBENE_1
 62
    39
  6
CONTINUOUS
 10
0.259569
 20
2.348603
  0
VERTEX
  8
EBENE_1
 62
    39
  6
CONTINUOUS
 10
0.247807
 20
2.362667
  0
VERTEX
  8
EBENE_1
 62
    39
  6
CONTINUOUS
 10
0.236647
 20
2.377447
  0
VERTEX
  8
EBENE_1
 62
    39
  6
CONTINUOUS
 10
0.226161
 20
2.392938
  0
VERTEX
  8
EBENE_1
 62
    39
  6
CONTINUOUS
 10
0.216425
 20
2.409135
  0
VERTEX
  8
EBENE_1
 62
    39
  6
CONTINUOUS
 10
0.207512
 20
2.426032
  0
VERTEX
  8
EBENE_1
 62
    39
  6
CONTINUOUS
 10
0.199497
 20
2.443624
  0
VERTEX
  8
EBENE_1
 62
    39
  6
CONTINUOUS
 10
0.192453
 20
2.461906
  0
VERTEX
  8
EBENE_1
 62
    39
  6
CONTINUOUS
 10
0.192453
 20
2.461906
  0
VERTEX
  8
EBENE_1
 62
    39
  6
CONTINUOUS
 10
0.189749
 20
2.482911
  0
VERTEX
  8
EBENE_1
 62
    39
  6
CONTINUOUS
 10
0.190086
 20
2.502205
  0
VERTEX
  8
EBENE_1
 62
    39
  6
CONTINUOUS
 10
0.193212
 20
2.519599
  0
VERTEX
  8
EBENE_1
 62
    39
  6
CONTINUOUS
 10
0.198873
 20
2.534901
  0
VERTEX
  8
EBENE_1
 62
    39
  6
CONTINUOUS
 10
0.206814
 20
2.547922
  0
VERTEX
  8
EBENE_1
 62
    39
  6
CONTINUOUS
 10
0.216784
 20
2.558472
  0
VERTEX
  8
EBENE_1
 62
    39
  6
CONTINUOUS
 10
0.228527
 20
2.566361
  0
VERTEX
  8
EBENE_1
 62
    39
  6
CONTINUOUS
 10
0.241791
 20
2.571398
  0
VERTEX
  8
EBENE_1
 62
    39
  6
CONTINUOUS
 10
0.445909
 20
2.626146
  0
VERTEX
  8
EBENE_1
 62
    39
  6
CONTINUOUS
 10
0.466274
 20
2.629002
  0
VERTEX
  8
EBENE_1
 62
    39
  6
CONTINUOUS
 10
0.480180
 20
2.625343
  0
VERTEX
  8
EBENE_1
 62
    39
  6
CONTINUOUS
 10
0.489843
 20
2.617104
  0
VERTEX
  8
EBENE_1
 62
    39
  6
CONTINUOUS
 10
0.497478
 20
2.606218
  0
VERTEX
  8
EBENE_1
 62
    39
  6
CONTINUOUS
 10
0.505301
 20
2.594619
  0
SEQEND
  8
0
  0
POLYLINE
  8
EBENE_1
 62
    39
  6
CONTINUOUS
 66
     1
 40
0.003000
 41
0.003000
 70
     1
  0
VERTEX
  8
EBENE_1
 62
    39
  6
CONTINUOUS
 10
0.515528
 20
2.582890
  0
VERTEX
  8
EBENE_1
 62
    39
  6
CONTINUOUS
 10
0.700043
 20
2.280768
  0
VERTEX
  8
EBENE_1
 62
    39
  6
CONTINUOUS
 10
0.507417
 20
2.230075
  0
VERTEX
  8
EBENE_1
 62
    39
  6
CONTINUOUS
 10
0.498969
 20
2.228718
  0
VERTEX
  8
EBENE_1
 62
    39
  6
CONTINUOUS
 10
0.489589
 20
2.228231
  0
VERTEX
  8
EBENE_1
 62
    39
  6
CONTINUOUS
 10
0.479360
 20
2.228609
  0
VERTEX
  8
EBENE_1
 62
    39
  6
CONTINUOUS
 10
0.468362
 20
2.229845
  0
VERTEX
  8
EBENE_1
 62
    39
  6
CONTINUOUS
 10
0.456677
 20
2.231933
  0
VERTEX
  8
EBENE_1
 62
    39
  6
CONTINUOUS
 10
0.444389
 20
2.234869
  0
VERTEX
  8
EBENE_1
 62
    39
  6
CONTINUOUS
 10
0.431578
 20
2.238646
  0
VERTEX
  8
EBENE_1
 62
    39
  6
CONTINUOUS
 10
0.418327
 20
2.243259
  0
VERTEX
  8
EBENE_1
 62
    39
  6
CONTINUOUS
 10
0.404717
 20
2.248701
  0
VERTEX
  8
EBENE_1
 62
    39
  6
CONTINUOUS
 10
0.390830
 20
2.254968
  0
VERTEX
  8
EBENE_1
 62
    39
  6
CONTINUOUS
 10
0.376749
 20
2.262052
  0
VERTEX
  8
EBENE_1
 62
    39
  6
CONTINUOUS
 10
0.362555
 20
2.269949
  0
VERTEX
  8
EBENE_1
 62
    39
  6
CONTINUOUS
 10
0.348330
 20
2.278653
  0
VERTEX
  8
EBENE_1
 62
    39
  6
CONTINUOUS
 10
0.334156
 20
2.288157
  0
VERTEX
  8
EBENE_1
 62
    39
  6
CONTINUOUS
 10
0.320114
 20
2.298456
  0
VERTEX
  8
EBENE_1
 62
    39
  6
CONTINUOUS
 10
0.306288
 20
2.309545
  0
VERTEX
  8
EBENE_1
 62
    39
  6
CONTINUOUS
 10
0.292758
 20
2.321418
  0
VERTEX
  8
EBENE_1
 62
    39
  6
CONTINUOUS
 10
0.279607
 20
2.334068
  0
VERTEX
  8
EBENE_1
 62
    39
  6
CONTINUOUS
 10
0.266917
 20
2.347490
  0
VERTEX
  8
EBENE_1
 62
    39
  6
CONTINUOUS
 10
0.254769
 20
2.361679
  0
VERTEX
  8
EBENE_1
 62
    39
  6
CONTINUOUS
 10
0.243245
 20
2.376628
  0
VERTEX
  8
EBENE_1
 62
    39
  6
CONTINUOUS
 10
0.232428
 20
2.392332
  0
VERTEX
  8
EBENE_1
 62
    39
  6
CONTINUOUS
 10
0.222398
 20
2.408784
  0
VERTEX
  8
EBENE_1
 62
    39
  6
CONTINUOUS
 10
0.213239
 20
2.425980
  0
VERTEX
  8
EBENE_1
 62
    39
  6
CONTINUOUS
 10
0.205032
 20
2.443914
  0
VERTEX
  8
EBENE_1
 62
    39
  6
CONTINUOUS
 10
0.197858
 20
2.462579
  0
VERTEX
  8
EBENE_1
 62
    39
  6
CONTINUOUS
 10
0.195021
 20
2.485914
  0
VERTEX
  8
EBENE_1
 62
    39
  6
CONTINUOUS
 10
0.196097
 20
2.507074
  0
VERTEX
  8
EBENE_1
 62
    39
  6
CONTINUOUS
 10
0.200697
 20
2.525786
  0
VERTEX
  8
EBENE_1
 62
    39
  6
CONTINUOUS
 10
0.208429
 20
2.541778
  0
VERTEX
  8
EBENE_1
 62
    39
  6
CONTINUOUS
 10
0.218904
 20
2.554779
  0
VERTEX
  8
EBENE_1
 62
    39
  6
CONTINUOUS
 10
0.231732
 20
2.564518
  0
VERTEX
  8
EBENE_1
 62
    39
  6
CONTINUOUS
 10
0.246524
 20
2.570720
  0
VERTEX
  8
EBENE_1
 62
    39
  6
CONTINUOUS
 10
0.447264
 20
2.624118
  0
VERTEX
  8
EBENE_1
 62
    39
  6
CONTINUOUS
 10
0.467058
 20
2.627024
  0
VERTEX
  8
EBENE_1
 62
    39
  6
CONTINUOUS
 10
0.480581
 20
2.623491
  0
VERTEX
  8
EBENE_1
 62
    39
  6
CONTINUOUS
 10
0.490012
 20
2.615415
  0
VERTEX
  8
EBENE_1
 62
    39
  6
CONTINUOUS
 10
0.497528
 20
2.604692
  0
VERTEX
  8
EBENE_1
 62
    39
  6
CONTINUOUS
 10
0.505307
 20
2.593218
  0
SEQEND
  8
0
  0
POLYLINE
  8
EBENE_1
 62
    39
  6
CONTINUOUS
 66
     1
 40
0.003000
 41
0.003000
 70
     1
  0
VERTEX
  8
EBENE_1
 62
    39
  6
CONTINUOUS
 10
0.352638
 20
2.568693
  0
VERTEX
  8
EBENE_1
 62
    39
  6
CONTINUOUS
 10
0.355891
 20
2.569695
  0
VERTEX
  8
EBENE_1
 62
    39
  6
CONTINUOUS
 10
0.358393
 20
2.572199
  0
VERTEX
  8
EBENE_1
 62
    39
  6
CONTINUOUS
 10
0.359394
 20
2.575453
  0
VERTEX
  8
EBENE_1
 62
    39
  6
CONTINUOUS
 10
0.358393
 20
2.579008
  0
VERTEX
  8
EBENE_1
 62
    39
  6
CONTINUOUS
 10
0.355891
 20
2.581361
  0
VERTEX
  8
EBENE_1
 62
    39
  6
CONTINUOUS
 10
0.352638
 20
2.582213
  0
VERTEX
  8
EBENE_1
 62
    39
  6
CONTINUOUS
 10
0.349083
 20
2.581361
  0
VERTEX
  8
EBENE_1
 62
    39
  6
CONTINUOUS
 10
0.346729
 20
2.579008
  0
VERTEX
  8
EBENE_1
 62
    39
  6
CONTINUOUS
 10
0.345878
 20
2.575453
  0
VERTEX
  8
EBENE_1
 62
    39
  6
CONTINUOUS
 10
0.346729
 20
2.572199
  0
VERTEX
  8
EBENE_1
 62
    39
  6
CONTINUOUS
 10
0.349083
 20
2.569695
  0
SEQEND
  8
0
  0
POLYLINE
  8
EBENE_1
 62
    39
  6
CONTINUOUS
 66
     1
 40
0.003000
 41
0.003000
 70
     1
  0
VERTEX
  8
EBENE_1
 62
    39
  6
CONTINUOUS
 10
0.424280
 20
2.584240
  0
VERTEX
  8
EBENE_1
 62
    39
  6
CONTINUOUS
 10
0.427535
 20
2.585241
  0
VERTEX
  8
EBENE_1
 62
    39
  6
CONTINUOUS
 10
0.430038
 20
2.587744
  0
VERTEX
  8
EBENE_1
 62
    39
  6
CONTINUOUS
 10
0.431039
 20
2.591000
  0
VERTEX
  8
EBENE_1
 62
    39
  6
CONTINUOUS
 10
0.430038
 20
2.594554
  0
VERTEX
  8
EBENE_1
 62
    39
  6
CONTINUOUS
 10
0.427535
 20
2.596906
  0
VERTEX
  8
EBENE_1
 62
    39
  6
CONTINUOUS
 10
0.424280
 20
2.597756
  0
VERTEX
  8
EBENE_1
 62
    39
  6
CONTINUOUS
 10
0.420726
 20
2.596906
  0
VERTEX
  8
EBENE_1
 62
    39
  6
CONTINUOUS
 10
0.418374
 20
2.594554
  0
VERTEX
  8
EBENE_1
 62
    39
  6
CONTINUOUS
 10
0.417524
 20
2.591000
  0
VERTEX
  8
EBENE_1
 62
    39
  6
CONTINUOUS
 10
0.418374
 20
2.587744
  0
VERTEX
  8
EBENE_1
 62
    39
  6
CONTINUOUS
 10
0.420726
 20
2.585241
  0
SEQEND
  8
0
  0
POLYLINE
  8
EBENE_1
 62
    39
  6
CONTINUOUS
 66
     1
 40
0.003000
 41
0.003000
 70
     1
  0
VERTEX
  8
EBENE_1
 62
    39
  6
CONTINUOUS
 10
0.493898
 20
2.557205
  0
VERTEX
  8
EBENE_1
 62
    39
  6
CONTINUOUS
 10
0.497152
 20
2.558206
  0
VERTEX
  8
EBENE_1
 62
    39
  6
CONTINUOUS
 10
0.499656
 20
2.560709
  0
VERTEX
  8
EBENE_1
 62
    39
  6
CONTINUOUS
 10
0.500657
 20
2.563965
  0
VERTEX
  8
EBENE_1
 62
    39
  6
CONTINUOUS
 10
0.499656
 20
2.567518
  0
VERTEX
  8
EBENE_1
 62
    39
  6
CONTINUOUS
 10
0.497152
 20
2.569870
  0
VERTEX
  8
EBENE_1
 62
    39
  6
CONTINUOUS
 10
0.493898
 20
2.570720
  0
VERTEX
  8
EBENE_1
 62
    39
  6
CONTINUOUS
 10
0.490343
 20
2.569870
  0
VERTEX
  8
EBENE_1
 62
    39
  6
CONTINUOUS
 10
0.487989
 20
2.567518
  0
VERTEX
  8
EBENE_1
 62
    39
  6
CONTINUOUS
 10
0.487138
 20
2.563965
  0
VERTEX
  8
EBENE_1
 62
    39
  6
CONTINUOUS
 10
0.487989
 20
2.560709
  0
VERTEX
  8
EBENE_1
 62
    39
  6
CONTINUOUS
 10
0.490343
 20
2.558206
  0
SEQEND
  8
0
  0
POLYLINE
  8
EBENE_1
 62
    39
  6
CONTINUOUS
 66
     1
 40
0.003000
 41
0.003000
 70
     1
  0
VERTEX
  8
EBENE_1
 62
    39
  6
CONTINUOUS
 10
-1.049150
 20
2.530843
  0
VERTEX
  8
EBENE_1
 62
    39
  6
CONTINUOUS
 10
-1.178921
 20
2.180059
  0
VERTEX
  8
EBENE_1
 62
    39
  6
CONTINUOUS
 10
-0.736890
 20
2.175327
  0
VERTEX
  8
EBENE_1
 62
    39
  6
CONTINUOUS
 10
-0.711043
 20
2.180927
  0
VERTEX
  8
EBENE_1
 62
    39
  6
CONTINUOUS
 10
-0.690836
 20
2.189838
  0
VERTEX
  8
EBENE_1
 62
    39
  6
CONTINUOUS
 10
-0.675369
 20
2.200652
  0
VERTEX
  8
EBENE_1
 62
    39
  6
CONTINUOUS
 10
-0.663744
 20
2.211963
  0
VERTEX
  8
EBENE_1
 62
    39
  6
CONTINUOUS
 10
-0.655064
 20
2.222363
  0
VERTEX
  8
EBENE_1
 62
    39
  6
CONTINUOUS
 10
-0.648429
 20
2.230445
  0
VERTEX
  8
EBENE_1
 62
    39
  6
CONTINUOUS
 10
-0.642941
 20
2.234803
  0
VERTEX
  8
EBENE_1
 62
    39
  6
CONTINUOUS
 10
-0.643825
 20
2.236778
  0
VERTEX
  8
EBENE_1
 62
    39
  6
CONTINUOUS
 10
-0.646544
 20
2.241844
  0
VERTEX
  8
EBENE_1
 62
    39
  6
CONTINUOUS
 10
-0.650950
 20
2.249725
  0
VERTEX
  8
EBENE_1
 62
    39
  6
CONTINUOUS
 10
-0.656892
 20
2.260146
  0
VERTEX
  8
EBENE_1
 62
    39
  6
CONTINUOUS
 10
-0.664221
 20
2.272834
  0
VERTEX
  8
EBENE_1
 62
    39
  6
CONTINUOUS
 10
-0.672787
 20
2.287513
  0
VERTEX
  8
EBENE_1
 62
    39
  6
CONTINUOUS
 10
-0.682441
 20
2.303908
  0
VERTEX
  8
EBENE_1
 62
    39
  6
CONTINUOUS
 10
-0.693034
 20
2.321744
  0
VERTEX
  8
EBENE_1
 62
    39
  6
CONTINUOUS
 10
-0.704414
 20
2.340746
  0
VERTEX
  8
EBENE_1
 62
    39
  6
CONTINUOUS
 10
-0.716434
 20
2.360640
  0
VERTEX
  8
EBENE_1
 62
    39
  6
CONTINUOUS
 10
-0.728943
 20
2.381151
  0
VERTEX
  8
EBENE_1
 62
    39
  6
CONTINUOUS
 10
-0.741792
 20
2.402003
  0
VERTEX
  8
EBENE_1
 62
    39
  6
CONTINUOUS
 10
-0.754831
 20
2.422922
  0
VERTEX
  8
EBENE_1
 62
    39
  6
CONTINUOUS
 10
-0.767910
 20
2.443633
  0
VERTEX
  8
EBENE_1
 62
    39
  6
CONTINUOUS
 10
-0.780880
 20
2.463862
  0
VERTEX
  8
EBENE_1
 62
    39
  6
CONTINUOUS
 10
-0.793591
 20
2.483332
  0
VERTEX
  8
EBENE_1
 62
    39
  6
CONTINUOUS
 10
-0.805894
 20
2.501771
  0
VERTEX
  8
EBENE_1
 62
    39
  6
CONTINUOUS
 10
-0.817639
 20
2.518901
  0
VERTEX
  8
EBENE_1
 62
    39
  6
CONTINUOUS
 10
-0.828676
 20
2.534449
  0
VERTEX
  8
EBENE_1
 62
    39
  6
CONTINUOUS
 10
-0.838856
 20
2.548140
  0
VERTEX
  8
EBENE_1
 62
    39
  6
CONTINUOUS
 10
-0.848029
 20
2.559699
  0
VERTEX
  8
EBENE_1
 62
    39
  6
CONTINUOUS
 10
-0.856046
 20
2.568851
  0
VERTEX
  8
EBENE_1
 62
    39
  6
CONTINUOUS
 10
-0.862757
 20
2.575321
  0
VERTEX
  8
EBENE_1
 62
    39
  6
CONTINUOUS
 10
-0.868012
 20
2.578835
  0
VERTEX
  8
EBENE_1
 62
    39
  6
CONTINUOUS
 10
-0.870039
 20
2.577480
  0
VERTEX
  8
EBENE_1
 62
    39
  6
CONTINUOUS
 10
-0.886734
 20
2.582864
  0
VERTEX
  8
EBENE_1
 62
    39
  6
CONTINUOUS
 10
-0.903097
 20
2.587361
  0
VERTEX
  8
EBENE_1
 62
    39
  6
CONTINUOUS
 10
-0.919088
 20
2.590807
  0
VERTEX
  8
EBENE_1
 62
    39
  6
CONTINUOUS
 10
-0.934664
 20
2.593034
  0
VERTEX
  8
EBENE_1
 62
    39
  6
CONTINUOUS
 10
-0.949782
 20
2.593876
  0
VERTEX
  8
EBENE_1
 62
    39
  6
CONTINUOUS
 10
-0.964399
 20
2.593168
  0
VERTEX
  8
EBENE_1
 62
    39
  6
CONTINUOUS
 10
-0.978474
 20
2.590744
  0
VERTEX
  8
EBENE_1
 62
    39
  6
CONTINUOUS
 10
-0.991964
 20
2.586436
  0
VERTEX
  8
EBENE_1
 62
    39
  6
CONTINUOUS
 10
-1.004826
 20
2.580080
  0
VERTEX
  8
EBENE_1
 62
    39
  6
CONTINUOUS
 10
-1.017018
 20
2.571509
  0
VERTEX
  8
EBENE_1
 62
    39
  6
CONTINUOUS
 10
-1.028498
 20
2.560556
  0
VERTEX
  8
EBENE_1
 62
    39
  6
CONTINUOUS
 10
-1.039222
 20
2.547056
  0
SEQEND
  8
0
  0
POLYLINE
  8
EBENE_1
 62
    39
  6
CONTINUOUS
 66
     1
 40
0.003000
 41
0.003000
 70
     1
  0
VERTEX
  8
EBENE_1
 62
    39
  6
CONTINUOUS
 10
-1.049827
 20
2.535575
  0
VERTEX
  8
EBENE_1
 62
    39
  6
CONTINUOUS
 10
-1.177567
 20
2.186142
  0
VERTEX
  8
EBENE_1
 62
    39
  6
CONTINUOUS
 10
-0.735539
 20
2.180732
  0
VERTEX
  8
EBENE_1
 62
    39
  6
CONTINUOUS
 10
-0.707014
 20
2.187427
  0
VERTEX
  8
EBENE_1
 62
    39
  6
CONTINUOUS
 10
-0.685999
 20
2.198007
  0
VERTEX
  8
EBENE_1
 62
    39
  6
CONTINUOUS
 10
-0.670992
 20
2.210388
  0
VERTEX
  8
EBENE_1
 62
    39
  6
CONTINUOUS
 10
-0.660491
 20
2.222488
  0
VERTEX
  8
EBENE_1
 62
    39
  6
CONTINUOUS
 10
-0.652994
 20
2.232223
  0
VERTEX
  8
EBENE_1
 62
    39
  6
CONTINUOUS
 10
-0.647000
 20
2.237508
  0
VERTEX
  8
EBENE_1
 62
    39
  6
CONTINUOUS
 10
-0.647772
 20
2.239310
  0
VERTEX
  8
EBENE_1
 62
    39
  6
CONTINUOUS
 10
-0.650162
 20
2.243936
  0
VERTEX
  8
EBENE_1
 62
    39
  6
CONTINUOUS
 10
-0.654050
 20
2.251149
  0
VERTEX
  8
EBENE_1
 62
    39
  6
CONTINUOUS
 10
-0.659316
 20
2.260712
  0
VERTEX
  8
EBENE_1
 62
    39
  6
CONTINUOUS
 10
-0.665837
 20
2.272389
  0
VERTEX
  8
EBENE_1
 62
    39
  6
CONTINUOUS
 10
-0.673494
 20
2.285945
  0
VERTEX
  8
EBENE_1
 62
    39
  6
CONTINUOUS
 10
-0.682164
 20
2.301143
  0
VERTEX
  8
EBENE_1
 62
    39
  6
CONTINUOUS
 10
-0.691729
 20
2.317746
  0
VERTEX
  8
EBENE_1
 62
    39
  6
CONTINUOUS
 10
-0.702066
 20
2.335519
  0
VERTEX
  8
EBENE_1
 62
    39
  6
CONTINUOUS
 10
-0.713054
 20
2.354225
  0
VERTEX
  8
EBENE_1
 62
    39
  6
CONTINUOUS
 10
-0.724573
 20
2.373627
  0
VERTEX
  8
EBENE_1
 62
    39
  6
CONTINUOUS
 10
-0.736502
 20
2.393490
  0
VERTEX
  8
EBENE_1
 62
    39
  6
CONTINUOUS
 10
-0.748719
 20
2.413577
  0
VERTEX
  8
EBENE_1
 62
    39
  6
CONTINUOUS
 10
-0.761105
 20
2.433653
  0
VERTEX
  8
EBENE_1
 62
    39
  6
CONTINUOUS
 10
-0.773538
 20
2.453480
  0
VERTEX
  8
EBENE_1
 62
    39
  6
CONTINUOUS
 10
-0.785897
 20
2.472822
  0
VERTEX
  8
EBENE_1
 62
    39
  6
CONTINUOUS
 10
-0.798061
 20
2.491444
  0
VERTEX
  8
EBENE_1
 62
    39
  6
CONTINUOUS
 10
-0.809910
 20
2.509108
  0
VERTEX
  8
EBENE_1
 62
    39
  6
CONTINUOUS
 10
-0.821322
 20
2.525579
  0
VERTEX
  8
EBENE_1
 62
    39
  6
CONTINUOUS
 10
-0.832176
 20
2.540621
  0
VERTEX
  8
EBENE_1
 62
    39
  6
CONTINUOUS
 10
-0.842352
 20
2.553997
  0
VERTEX
  8
EBENE_1
 62
    39
  6
CONTINUOUS
 10
-0.851729
 20
2.565470
  0
VERTEX
  8
EBENE_1
 62
    39
  6
CONTINUOUS
 10
-0.860186
 20
2.574806
  0
VERTEX
  8
EBENE_1
 62
    39
  6
CONTINUOUS
 10
-0.867602
 20
2.581766
  0
VERTEX
  8
EBENE_1
 62
    39
  6
CONTINUOUS
 10
-0.873856
 20
2.586116
  0
VERTEX
  8
EBENE_1
 62
    39
  6
CONTINUOUS
 10
-0.878827
 20
2.587618
  0
VERTEX
  8
EBENE_1
 62
    39
  6
CONTINUOUS
 10
-0.876799
 20
2.586268
  0
VERTEX
  8
EBENE_1
 62
    39
  6
CONTINUOUS
 10
-0.894338
 20
2.592125
  0
VERTEX
  8
EBENE_1
 62
    39
  6
CONTINUOUS
 10
-0.911442
 20
2.596735
  0
VERTEX
  8
EBENE_1
 62
    39
  6
CONTINUOUS
 10
-0.928072
 20
2.599923
  0
VERTEX
  8
EBENE_1
 62
    39
  6
CONTINUOUS
 10
-0.944188
 20
2.601514
  0
VERTEX
  8
EBENE_1
 62
    39
  6
CONTINUOUS
 10
-0.959750
 20
2.601329
  0
VERTEX
  8
EBENE_1
 62
    39
  6
CONTINUOUS
 10
-0.974718
 20
2.599195
  0
VERTEX
  8
EBENE_1
 62
    39
  6
CONTINUOUS
 10
-0.989053
 20
2.594934
  0
VERTEX
  8
EBENE_1
 62
    39
  6
CONTINUOUS
 10
-1.002714
 20
2.588371
  0
VERTEX
  8
EBENE_1
 62
    39
  6
CONTINUOUS
 10
-1.015662
 20
2.579329
  0
VERTEX
  8
EBENE_1
 62
    39
  6
CONTINUOUS
 10
-1.027857
 20
2.567634
  0
VERTEX
  8
EBENE_1
 62
    39
  6
CONTINUOUS
 10
-1.039258
 20
2.553107
  0
SEQEND
  8
0
  0
POLYLINE
  8
EBENE_1
 62
    39
  6
CONTINUOUS
 66
     1
 40
0.003000
 41
0.003000
 70
     1
  0
VERTEX
  8
EBENE_1
 62
    39
  6
CONTINUOUS
 10
-1.005894
 20
2.567343
  0
VERTEX
  8
EBENE_1
 62
    39
  6
CONTINUOUS
 10
-1.008772
 20
2.565690
  0
VERTEX
  8
EBENE_1
 62
    39
  6
CONTINUOUS
 10
-1.010449
 20
2.562686
  0
VERTEX
  8
EBENE_1
 62
    39
  6
CONTINUOUS
 10
-1.010626
 20
2.559232
  0
VERTEX
  8
EBENE_1
 62
    39
  6
CONTINUOUS
 10
-1.008647
 20
2.556202
  0
VERTEX
  8
EBENE_1
 62
    39
  6
CONTINUOUS
 10
-1.005618
 20
2.554375
  0
VERTEX
  8
EBENE_1
 62
    39
  6
CONTINUOUS
 10
-1.001839
 20
2.554500
  0
VERTEX
  8
EBENE_1
 62
    39
  6
CONTINUOUS
 10
-0.998961
 20
2.556153
  0
VERTEX
  8
EBENE_1
 62
    39
  6
CONTINUOUS
 10
-0.997283
 20
2.559157
  0
VERTEX
  8
EBENE_1
 62
    39
  6
CONTINUOUS
 10
-0.997106
 20
2.562610
  0
VERTEX
  8
EBENE_1
 62
    39
  6
CONTINUOUS
 10
-0.999085
 20
2.565640
  0
VERTEX
  8
EBENE_1
 62
    39
  6
CONTINUOUS
 10
-1.002114
 20
2.567467
  0
SEQEND
  8
0
  0
POLYLINE
  8
EBENE_1
 62
    39
  6
CONTINUOUS
 66
     1
 40
0.003000
 41
0.003000
 70
     1
  0
VERTEX
  8
EBENE_1
 62
    39
  6
CONTINUOUS
 10
-1.041039
 20
2.507189
  0
VERTEX
  8
EBENE_1
 62
    39
  6
CONTINUOUS
 10
-1.043917
 20
2.505536
  0
VERTEX
  8
EBENE_1
 62
    39
  6
CONTINUOUS
 10
-1.045595
 20
2.502532
  0
VERTEX
  8
EBENE_1
 62
    39
  6
CONTINUOUS
 10
-1.045772
 20
2.499079
  0
VERTEX
  8
EBENE_1
 62
    39
  6
CONTINUOUS
 10
-1.044119
 20
2.496198
  0
VERTEX
  8
EBENE_1
 62
    39
  6
CONTINUOUS
 10
-1.041115
 20
2.494521
  0
VERTEX
  8
EBENE_1
 62
    39
  6
CONTINUOUS
 10
-1.037661
 20
2.494346
  0
VERTEX
  8
EBENE_1
 62
    39
  6
CONTINUOUS
 10
-1.034332
 20
2.496299
  0
VERTEX
  8
EBENE_1
 62
    39
  6
CONTINUOUS
 10
-1.032655
 20
2.499153
  0
VERTEX
  8
EBENE_1
 62
    39
  6
CONTINUOUS
 10
-1.032929
 20
2.502457
  0
VERTEX
  8
EBENE_1
 62
    39
  6
CONTINUOUS
 10
-1.034582
 20
2.505786
  0
VERTEX
  8
EBENE_1
 62
    39
  6
CONTINUOUS
 10
-1.037586
 20
2.507463
  0
SEQEND
  8
0
  0
POLYLINE
  8
EBENE_1
 62
    39
  6
CONTINUOUS
 66
     1
 40
0.003000
 41
0.003000
 70
     1
  0
VERTEX
  8
EBENE_1
 62
    39
  6
CONTINUOUS
 10
-0.861252
 20
2.546390
  0
VERTEX
  8
EBENE_1
 62
    39
  6
CONTINUOUS
 10
-0.864584
 20
2.544438
  0
VERTEX
  8
EBENE_1
 62
    39
  6
CONTINUOUS
 10
-0.866261
 20
2.541583
  0
VERTEX
  8
EBENE_1
 62
    39
  6
CONTINUOUS
 10
-0.865984
 20
2.538280
  0
VERTEX
  8
EBENE_1
 62
    39
  6
CONTINUOUS
 10
-0.864333
 20
2.534950
  0
VERTEX
  8
EBENE_1
 62
    39
  6
CONTINUOUS
 10
-0.861328
 20
2.533273
  0
VERTEX
  8
EBENE_1
 62
    39
  6
CONTINUOUS
 10
-0.857874
 20
2.533547
  0
VERTEX
  8
EBENE_1
 62
    39
  6
CONTINUOUS
 10
-0.854996
 20
2.535200
  0
VERTEX
  8
EBENE_1
 62
    39
  6
CONTINUOUS
 10
-0.853320
 20
2.538204
  0
VERTEX
  8
EBENE_1
 62
    39
  6
CONTINUOUS
 10
-0.853146
 20
2.541657
  0
VERTEX
  8
EBENE_1
 62
    39
  6
CONTINUOUS
 10
-0.854796
 20
2.544538
  0
VERTEX
  8
EBENE_1
 62
    39
  6
CONTINUOUS
 10
-0.857799
 20
2.546215
  0
SEQEND
  8
0
  0
POLYLINE
  8
EBENE_1
 62
    39
  6
CONTINUOUS
 66
     1
 40
0.003000
 41
0.003000
  0
VERTEX
  8
EBENE_1
 62
    39
  6
CONTINUOUS
 10
-1.274220
 20
2.445008
  0
VERTEX
  8
EBENE_1
 62
    39
  6
CONTINUOUS
 10
-1.353299
 20
2.175327
  0
VERTEX
  8
EBENE_1
 62
    39
  6
CONTINUOUS
 10
-1.157969
 20
2.176677
  0
SEQEND
  8
0
  0
POLYLINE
  8
EBENE_1
 62
    39
  6
CONTINUOUS
 66
     1
 40
0.003000
 41
0.003000
  0
VERTEX
  8
EBENE_1
 62
    39
  6
CONTINUOUS
 10
-1.157969
 20
2.176677
  0
VERTEX
  8
EBENE_1
 62
    39
  6
CONTINUOUS
 10
-1.149585
 20
2.177525
  0
VERTEX
  8
EBENE_1
 62
    39
  6
CONTINUOUS
 10
-1.140551
 20
2.179427
  0
VERTEX
  8
EBENE_1
 62
    39
  6
CONTINUOUS
 10
-1.130942
 20
2.182357
  0
VERTEX
  8
EBENE_1
 62
    39
  6
CONTINUOUS
 10
-1.120833
 20
2.186291
  0
VERTEX
  8
EBENE_1
 62
    39
  6
CONTINUOUS
 10
-1.110298
 20
2.191202
  0
VERTEX
  8
EBENE_1
 62
    39
  6
CONTINUOUS
 10
-1.099414
 20
2.197065
  0
VERTEX
  8
EBENE_1
 62
    39
  6
CONTINUOUS
 10
-1.088255
 20
2.203853
  0
VERTEX
  8
EBENE_1
 62
    39
  6
CONTINUOUS
 10
-1.076897
 20
2.211543
  0
VERTEX
  8
EBENE_1
 62
    39
  6
CONTINUOUS
 10
-1.065415
 20
2.220107
  0
VERTEX
  8
EBENE_1
 62
    39
  6
CONTINUOUS
 10
-1.053883
 20
2.229521
  0
VERTEX
  8
EBENE_1
 62
    39
  6
CONTINUOUS
 10
-1.042378
 20
2.239758
  0
VERTEX
  8
EBENE_1
 62
    39
  6
CONTINUOUS
 10
-1.030975
 20
2.250794
  0
VERTEX
  8
EBENE_1
 62
    39
  6
CONTINUOUS
 10
-1.019749
 20
2.262601
  0
VERTEX
  8
EBENE_1
 62
    39
  6
CONTINUOUS
 10
-1.008774
 20
2.275156
  0
VERTEX
  8
EBENE_1
 62
    39
  6
CONTINUOUS
 10
-0.998126
 20
2.288432
  0
VERTEX
  8
EBENE_1
 62
    39
  6
CONTINUOUS
 10
-0.987881
 20
2.302404
  0
VERTEX
  8
EBENE_1
 62
    39
  6
CONTINUOUS
 10
-0.978114
 20
2.317045
  0
VERTEX
  8
EBENE_1
 62
    39
  6
CONTINUOUS
 10
-0.968899
 20
2.332331
  0
VERTEX
  8
EBENE_1
 62
    39
  6
CONTINUOUS
 10
-0.960313
 20
2.348236
  0
VERTEX
  8
EBENE_1
 62
    39
  6
CONTINUOUS
 10
-0.952429
 20
2.364734
  0
VERTEX
  8
EBENE_1
 62
    39
  6
CONTINUOUS
 10
-0.945325
 20
2.381800
  0
VERTEX
  8
EBENE_1
 62
    39
  6
CONTINUOUS
 10
-0.939073
 20
2.399407
  0
VERTEX
  8
EBENE_1
 62
    39
  6
CONTINUOUS
 10
-0.933751
 20
2.417531
  0
VERTEX
  8
EBENE_1
 62
    39
  6
CONTINUOUS
 10
-0.929433
 20
2.436145
  0
VERTEX
  8
EBENE_1
 62
    39
  6
CONTINUOUS
 10
-0.926194
 20
2.455225
  0
VERTEX
  8
EBENE_1
 62
    39
  6
CONTINUOUS
 10
-0.924110
 20
2.474744
  0
SEQEND
  8
0
  0
POLYLINE
  8
EBENE_1
 62
    39
  6
CONTINUOUS
 66
     1
 40
0.003000
 41
0.003000
  0
VERTEX
  8
EBENE_1
 62
    39
  6
CONTINUOUS
 10
-0.924110
 20
2.474744
  0
VERTEX
  8
EBENE_1
 62
    39
  6
CONTINUOUS
 10
-0.927827
 20
2.496751
  0
VERTEX
  8
EBENE_1
 62
    39
  6
CONTINUOUS
 10
-0.935552
 20
2.514821
  0
VERTEX
  8
EBENE_1
 62
    39
  6
CONTINUOUS
 10
-0.946493
 20
2.529155
  0
VERTEX
  8
EBENE_1
 62
    39
  6
CONTINUOUS
 10
-0.959857
 20
2.539954
  0
VERTEX
  8
EBENE_1
 62
    39
  6
CONTINUOUS
 10
-0.974852
 20
2.547419
  0
VERTEX
  8
EBENE_1
 62
    39
  6
CONTINUOUS
 10
-0.990688
 20
2.551750
  0
VERTEX
  8
EBENE_1
 62
    39
  6
CONTINUOUS
 10
-1.006571
 20
2.553150
  0
SEQEND
  8
0
  0
POLYLINE
  8
EBENE_1
 62
    39
  6
CONTINUOUS
 66
     1
 40
0.003000
 41
0.003000
  0
VERTEX
  8
EBENE_1
 62
    39
  6
CONTINUOUS
 10
-1.006571
 20
2.553150
  0
VERTEX
  8
EBENE_1
 62
    39
  6
CONTINUOUS
 10
-1.197846
 20
2.504484
  0
SEQEND
  8
0
  0
POLYLINE
  8
EBENE_1
 62
    39
  6
CONTINUOUS
 66
     1
 40
0.003000
 41
0.003000
  0
VERTEX
  8
EBENE_1
 62
    39
  6
CONTINUOUS
 10
-1.197846
 20
2.504484
  0
VERTEX
  8
EBENE_1
 62
    39
  6
CONTINUOUS
 10
-1.219134
 20
2.501674
  0
VERTEX
  8
EBENE_1
 62
    39
  6
CONTINUOUS
 10
-1.235221
 20
2.494171
  0
VERTEX
  8
EBENE_1
 62
    39
  6
CONTINUOUS
 10
-1.247440
 20
2.483364
  0
VERTEX
  8
EBENE_1
 62
    39
  6
CONTINUOUS
 10
-1.257124
 20
2.470641
  0
VERTEX
  8
EBENE_1
 62
    39
  6
CONTINUOUS
 10
-1.265607
 20
2.457393
  0
VERTEX
  8
EBENE_1
 62
    39
  6
CONTINUOUS
 10
-1.274220
 20
2.445008
  0
SEQEND
  8
0
  0
POLYLINE
  8
EBENE_1
 62
    39
  6
CONTINUOUS
 66
     1
 40
0.003000
 41
0.003000
 70
     1
  0
VERTEX
  8
EBENE_1
 62
    39
  6
CONTINUOUS
 10
-1.270165
 20
2.453118
  0
VERTEX
  8
EBENE_1
 62
    39
  6
CONTINUOUS
 10
-1.351272
 20
2.179382
  0
VERTEX
  8
EBENE_1
 62
    39
  6
CONTINUOUS
 10
-1.159319
 20
2.180732
  0
VERTEX
  8
EBENE_1
 62
    39
  6
CONTINUOUS
 10
-1.150752
 20
2.181626
  0
VERTEX
  8
EBENE_1
 62
    39
  6
CONTINUOUS
 10
-1.141490
 20
2.183640
  0
VERTEX
  8
EBENE_1
 62
    39
  6
CONTINUOUS
 10
-1.131617
 20
2.186746
  0
VERTEX
  8
EBENE_1
 62
    39
  6
CONTINUOUS
 10
-1.121218
 20
2.190914
  0
VERTEX
  8
EBENE_1
 62
    39
  6
CONTINUOUS
 10
-1.110374
 20
2.196116
  0
VERTEX
  8
EBENE_1
 62
    39
  6
CONTINUOUS
 10
-1.099172
 20
2.202325
  0
VERTEX
  8
EBENE_1
 62
    39
  6
CONTINUOUS
 10
-1.087693
 20
2.209510
  0
VERTEX
  8
EBENE_1
 62
    39
  6
CONTINUOUS
 10
-1.076023
 20
2.217644
  0
VERTEX
  8
EBENE_1
 62
    39
  6
CONTINUOUS
 10
-1.064245
 20
2.226698
  0
VERTEX
  8
EBENE_1
 62
    39
  6
CONTINUOUS
 10
-1.052443
 20
2.236644
  0
VERTEX
  8
EBENE_1
 62
    39
  6
CONTINUOUS
 10
-1.040701
 20
2.247452
  0
VERTEX
  8
EBENE_1
 62
    39
  6
CONTINUOUS
 10
-1.029102
 20
2.259095
  0
VERTEX
  8
EBENE_1
 62
    39
  6
CONTINUOUS
 10
-1.017730
 20
2.271544
  0
VERTEX
  8
EBENE_1
 62
    39
  6
CONTINUOUS
 10
-1.006670
 20
2.284770
  0
VERTEX
  8
EBENE_1
 62
    39
  6
CONTINUOUS
 10
-0.996004
 20
2.298745
  0
VERTEX
  8
EBENE_1
 62
    39
  6
CONTINUOUS
 10
-0.985818
 20
2.313440
  0
VERTEX
  8
EBENE_1
 62
    39
  6
CONTINUOUS
 10
-0.976194
 20
2.328827
  0
VERTEX
  8
EBENE_1
 62
    39
  6
CONTINUOUS
 10
-0.967217
 20
2.344876
  0
VERTEX
  8
EBENE_1
 62
    39
  6
CONTINUOUS
 10
-0.958970
 20
2.361561
  0
VERTEX
  8
EBENE_1
 62
    39
  6
CONTINUOUS
 10
-0.951537
 20
2.378851
  0
VERTEX
  8
EBENE_1
 62
    39
  6
CONTINUOUS
 10
-0.945002
 20
2.396719
  0
VERTEX
  8
EBENE_1
 62
    39
  6
CONTINUOUS
 10
-0.939449
 20
2.415136
  0
VERTEX
  8
EBENE_1
 62
    39
  6
CONTINUOUS
 10
-0.934962
 20
2.434073
  0
VERTEX
  8
EBENE_1
 62
    39
  6
CONTINUOUS
 10
-0.931624
 20
2.453502
  0
VERTEX
  8
EBENE_1
 62
    39
  6
CONTINUOUS
 10
-0.929520
 20
2.473394
  0
VERTEX
  8
EBENE_1
 62
    39
  6
CONTINUOUS
 10
-0.929520
 20
2.473394
  0
VERTEX
  8
EBENE_1
 62
    39
  6
CONTINUOUS
 10
-0.932487
 20
2.495438
  0
VERTEX
  8
EBENE_1
 62
    39
  6
CONTINUOUS
 10
-0.938280
 20
2.513604
  0
VERTEX
  8
EBENE_1
 62
    39
  6
CONTINUOUS
 10
-0.946579
 20
2.528070
  0
VERTEX
  8
EBENE_1
 62
    39
  6
CONTINUOUS
 10
-0.957066
 20
2.539012
  0
VERTEX
  8
EBENE_1
 62
    39
  6
CONTINUOUS
 10
-0.969422
 20
2.546608
  0
VERTEX
  8
EBENE_1
 62
    39
  6
CONTINUOUS
 10
-0.983326
 20
2.551036
  0
VERTEX
  8
EBENE_1
 62
    39
  6
CONTINUOUS
 10
-0.998461
 20
2.552472
  0
VERTEX
  8
EBENE_1
 62
    39
  6
CONTINUOUS
 10
-1.187709
 20
2.507866
  0
VERTEX
  8
EBENE_1
 62
    39
  6
CONTINUOUS
 10
-1.214515
 20
2.501640
  0
VERTEX
  8
EBENE_1
 62
    39
  6
CONTINUOUS
 10
-1.232667
 20
2.493819
  0
VERTEX
  8
EBENE_1
 62
    39
  6
CONTINUOUS
 10
-1.244352
 20
2.485040
  0
VERTEX
  8
EBENE_1
 62
    39
  6
CONTINUOUS
 10
-1.251758
 20
2.475942
  0
VERTEX
  8
EBENE_1
 62
    39
  6
CONTINUOUS
 10
-1.257070
 20
2.467163
  0
VERTEX
  8
EBENE_1
 62
    39
  6
CONTINUOUS
 10
-1.262477
 20
2.459343
  0
SEQEND
  8
0
  0
POLYLINE
  8
EBENE_1
 62
    39
  6
CONTINUOUS
 66
     1
 40
0.003000
 41
0.003000
  0
VERTEX
  8
EBENE_1
 62
    39
  6
CONTINUOUS
 10
-1.178244
 20
2.495024
  0
VERTEX
  8
EBENE_1
 62
    39
  6
CONTINUOUS
 10
-1.181125
 20
2.493521
  0
VERTEX
  8
EBENE_1
 62
    39
  6
CONTINUOUS
 10
-1.182802
 20
2.490668
  0
VERTEX
  8
EBENE_1
 62
    39
  6
CONTINUOUS
 10
-1.182976
 20
2.486913
  0
SEQEND
  8
0
  0
POLYLINE
  8
EBENE_1
 62
    39
  6
CONTINUOUS
 66
     1
 40
0.003000
 41
0.003000
  0
VERTEX
  8
EBENE_1
 62
    39
  6
CONTINUOUS
 10
-1.182976
 20
2.486913
  0
VERTEX
  8
EBENE_1
 62
    39
  6
CONTINUOUS
 10
-1.181323
 20
2.484058
  0
VERTEX
  8
EBENE_1
 62
    39
  6
CONTINUOUS
 10
-1.178320
 20
2.482556
  0
VERTEX
  8
EBENE_1
 62
    39
  6
CONTINUOUS
 10
-1.174866
 20
2.482858
  0
SEQEND
  8
0
  0
POLYLINE
  8
EBENE_1
 62
    39
  6
CONTINUOUS
 66
     1
 40
0.003000
 41
0.003000
  0
VERTEX
  8
EBENE_1
 62
    39
  6
CONTINUOUS
 10
-1.174866
 20
2.482858
  0
VERTEX
  8
EBENE_1
 62
    39
  6
CONTINUOUS
 10
-1.171988
 20
2.484334
  0
VERTEX
  8
EBENE_1
 62
    39
  6
CONTINUOUS
 10
-1.170311
 20
2.487013
  0
VERTEX
  8
EBENE_1
 62
    39
  6
CONTINUOUS
 10
-1.170134
 20
2.490291
  0
SEQEND
  8
0
  0
POLYLINE
  8
EBENE_1
 62
    39
  6
CONTINUOUS
 66
     1
 40
0.003000
 41
0.003000
  0
VERTEX
  8
EBENE_1
 62
    39
  6
CONTINUOUS
 10
-1.170134
 20
2.490291
  0
VERTEX
  8
EBENE_1
 62
    39
  6
CONTINUOUS
 10
-1.172088
 20
2.493320
  0
VERTEX
  8
EBENE_1
 62
    39
  6
CONTINUOUS
 10
-1.174941
 20
2.495148
  0
VERTEX
  8
EBENE_1
 62
    39
  6
CONTINUOUS
 10
-1.178244
 20
2.495024
  0
SEQEND
  8
0
  0
POLYLINE
  8
EBENE_1
 62
    39
  6
CONTINUOUS
 66
     1
 40
0.003000
 41
0.003000
  0
VERTEX
  8
EBENE_1
 62
    39
  6
CONTINUOUS
 10
-1.091732
 20
2.520031
  0
VERTEX
  8
EBENE_1
 62
    39
  6
CONTINUOUS
 10
-1.095062
 20
2.518379
  0
VERTEX
  8
EBENE_1
 62
    39
  6
CONTINUOUS
 10
-1.096739
 20
2.515375
  0
VERTEX
  8
EBENE_1
 62
    39
  6
CONTINUOUS
 10
-1.096465
 20
2.511921
  0
SEQEND
  8
0
  0
POLYLINE
  8
EBENE_1
 62
    39
  6
CONTINUOUS
 66
     1
 40
0.003000
 41
0.003000
  0
VERTEX
  8
EBENE_1
 62
    39
  6
CONTINUOUS
 10
-1.096465
 20
2.511921
  0
VERTEX
  8
EBENE_1
 62
    39
  6
CONTINUOUS
 10
-1.094962
 20
2.509041
  0
VERTEX
  8
EBENE_1
 62
    39
  6
CONTINUOUS
 10
-1.092108
 20
2.507363
  0
VERTEX
  8
EBENE_1
 62
    39
  6
CONTINUOUS
 10
-1.088350
 20
2.507189
  0
SEQEND
  8
0
  0
POLYLINE
  8
EBENE_1
 62
    39
  6
CONTINUOUS
 66
     1
 40
0.003000
 41
0.003000
  0
VERTEX
  8
EBENE_1
 62
    39
  6
CONTINUOUS
 10
-1.088350
 20
2.507189
  0
VERTEX
  8
EBENE_1
 62
    39
  6
CONTINUOUS
 10
-1.085498
 20
2.509141
  0
VERTEX
  8
EBENE_1
 62
    39
  6
CONTINUOUS
 10
-1.083996
 20
2.511995
  0
VERTEX
  8
EBENE_1
 62
    39
  6
CONTINUOUS
 10
-1.084295
 20
2.515299
  0
SEQEND
  8
0
  0
POLYLINE
  8
EBENE_1
 62
    39
  6
CONTINUOUS
 66
     1
 40
0.003000
 41
0.003000
  0
VERTEX
  8
EBENE_1
 62
    39
  6
CONTINUOUS
 10
-1.084295
 20
2.515299
  0
VERTEX
  8
EBENE_1
 62
    39
  6
CONTINUOUS
 10
-1.085773
 20
2.518177
  0
VERTEX
  8
EBENE_1
 62
    39
  6
CONTINUOUS
 10
-1.088452
 20
2.519854
  0
VERTEX
  8
EBENE_1
 62
    39
  6
CONTINUOUS
 10
-1.091732
 20
2.520031
  0
SEQEND
  8
0
  0
POLYLINE
  8
EBENE_1
 62
    39
  6
CONTINUOUS
 66
     1
 40
0.003000
 41
0.003000
  0
VERTEX
  8
EBENE_1
 62
    39
  6
CONTINUOUS
 10
-1.249213
 20
2.446358
  0
VERTEX
  8
EBENE_1
 62
    39
  6
CONTINUOUS
 10
-1.252091
 20
2.444705
  0
VERTEX
  8
EBENE_1
 62
    39
  6
CONTINUOUS
 10
-1.253770
 20
2.441702
  0
VERTEX
  8
EBENE_1
 62
    39
  6
CONTINUOUS
 10
-1.253945
 20
2.438248
  0
SEQEND
  8
0
  0
POLYLINE
  8
EBENE_1
 62
    39
  6
CONTINUOUS
 66
     1
 40
0.003000
 41
0.003000
  0
VERTEX
  8
EBENE_1
 62
    39
  6
CONTINUOUS
 10
-1.253945
 20
2.438248
  0
VERTEX
  8
EBENE_1
 62
    39
  6
CONTINUOUS
 10
-1.251991
 20
2.435370
  0
VERTEX
  8
EBENE_1
 62
    39
  6
CONTINUOUS
 10
-1.249138
 20
2.433693
  0
VERTEX
  8
EBENE_1
 62
    39
  6
CONTINUOUS
 10
-1.245835
 20
2.433516
  0
SEQEND
  8
0
  0
POLYLINE
  8
EBENE_1
 62
    39
  6
CONTINUOUS
 66
     1
 40
0.003000
 41
0.003000
  0
VERTEX
  8
EBENE_1
 62
    39
  6
CONTINUOUS
 10
-1.245835
 20
2.433516
  0
VERTEX
  8
EBENE_1
 62
    39
  6
CONTINUOUS
 10
-1.242957
 20
2.435470
  0
VERTEX
  8
EBENE_1
 62
    39
  6
CONTINUOUS
 10
-1.241279
 20
2.438323
  0
VERTEX
  8
EBENE_1
 62
    39
  6
CONTINUOUS
 10
-1.241102
 20
2.441626
  0
SEQEND
  8
0
  0
POLYLINE
  8
EBENE_1
 62
    39
  6
CONTINUOUS
 66
     1
 40
0.003000
 41
0.003000
  0
VERTEX
  8
EBENE_1
 62
    39
  6
CONTINUOUS
 10
-1.241102
 20
2.441626
  0
VERTEX
  8
EBENE_1
 62
    39
  6
CONTINUOUS
 10
-1.243056
 20
2.444506
  0
VERTEX
  8
EBENE_1
 62
    39
  6
CONTINUOUS
 10
-1.245910
 20
2.446184
  0
VERTEX
  8
EBENE_1
 62
    39
  6
CONTINUOUS
 10
-1.249213
 20
2.446358
  0
SEQEND
  8
0
  0
POLYLINE
  8
EBENE_1
 62
    39
  6
CONTINUOUS
 66
     1
 40
0.003000
 41
0.003000
  0
VERTEX
  8
EBENE_1
 62
    39
  6
CONTINUOUS
 10
-1.495913
 20
2.402425
  0
VERTEX
  8
EBENE_1
 62
    39
  6
CONTINUOUS
 10
-1.562827
 20
2.173299
  0
VERTEX
  8
EBENE_1
 62
    39
  6
CONTINUOUS
 10
-1.367492
 20
2.174650
  0
SEQEND
  8
0
  0
POLYLINE
  8
EBENE_1
 62
    39
  6
CONTINUOUS
 66
     1
 40
0.003000
 41
0.003000
  0
VERTEX
  8
EBENE_1
 62
    39
  6
CONTINUOUS
 10
-1.367492
 20
2.174650
  0
VERTEX
  8
EBENE_1
 62
    39
  6
CONTINUOUS
 10
-1.359182
 20
2.175497
  0
VERTEX
  8
EBENE_1
 62
    39
  6
CONTINUOUS
 10
-1.350209
 20
2.177399
  0
VERTEX
  8
EBENE_1
 62
    39
  6
CONTINUOUS
 10
-1.340650
 20
2.180330
  0
VERTEX
  8
EBENE_1
 62
    39
  6
CONTINUOUS
 10
-1.330581
 20
2.184263
  0
VERTEX
  8
EBENE_1
 62
    39
  6
CONTINUOUS
 10
-1.320078
 20
2.189174
  0
VERTEX
  8
EBENE_1
 62
    39
  6
CONTINUOUS
 10
-1.309217
 20
2.195037
  0
VERTEX
  8
EBENE_1
 62
    39
  6
CONTINUOUS
 10
-1.298073
 20
2.201826
  0
VERTEX
  8
EBENE_1
 62
    39
  6
CONTINUOUS
 10
-1.286723
 20
2.209515
  0
VERTEX
  8
EBENE_1
 62
    39
  6
CONTINUOUS
 10
-1.275242
 20
2.218080
  0
VERTEX
  8
EBENE_1
 62
    39
  6
CONTINUOUS
 10
-1.263706
 20
2.227493
  0
VERTEX
  8
EBENE_1
 62
    39
  6
CONTINUOUS
 10
-1.252191
 20
2.237731
  0
VERTEX
  8
EBENE_1
 62
    39
  6
CONTINUOUS
 10
-1.240774
 20
2.248766
  0
VERTEX
  8
EBENE_1
 62
    39
  6
CONTINUOUS
 10
-1.229530
 20
2.260574
  0
VERTEX
  8
EBENE_1
 62
    39
  6
CONTINUOUS
 10
-1.218534
 20
2.273129
  0
VERTEX
  8
EBENE_1
 62
    39
  6
CONTINUOUS
 10
-1.207863
 20
2.286405
  0
VERTEX
  8
EBENE_1
 62
    39
  6
CONTINUOUS
 10
-1.197594
 20
2.300376
  0
VERTEX
  8
EBENE_1
 62
    39
  6
CONTINUOUS
 10
-1.187800
 20
2.315018
  0
VERTEX
  8
EBENE_1
 62
    39
  6
CONTINUOUS
 10
-1.178560
 20
2.330304
  0
VERTEX
  8
EBENE_1
 62
    39
  6
CONTINUOUS
 10
-1.169948
 20
2.346209
  0
VERTEX
  8
EBENE_1
 62
    39
  6
CONTINUOUS
 10
-1.162040
 20
2.362706
  0
VERTEX
  8
EBENE_1
 62
    39
  6
CONTINUOUS
 10
-1.154913
 20
2.379772
  0
VERTEX
  8
EBENE_1
 62
    39
  6
CONTINUOUS
 10
-1.148642
 20
2.397379
  0
VERTEX
  8
EBENE_1
 62
    39
  6
CONTINUOUS
 10
-1.143303
 20
2.415503
  0
VERTEX
  8
EBENE_1
 62
    39
  6
CONTINUOUS
 10
-1.138972
 20
2.434118
  0
VERTEX
  8
EBENE_1
 62
    39
  6
CONTINUOUS
 10
-1.135725
 20
2.453197
  0
VERTEX
  8
EBENE_1
 62
    39
  6
CONTINUOUS
 10
-1.133638
 20
2.472717
  0
SEQEND
  8
0
  0
POLYLINE
  8
EBENE_1
 62
    39
  6
CONTINUOUS
 66
     1
 40
0.003000
 41
0.003000
  0
VERTEX
  8
EBENE_1
 62
    39
  6
CONTINUOUS
 10
-1.133638
 20
2.472717
  0
VERTEX
  8
EBENE_1
 62
    39
  6
CONTINUOUS
 10
-1.137492
 20
2.492016
  0
VERTEX
  8
EBENE_1
 62
    39
  6
CONTINUOUS
 10
-1.145106
 20
2.502638
  0
VERTEX
  8
EBENE_1
 62
    39
  6
CONTINUOUS
 10
-1.155770
 20
2.506662
  0
VERTEX
  8
EBENE_1
 62
    39
  6
CONTINUOUS
 10
-1.168775
 20
2.506169
  0
VERTEX
  8
EBENE_1
 62
    39
  6
CONTINUOUS
 10
-1.183412
 20
2.503241
  0
VERTEX
  8
EBENE_1
 62
    39
  6
CONTINUOUS
 10
-1.198971
 20
2.499958
  0
VERTEX
  8
EBENE_1
 62
    39
  6
CONTINUOUS
 10
-1.214744
 20
2.498402
  0
SEQEND
  8
0
  0
POLYLINE
  8
EBENE_1
 62
    39
  6
CONTINUOUS
 66
     1
 40
0.003000
 41
0.003000
  0
VERTEX
  8
EBENE_1
 62
    39
  6
CONTINUOUS
 10
-1.214744
 20
2.498402
  0
VERTEX
  8
EBENE_1
 62
    39
  6
CONTINUOUS
 10
-1.435760
 20
2.445681
  0
SEQEND
  8
0
  0
POLYLINE
  8
EBENE_1
 62
    39
  6
CONTINUOUS
 66
     1
 40
0.003000
 41
0.003000
  0
VERTEX
  8
EBENE_1
 62
    39
  6
CONTINUOUS
 10
-1.435760
 20
2.445681
  0
VERTEX
  8
EBENE_1
 62
    39
  6
CONTINUOUS
 10
-1.458950
 20
2.443389
  0
VERTEX
  8
EBENE_1
 62
    39
  6
CONTINUOUS
 10
-1.472699
 20
2.437073
  0
VERTEX
  8
EBENE_1
 62
    39
  6
CONTINUOUS
 10
-1.480869
 20
2.427579
  0
VERTEX
  8
EBENE_1
 62
    39
  6
CONTINUOUS
 10
-1.487320
 20
2.415748
  0
VERTEX
  8
EBENE_1
 62
    39
  6
CONTINUOUS
 10
-1.495913
 20
2.402425
  0
SEQEND
  8
0
  0
POLYLINE
  8
EBENE_1
 62
    39
  6
CONTINUOUS
 66
     1
 40
0.003000
 41
0.003000
 70
     1
  0
VERTEX
  8
EBENE_1
 62
    39
  6
CONTINUOUS
 10
-1.494559
 20
2.405130
  0
VERTEX
  8
EBENE_1
 62
    39
  6
CONTINUOUS
 10
-1.560799
 20
2.177354
  0
VERTEX
  8
EBENE_1
 62
    39
  6
CONTINUOUS
 10
-1.368846
 20
2.178705
  0
VERTEX
  8
EBENE_1
 62
    39
  6
CONTINUOUS
 10
-1.360279
 20
2.179599
  0
VERTEX
  8
EBENE_1
 62
    39
  6
CONTINUOUS
 10
-1.351018
 20
2.181613
  0
VERTEX
  8
EBENE_1
 62
    39
  6
CONTINUOUS
 10
-1.341145
 20
2.184719
  0
VERTEX
  8
EBENE_1
 62
    39
  6
CONTINUOUS
 10
-1.330745
 20
2.188889
  0
VERTEX
  8
EBENE_1
 62
    39
  6
CONTINUOUS
 10
-1.319902
 20
2.194094
  0
VERTEX
  8
EBENE_1
 62
    39
  6
CONTINUOUS
 10
-1.308699
 20
2.200306
  0
VERTEX
  8
EBENE_1
 62
    39
  6
CONTINUOUS
 10
-1.297220
 20
2.207497
  0
VERTEX
  8
EBENE_1
 62
    39
  6
CONTINUOUS
 10
-1.285550
 20
2.215639
  0
VERTEX
  8
EBENE_1
 62
    39
  6
CONTINUOUS
 10
-1.273772
 20
2.224702
  0
VERTEX
  8
EBENE_1
 62
    39
  6
CONTINUOUS
 10
-1.261969
 20
2.234659
  0
VERTEX
  8
EBENE_1
 62
    39
  6
CONTINUOUS
 10
-1.250227
 20
2.245482
  0
VERTEX
  8
EBENE_1
 62
    39
  6
CONTINUOUS
 10
-1.238628
 20
2.257142
  0
VERTEX
  8
EBENE_1
 62
    39
  6
CONTINUOUS
 10
-1.227256
 20
2.269611
  0
VERTEX
  8
EBENE_1
 62
    39
  6
CONTINUOUS
 10
-1.216195
 20
2.282861
  0
VERTEX
  8
EBENE_1
 62
    39
  6
CONTINUOUS
 10
-1.205529
 20
2.296864
  0
VERTEX
  8
EBENE_1
 62
    39
  6
CONTINUOUS
 10
-1.195343
 20
2.311590
  0
VERTEX
  8
EBENE_1
 62
    39
  6
CONTINUOUS
 10
-1.185719
 20
2.327012
  0
VERTEX
  8
EBENE_1
 62
    39
  6
CONTINUOUS
 10
-1.176741
 20
2.343102
  0
VERTEX
  8
EBENE_1
 62
    39
  6
CONTINUOUS
 10
-1.168494
 20
2.359831
  0
VERTEX
  8
EBENE_1
 62
    39
  6
CONTINUOUS
 10
-1.161061
 20
2.377170
  0
VERTEX
  8
EBENE_1
 62
    39
  6
CONTINUOUS
 10
-1.154526
 20
2.395093
  0
VERTEX
  8
EBENE_1
 62
    39
  6
CONTINUOUS
 10
-1.148973
 20
2.413570
  0
VERTEX
  8
EBENE_1
 62
    39
  6
CONTINUOUS
 10
-1.144486
 20
2.432573
  0
VERTEX
  8
EBENE_1
 62
    39
  6
CONTINUOUS
 10
-1.141148
 20
2.452073
  0
VERTEX
  8
EBENE_1
 62
    39
  6
CONTINUOUS
 10
-1.139043
 20
2.472043
  0
VERTEX
  8
EBENE_1
 62
    39
  6
CONTINUOUS
 10
-1.139043
 20
2.472043
  0
VERTEX
  8
EBENE_1
 62
    39
  6
CONTINUOUS
 10
-1.142495
 20
2.490767
  0
VERTEX
  8
EBENE_1
 62
    39
  6
CONTINUOUS
 10
-1.149530
 20
2.500836
  0
VERTEX
  8
EBENE_1
 62
    39
  6
CONTINUOUS
 10
-1.159508
 20
2.504355
  0
VERTEX
  8
EBENE_1
 62
    39
  6
CONTINUOUS
 10
-1.171793
 20
2.503429
  0
VERTEX
  8
EBENE_1
 62
    39
  6
CONTINUOUS
 10
-1.185744
 20
2.500162
  0
VERTEX
  8
EBENE_1
 62
    39
  6
CONTINUOUS
 10
-1.200724
 20
2.496659
  0
VERTEX
  8
EBENE_1
 62
    39
  6
CONTINUOUS
 10
-1.216094
 20
2.495024
  0
VERTEX
  8
EBENE_1
 62
    39
  6
CONTINUOUS
 10
-1.216094
 20
2.495024
  0
VERTEX
  8
EBENE_1
 62
    39
  6
CONTINUOUS
 10
-1.439138
 20
2.449063
  0
VERTEX
  8
EBENE_1
 62
    39
  6
CONTINUOUS
 10
-1.469089
 20
2.439441
  0
VERTEX
  8
EBENE_1
 62
    39
  6
CONTINUOUS
 10
-1.485606
 20
2.423800
  0
VERTEX
  8
EBENE_1
 62
    39
  6
CONTINUOUS
 10
-1.492744
 20
2.409807
  0
SEQEND
  8
0
  0
POLYLINE
  8
EBENE_1
 62
    39
  6
CONTINUOUS
 66
     1
 40
0.003000
 41
0.003000
  0
VERTEX
  8
EBENE_1
 62
    39
  6
CONTINUOUS
 10
-1.284362
 20
2.474071
  0
VERTEX
  8
EBENE_1
 62
    39
  6
CONTINUOUS
 10
-1.287240
 20
2.472593
  0
VERTEX
  8
EBENE_1
 62
    39
  6
CONTINUOUS
 10
-1.288916
 20
2.469915
  0
VERTEX
  8
EBENE_1
 62
    39
  6
CONTINUOUS
 10
-1.289091
 20
2.466634
  0
SEQEND
  8
0
  0
POLYLINE
  8
EBENE_1
 62
    39
  6
CONTINUOUS
 66
     1
 40
0.003000
 41
0.003000
  0
VERTEX
  8
EBENE_1
 62
    39
  6
CONTINUOUS
 10
-1.289091
 20
2.466634
  0
VERTEX
  8
EBENE_1
 62
    39
  6
CONTINUOUS
 10
-1.287139
 20
2.463305
  0
VERTEX
  8
EBENE_1
 62
    39
  6
CONTINUOUS
 10
-1.284286
 20
2.461628
  0
VERTEX
  8
EBENE_1
 62
    39
  6
CONTINUOUS
 10
-1.280980
 20
2.461906
  0
SEQEND
  8
0
  0
POLYLINE
  8
EBENE_1
 62
    39
  6
CONTINUOUS
 66
     1
 40
0.003000
 41
0.003000
  0
VERTEX
  8
EBENE_1
 62
    39
  6
CONTINUOUS
 10
-1.280980
 20
2.461906
  0
VERTEX
  8
EBENE_1
 62
    39
  6
CONTINUOUS
 10
-1.278103
 20
2.463406
  0
VERTEX
  8
EBENE_1
 62
    39
  6
CONTINUOUS
 10
-1.276425
 20
2.466260
  0
VERTEX
  8
EBENE_1
 62
    39
  6
CONTINUOUS
 10
-1.276248
 20
2.470016
  0
SEQEND
  8
0
  0
POLYLINE
  8
EBENE_1
 62
    39
  6
CONTINUOUS
 66
     1
 40
0.003000
 41
0.003000
  0
VERTEX
  8
EBENE_1
 62
    39
  6
CONTINUOUS
 10
-1.276248
 20
2.470016
  0
VERTEX
  8
EBENE_1
 62
    39
  6
CONTINUOUS
 10
-1.278202
 20
2.472868
  0
VERTEX
  8
EBENE_1
 62
    39
  6
CONTINUOUS
 10
-1.281056
 20
2.474370
  0
VERTEX
  8
EBENE_1
 62
    39
  6
CONTINUOUS
 10
-1.284362
 20
2.474071
  0
SEQEND
  8
0
  0
POLYLINE
  8
EBENE_1
 62
    39
  6
CONTINUOUS
 66
     1
 40
0.003000
 41
0.003000
 70
     1
  0
VERTEX
  8
EBENE_1
 62
    39
  6
CONTINUOUS
 10
0.716264
 20
2.636283
  0
VERTEX
  8
EBENE_1
 62
    39
  6
CONTINUOUS
 10
0.903484
 20
2.329429
  0
VERTEX
  8
EBENE_1
 62
    39
  6
CONTINUOUS
 10
0.707480
 20
2.278063
  0
VERTEX
  8
EBENE_1
 62
    39
  6
CONTINUOUS
 10
0.699209
 20
2.276674
  0
VERTEX
  8
EBENE_1
 62
    39
  6
CONTINUOUS
 10
0.690066
 20
2.276109
  0
VERTEX
  8
EBENE_1
 62
    39
  6
CONTINUOUS
 10
0.680124
 20
2.276362
  0
VERTEX
  8
EBENE_1
 62
    39
  6
CONTINUOUS
 10
0.669457
 20
2.277428
  0
VERTEX
  8
EBENE_1
 62
    39
  6
CONTINUOUS
 10
0.658139
 20
2.279301
  0
VERTEX
  8
EBENE_1
 62
    39
  6
CONTINUOUS
 10
0.646243
 20
2.281976
  0
VERTEX
  8
EBENE_1
 62
    39
  6
CONTINUOUS
 10
0.633842
 20
2.285448
  0
VERTEX
  8
EBENE_1
 62
    39
  6
CONTINUOUS
 10
0.621011
 20
2.289711
  0
VERTEX
  8
EBENE_1
 62
    39
  6
CONTINUOUS
 10
0.607823
 20
2.294760
  0
VERTEX
  8
EBENE_1
 62
    39
  6
CONTINUOUS
 10
0.594350
 20
2.300590
  0
VERTEX
  8
EBENE_1
 62
    39
  6
CONTINUOUS
 10
0.580668
 20
2.307195
  0
VERTEX
  8
EBENE_1
 62
    39
  6
CONTINUOUS
 10
0.566849
 20
2.314570
  0
VERTEX
  8
EBENE_1
 62
    39
  6
CONTINUOUS
 10
0.552967
 20
2.322710
  0
VERTEX
  8
EBENE_1
 62
    39
  6
CONTINUOUS
 10
0.539096
 20
2.331608
  0
VERTEX
  8
EBENE_1
 62
    39
  6
CONTINUOUS
 10
0.525309
 20
2.341261
  0
VERTEX
  8
EBENE_1
 62
    39
  6
CONTINUOUS
 10
0.511679
 20
2.351662
  0
VERTEX
  8
EBENE_1
 62
    39
  6
CONTINUOUS
 10
0.498280
 20
2.362807
  0
VERTEX
  8
EBENE_1
 62
    39
  6
CONTINUOUS
 10
0.485187
 20
2.374689
  0
VERTEX
  8
EBENE_1
 62
    39
  6
CONTINUOUS
 10
0.472471
 20
2.387303
  0
VERTEX
  8
EBENE_1
 62
    39
  6
CONTINUOUS
 10
0.460208
 20
2.400645
  0
VERTEX
  8
EBENE_1
 62
    39
  6
CONTINUOUS
 10
0.448469
 20
2.414708
  0
VERTEX
  8
EBENE_1
 62
    39
  6
CONTINUOUS
 10
0.437330
 20
2.429488
  0
VERTEX
  8
EBENE_1
 62
    39
  6
CONTINUOUS
 10
0.426864
 20
2.444979
  0
VERTEX
  8
EBENE_1
 62
    39
  6
CONTINUOUS
 10
0.417143
 20
2.461175
  0
VERTEX
  8
EBENE_1
 62
    39
  6
CONTINUOUS
 10
0.408242
 20
2.478072
  0
VERTEX
  8
EBENE_1
 62
    39
  6
CONTINUOUS
 10
0.400234
 20
2.495664
  0
VERTEX
  8
EBENE_1
 62
    39
  6
CONTINUOUS
 10
0.393193
 20
2.513945
  0
VERTEX
  8
EBENE_1
 62
    39
  6
CONTINUOUS
 10
0.393193
 20
2.513945
  0
VERTEX
  8
EBENE_1
 62
    39
  6
CONTINUOUS
 10
0.390489
 20
2.534953
  0
VERTEX
  8
EBENE_1
 62
    39
  6
CONTINUOUS
 10
0.390826
 20
2.554257
  0
VERTEX
  8
EBENE_1
 62
    39
  6
CONTINUOUS
 10
0.393952
 20
2.571677
  0
VERTEX
  8
EBENE_1
 62
    39
  6
CONTINUOUS
 10
0.399613
 20
2.587029
  0
VERTEX
  8
EBENE_1
 62
    39
  6
CONTINUOUS
 10
0.407554
 20
2.600131
  0
VERTEX
  8
EBENE_1
 62
    39
  6
CONTINUOUS
 10
0.417524
 20
2.610801
  0
VERTEX
  8
EBENE_1
 62
    39
  6
CONTINUOUS
 10
0.429267
 20
2.618858
  0
VERTEX
  8
EBENE_1
 62
    39
  6
CONTINUOUS
 10
0.442531
 20
2.624118
  0
VERTEX
  8
EBENE_1
 62
    39
  6
CONTINUOUS
 10
0.645972
 20
2.678862
  0
VERTEX
  8
EBENE_1
 62
    39
  6
CONTINUOUS
 10
0.666340
 20
2.681435
  0
VERTEX
  8
EBENE_1
 62
    39
  6
CONTINUOUS
 10
0.680268
 20
2.677586
  0
VERTEX
  8
EBENE_1
 62
    39
  6
CONTINUOUS
 10
0.689990
 20
2.669232
  0
VERTEX
  8
EBENE_1
 62
    39
  6
CONTINUOUS
 10
0.697740
 20
2.658287
  0
VERTEX
  8
EBENE_1
 62
    39
  6
CONTINUOUS
 10
0.705753
 20
2.646665
  0
SEQEND
  8
0
  0
POLYLINE
  8
EBENE_1
 62
    39
  6
CONTINUOUS
 66
     1
 40
0.003000
 41
0.003000
 70
     1
  0
VERTEX
  8
EBENE_1
 62
    39
  6
CONTINUOUS
 10
0.716264
 20
2.634933
  0
VERTEX
  8
EBENE_1
 62
    39
  6
CONTINUOUS
 10
0.900783
 20
2.332811
  0
VERTEX
  8
EBENE_1
 62
    39
  6
CONTINUOUS
 10
0.707480
 20
2.282795
  0
VERTEX
  8
EBENE_1
 62
    39
  6
CONTINUOUS
 10
0.699032
 20
2.281363
  0
VERTEX
  8
EBENE_1
 62
    39
  6
CONTINUOUS
 10
0.689653
 20
2.280807
  0
VERTEX
  8
EBENE_1
 62
    39
  6
CONTINUOUS
 10
0.679423
 20
2.281121
  0
VERTEX
  8
EBENE_1
 62
    39
  6
CONTINUOUS
 10
0.668427
 20
2.282298
  0
VERTEX
  8
EBENE_1
 62
    39
  6
CONTINUOUS
 10
0.656745
 20
2.284334
  0
VERTEX
  8
EBENE_1
 62
    39
  6
CONTINUOUS
 10
0.644460
 20
2.287221
  0
VERTEX
  8
EBENE_1
 62
    39
  6
CONTINUOUS
 10
0.631654
 20
2.290954
  0
VERTEX
  8
EBENE_1
 62
    39
  6
CONTINUOUS
 10
0.618409
 20
2.295527
  0
VERTEX
  8
EBENE_1
 62
    39
  6
CONTINUOUS
 10
0.604807
 20
2.300934
  0
VERTEX
  8
EBENE_1
 62
    39
  6
CONTINUOUS
 10
0.590931
 20
2.307169
  0
VERTEX
  8
EBENE_1
 62
    39
  6
CONTINUOUS
 10
0.576862
 20
2.314225
  0
VERTEX
  8
EBENE_1
 62
    39
  6
CONTINUOUS
 10
0.562683
 20
2.322098
  0
VERTEX
  8
EBENE_1
 62
    39
  6
CONTINUOUS
 10
0.548476
 20
2.330781
  0
VERTEX
  8
EBENE_1
 62
    39
  6
CONTINUOUS
 10
0.534323
 20
2.340267
  0
VERTEX
  8
EBENE_1
 62
    39
  6
CONTINUOUS
 10
0.520306
 20
2.350551
  0
VERTEX
  8
EBENE_1
 62
    39
  6
CONTINUOUS
 10
0.506507
 20
2.361627
  0
VERTEX
  8
EBENE_1
 62
    39
  6
CONTINUOUS
 10
0.493009
 20
2.373489
  0
VERTEX
  8
EBENE_1
 62
    39
  6
CONTINUOUS
 10
0.479893
 20
2.386131
  0
VERTEX
  8
EBENE_1
 62
    39
  6
CONTINUOUS
 10
0.467242
 20
2.399547
  0
VERTEX
  8
EBENE_1
 62
    39
  6
CONTINUOUS
 10
0.455138
 20
2.413730
  0
VERTEX
  8
EBENE_1
 62
    39
  6
CONTINUOUS
 10
0.443663
 20
2.428676
  0
VERTEX
  8
EBENE_1
 62
    39
  6
CONTINUOUS
 10
0.432900
 20
2.444377
  0
VERTEX
  8
EBENE_1
 62
    39
  6
CONTINUOUS
 10
0.422929
 20
2.460829
  0
VERTEX
  8
EBENE_1
 62
    39
  6
CONTINUOUS
 10
0.413834
 20
2.478024
  0
VERTEX
  8
EBENE_1
 62
    39
  6
CONTINUOUS
 10
0.405696
 20
2.495957
  0
VERTEX
  8
EBENE_1
 62
    39
  6
CONTINUOUS
 10
0.398598
 20
2.514622
  0
VERTEX
  8
EBENE_1
 62
    39
  6
CONTINUOUS
 10
0.395758
 20
2.538206
  0
VERTEX
  8
EBENE_1
 62
    39
  6
CONTINUOUS
 10
0.396820
 20
2.559531
  0
VERTEX
  8
EBENE_1
 62
    39
  6
CONTINUOUS
 10
0.401382
 20
2.578326
  0
VERTEX
  8
EBENE_1
 62
    39
  6
CONTINUOUS
 10
0.409041
 20
2.594319
  0
VERTEX
  8
EBENE_1
 62
    39
  6
CONTINUOUS
 10
0.419397
 20
2.607237
  0
VERTEX
  8
EBENE_1
 62
    39
  6
CONTINUOUS
 10
0.432046
 20
2.616810
  0
VERTEX
  8
EBENE_1
 62
    39
  6
CONTINUOUS
 10
0.446587
 20
2.622764
  0
VERTEX
  8
EBENE_1
 62
    39
  6
CONTINUOUS
 10
0.647323
 20
2.676839
  0
VERTEX
  8
EBENE_1
 62
    39
  6
CONTINUOUS
 10
0.667403
 20
2.679460
  0
VERTEX
  8
EBENE_1
 62
    39
  6
CONTINUOUS
 10
0.681118
 20
2.675735
  0
VERTEX
  8
EBENE_1
 62
    39
  6
CONTINUOUS
 10
0.690665
 20
2.667543
  0
VERTEX
  8
EBENE_1
 62
    39
  6
CONTINUOUS
 10
0.698241
 20
2.656761
  0
VERTEX
  8
EBENE_1
 62
    39
  6
CONTINUOUS
 10
0.706041
 20
2.645265
  0
SEQEND
  8
0
  0
POLYLINE
  8
EBENE_1
 62
    39
  6
CONTINUOUS
 66
     1
 40
0.003000
 41
0.003000
 70
     1
  0
VERTEX
  8
EBENE_1
 62
    39
  6
CONTINUOUS
 10
0.552024
 20
2.621413
  0
VERTEX
  8
EBENE_1
 62
    39
  6
CONTINUOUS
 10
0.555578
 20
2.622265
  0
VERTEX
  8
EBENE_1
 62
    39
  6
CONTINUOUS
 10
0.557932
 20
2.624618
  0
VERTEX
  8
EBENE_1
 62
    39
  6
CONTINUOUS
 10
0.558783
 20
2.628173
  0
VERTEX
  8
EBENE_1
 62
    39
  6
CONTINUOUS
 10
0.557932
 20
2.631427
  0
VERTEX
  8
EBENE_1
 62
    39
  6
CONTINUOUS
 10
0.555578
 20
2.633931
  0
VERTEX
  8
EBENE_1
 62
    39
  6
CONTINUOUS
 10
0.552024
 20
2.634933
  0
VERTEX
  8
EBENE_1
 62
    39
  6
CONTINUOUS
 10
0.548770
 20
2.633931
  0
VERTEX
  8
EBENE_1
 62
    39
  6
CONTINUOUS
 10
0.546266
 20
2.631427
  0
VERTEX
  8
EBENE_1
 62
    39
  6
CONTINUOUS
 10
0.545264
 20
2.628173
  0
VERTEX
  8
EBENE_1
 62
    39
  6
CONTINUOUS
 10
0.546266
 20
2.624618
  0
VERTEX
  8
EBENE_1
 62
    39
  6
CONTINUOUS
 10
0.548770
 20
2.622265
  0
SEQEND
  8
0
  0
POLYLINE
  8
EBENE_1
 62
    39
  6
CONTINUOUS
 66
     1
 40
0.003000
 41
0.003000
 70
     1
  0
VERTEX
  8
EBENE_1
 62
    39
  6
CONTINUOUS
 10
0.624343
 20
2.636961
  0
VERTEX
  8
EBENE_1
 62
    39
  6
CONTINUOUS
 10
0.627598
 20
2.637811
  0
VERTEX
  8
EBENE_1
 62
    39
  6
CONTINUOUS
 10
0.630101
 20
2.640163
  0
VERTEX
  8
EBENE_1
 62
    39
  6
CONTINUOUS
 10
0.631102
 20
2.643717
  0
VERTEX
  8
EBENE_1
 62
    39
  6
CONTINUOUS
 10
0.630101
 20
2.646972
  0
VERTEX
  8
EBENE_1
 62
    39
  6
CONTINUOUS
 10
0.627598
 20
2.649475
  0
VERTEX
  8
EBENE_1
 62
    39
  6
CONTINUOUS
 10
0.624343
 20
2.650476
  0
VERTEX
  8
EBENE_1
 62
    39
  6
CONTINUOUS
 10
0.620789
 20
2.649475
  0
VERTEX
  8
EBENE_1
 62
    39
  6
CONTINUOUS
 10
0.618437
 20
2.646972
  0
VERTEX
  8
EBENE_1
 62
    39
  6
CONTINUOUS
 10
0.617587
 20
2.643717
  0
VERTEX
  8
EBENE_1
 62
    39
  6
CONTINUOUS
 10
0.618437
 20
2.640163
  0
VERTEX
  8
EBENE_1
 62
    39
  6
CONTINUOUS
 10
0.620789
 20
2.637811
  0
SEQEND
  8
0
  0
POLYLINE
  8
EBENE_1
 62
    39
  6
CONTINUOUS
 66
     1
 40
0.003000
 41
0.003000
 70
     1
  0
VERTEX
  8
EBENE_1
 62
    39
  6
CONTINUOUS
 10
0.693961
 20
2.609921
  0
VERTEX
  8
EBENE_1
 62
    39
  6
CONTINUOUS
 10
0.697515
 20
2.610773
  0
VERTEX
  8
EBENE_1
 62
    39
  6
CONTINUOUS
 10
0.699869
 20
2.613126
  0
VERTEX
  8
EBENE_1
 62
    39
  6
CONTINUOUS
 10
0.700720
 20
2.616681
  0
VERTEX
  8
EBENE_1
 62
    39
  6
CONTINUOUS
 10
0.699869
 20
2.619937
  0
VERTEX
  8
EBENE_1
 62
    39
  6
CONTINUOUS
 10
0.697515
 20
2.622440
  0
VERTEX
  8
EBENE_1
 62
    39
  6
CONTINUOUS
 10
0.693961
 20
2.623441
  0
VERTEX
  8
EBENE_1
 62
    39
  6
CONTINUOUS
 10
0.690707
 20
2.622440
  0
VERTEX
  8
EBENE_1
 62
    39
  6
CONTINUOUS
 10
0.688203
 20
2.619937
  0
VERTEX
  8
EBENE_1
 62
    39
  6
CONTINUOUS
 10
0.687201
 20
2.616681
  0
VERTEX
  8
EBENE_1
 62
    39
  6
CONTINUOUS
 10
0.688203
 20
2.613126
  0
VERTEX
  8
EBENE_1
 62
    39
  6
CONTINUOUS
 10
0.690707
 20
2.610773
  0
SEQEND
  8
0
  0
POLYLINE
  8
EBENE_1
 62
    39
  6
CONTINUOUS
 66
     1
 40
0.003000
 41
0.003000
 70
     1
  0
VERTEX
  8
EBENE_1
 62
    39
  6
CONTINUOUS
 10
0.917004
 20
2.689004
  0
VERTEX
  8
EBENE_1
 62
    39
  6
CONTINUOUS
 10
1.104224
 20
2.381472
  0
VERTEX
  8
EBENE_1
 62
    39
  6
CONTINUOUS
 10
0.908217
 20
2.330106
  0
VERTEX
  8
EBENE_1
 62
    39
  6
CONTINUOUS
 10
0.899940
 20
2.328787
  0
VERTEX
  8
EBENE_1
 62
    39
  6
CONTINUOUS
 10
0.890782
 20
2.328281
  0
VERTEX
  8
EBENE_1
 62
    39
  6
CONTINUOUS
 10
0.880816
 20
2.328583
  0
VERTEX
  8
EBENE_1
 62
    39
  6
CONTINUOUS
 10
0.870117
 20
2.329690
  0
VERTEX
  8
EBENE_1
 62
    39
  6
CONTINUOUS
 10
0.858759
 20
2.331597
  0
VERTEX
  8
EBENE_1
 62
    39
  6
CONTINUOUS
 10
0.846818
 20
2.334298
  0
VERTEX
  8
EBENE_1
 62
    39
  6
CONTINUOUS
 10
0.834367
 20
2.337790
  0
VERTEX
  8
EBENE_1
 62
    39
  6
CONTINUOUS
 10
0.821482
 20
2.342068
  0
VERTEX
  8
EBENE_1
 62
    39
  6
CONTINUOUS
 10
0.808236
 20
2.347128
  0
VERTEX
  8
EBENE_1
 62
    39
  6
CONTINUOUS
 10
0.794705
 20
2.352964
  0
VERTEX
  8
EBENE_1
 62
    39
  6
CONTINUOUS
 10
0.780963
 20
2.359573
  0
VERTEX
  8
EBENE_1
 62
    39
  6
CONTINUOUS
 10
0.767084
 20
2.366950
  0
VERTEX
  8
EBENE_1
 62
    39
  6
CONTINUOUS
 10
0.753144
 20
2.375090
  0
VERTEX
  8
EBENE_1
 62
    39
  6
CONTINUOUS
 10
0.739216
 20
2.383989
  0
VERTEX
  8
EBENE_1
 62
    39
  6
CONTINUOUS
 10
0.725376
 20
2.393642
  0
VERTEX
  8
EBENE_1
 62
    39
  6
CONTINUOUS
 10
0.711697
 20
2.404045
  0
VERTEX
  8
EBENE_1
 62
    39
  6
CONTINUOUS
 10
0.698255
 20
2.415193
  0
VERTEX
  8
EBENE_1
 62
    39
  6
CONTINUOUS
 10
0.685125
 20
2.427082
  0
VERTEX
  8
EBENE_1
 62
    39
  6
CONTINUOUS
 10
0.672380
 20
2.439707
  0
VERTEX
  8
EBENE_1
 62
    39
  6
CONTINUOUS
 10
0.660095
 20
2.453064
  0
VERTEX
  8
EBENE_1
 62
    39
  6
CONTINUOUS
 10
0.648345
 20
2.467148
  0
VERTEX
  8
EBENE_1
 62
    39
  6
CONTINUOUS
 10
0.637204
 20
2.481954
  0
VERTEX
  8
EBENE_1
 62
    39
  6
CONTINUOUS
 10
0.626747
 20
2.497479
  0
VERTEX
  8
EBENE_1
 62
    39
  6
CONTINUOUS
 10
0.617049
 20
2.513716
  0
VERTEX
  8
EBENE_1
 62
    39
  6
CONTINUOUS
 10
0.608184
 20
2.530663
  0
VERTEX
  8
EBENE_1
 62
    39
  6
CONTINUOUS
 10
0.600227
 20
2.548314
  0
VERTEX
  8
EBENE_1
 62
    39
  6
CONTINUOUS
 10
0.593252
 20
2.566665
  0
VERTEX
  8
EBENE_1
 62
    39
  6
CONTINUOUS
 10
0.593252
 20
2.566665
  0
VERTEX
  8
EBENE_1
 62
    39
  6
CONTINUOUS
 10
0.590353
 20
2.587671
  0
VERTEX
  8
EBENE_1
 62
    39
  6
CONTINUOUS
 10
0.590591
 20
2.606965
  0
VERTEX
  8
EBENE_1
 62
    39
  6
CONTINUOUS
 10
0.593680
 20
2.624359
  0
VERTEX
  8
EBENE_1
 62
    39
  6
CONTINUOUS
 10
0.599335
 20
2.639661
  0
VERTEX
  8
EBENE_1
 62
    39
  6
CONTINUOUS
 10
0.607272
 20
2.652683
  0
VERTEX
  8
EBENE_1
 62
    39
  6
CONTINUOUS
 10
0.617204
 20
2.663234
  0
VERTEX
  8
EBENE_1
 62
    39
  6
CONTINUOUS
 10
0.628848
 20
2.671123
  0
VERTEX
  8
EBENE_1
 62
    39
  6
CONTINUOUS
 10
0.641917
 20
2.676161
  0
VERTEX
  8
EBENE_1
 62
    39
  6
CONTINUOUS
 10
0.846035
 20
2.730909
  0
VERTEX
  8
EBENE_1
 62
    39
  6
CONTINUOUS
 10
0.866687
 20
2.733766
  0
VERTEX
  8
EBENE_1
 62
    39
  6
CONTINUOUS
 10
0.880806
 20
2.730107
  0
VERTEX
  8
EBENE_1
 62
    39
  6
CONTINUOUS
 10
0.890644
 20
2.721868
  0
VERTEX
  8
EBENE_1
 62
    39
  6
CONTINUOUS
 10
0.898454
 20
2.710982
  0
VERTEX
  8
EBENE_1
 62
    39
  6
CONTINUOUS
 10
0.906490
 20
2.699383
  0
SEQEND
  8
0
  0
POLYLINE
  8
EBENE_1
 62
    39
  6
CONTINUOUS
 66
     1
 40
0.003000
 41
0.003000
 70
     1
  0
VERTEX
  8
EBENE_1
 62
    39
  6
CONTINUOUS
 10
0.917004
 20
2.687650
  0
VERTEX
  8
EBENE_1
 62
    39
  6
CONTINUOUS
 10
1.101520
 20
2.384850
  0
VERTEX
  8
EBENE_1
 62
    39
  6
CONTINUOUS
 10
0.908217
 20
2.334839
  0
VERTEX
  8
EBENE_1
 62
    39
  6
CONTINUOUS
 10
0.899697
 20
2.333479
  0
VERTEX
  8
EBENE_1
 62
    39
  6
CONTINUOUS
 10
0.890256
 20
2.332984
  0
VERTEX
  8
EBENE_1
 62
    39
  6
CONTINUOUS
 10
0.879975
 20
2.333348
  0
VERTEX
  8
EBENE_1
 62
    39
  6
CONTINUOUS
 10
0.868936
 20
2.334568
  0
VERTEX
  8
EBENE_1
 62
    39
  6
CONTINUOUS
 10
0.857218
 20
2.336637
  0
VERTEX
  8
EBENE_1
 62
    39
  6
CONTINUOUS
 10
0.844904
 20
2.339550
  0
VERTEX
  8
EBENE_1
 62
    39
  6
CONTINUOUS
 10
0.832074
 20
2.343303
  0
VERTEX
  8
EBENE_1
 62
    39
  6
CONTINUOUS
 10
0.818808
 20
2.347890
  0
VERTEX
  8
EBENE_1
 62
    39
  6
CONTINUOUS
 10
0.805189
 20
2.353306
  0
VERTEX
  8
EBENE_1
 62
    39
  6
CONTINUOUS
 10
0.791297
 20
2.359547
  0
VERTEX
  8
EBENE_1
 62
    39
  6
CONTINUOUS
 10
0.777213
 20
2.366606
  0
VERTEX
  8
EBENE_1
 62
    39
  6
CONTINUOUS
 10
0.763018
 20
2.374480
  0
VERTEX
  8
EBENE_1
 62
    39
  6
CONTINUOUS
 10
0.748792
 20
2.383162
  0
VERTEX
  8
EBENE_1
 62
    39
  6
CONTINUOUS
 10
0.734618
 20
2.392649
  0
VERTEX
  8
EBENE_1
 62
    39
  6
CONTINUOUS
 10
0.720576
 20
2.402934
  0
VERTEX
  8
EBENE_1
 62
    39
  6
CONTINUOUS
 10
0.706747
 20
2.414013
  0
VERTEX
  8
EBENE_1
 62
    39
  6
CONTINUOUS
 10
0.693211
 20
2.425881
  0
VERTEX
  8
EBENE_1
 62
    39
  6
CONTINUOUS
 10
0.680051
 20
2.438532
  0
VERTEX
  8
EBENE_1
 62
    39
  6
CONTINUOUS
 10
0.667346
 20
2.451962
  0
VERTEX
  8
EBENE_1
 62
    39
  6
CONTINUOUS
 10
0.655179
 20
2.466165
  0
VERTEX
  8
EBENE_1
 62
    39
  6
CONTINUOUS
 10
0.643629
 20
2.481137
  0
VERTEX
  8
EBENE_1
 62
    39
  6
CONTINUOUS
 10
0.632778
 20
2.496872
  0
VERTEX
  8
EBENE_1
 62
    39
  6
CONTINUOUS
 10
0.622708
 20
2.513365
  0
VERTEX
  8
EBENE_1
 62
    39
  6
CONTINUOUS
 10
0.613498
 20
2.530611
  0
VERTEX
  8
EBENE_1
 62
    39
  6
CONTINUOUS
 10
0.605230
 20
2.548605
  0
VERTEX
  8
EBENE_1
 62
    39
  6
CONTINUOUS
 10
0.597984
 20
2.567343
  0
VERTEX
  8
EBENE_1
 62
    39
  6
CONTINUOUS
 10
0.595359
 20
2.590678
  0
VERTEX
  8
EBENE_1
 62
    39
  6
CONTINUOUS
 10
0.596518
 20
2.611837
  0
VERTEX
  8
EBENE_1
 62
    39
  6
CONTINUOUS
 10
0.601105
 20
2.630549
  0
VERTEX
  8
EBENE_1
 62
    39
  6
CONTINUOUS
 10
0.608767
 20
2.646542
  0
VERTEX
  8
EBENE_1
 62
    39
  6
CONTINUOUS
 10
0.619148
 20
2.659543
  0
VERTEX
  8
EBENE_1
 62
    39
  6
CONTINUOUS
 10
0.631894
 20
2.669281
  0
VERTEX
  8
EBENE_1
 62
    39
  6
CONTINUOUS
 10
0.646650
 20
2.675484
  0
VERTEX
  8
EBENE_1
 62
    39
  6
CONTINUOUS
 10
0.847386
 20
2.728882
  0
VERTEX
  8
EBENE_1
 62
    39
  6
CONTINUOUS
 10
0.867516
 20
2.731506
  0
VERTEX
  8
EBENE_1
 62
    39
  6
CONTINUOUS
 10
0.881356
 20
2.727804
  0
VERTEX
  8
EBENE_1
 62
    39
  6
CONTINUOUS
 10
0.891066
 20
2.719671
  0
VERTEX
  8
EBENE_1
 62
    39
  6
CONTINUOUS
 10
0.898805
 20
2.709003
  0
VERTEX
  8
EBENE_1
 62
    39
  6
CONTINUOUS
 10
0.906731
 20
2.697698
  0
SEQEND
  8
0
  0
POLYLINE
  8
EBENE_1
 62
    39
  6
CONTINUOUS
 66
     1
 40
0.003000
 41
0.003000
 70
     1
  0
VERTEX
  8
EBENE_1
 62
    39
  6
CONTINUOUS
 10
0.752764
 20
2.673457
  0
VERTEX
  8
EBENE_1
 62
    39
  6
CONTINUOUS
 10
0.756017
 20
2.674459
  0
VERTEX
  8
EBENE_1
 62
    39
  6
CONTINUOUS
 10
0.758519
 20
2.676963
  0
VERTEX
  8
EBENE_1
 62
    39
  6
CONTINUOUS
 10
0.759520
 20
2.680217
  0
VERTEX
  8
EBENE_1
 62
    39
  6
CONTINUOUS
 10
0.758519
 20
2.683771
  0
VERTEX
  8
EBENE_1
 62
    39
  6
CONTINUOUS
 10
0.756017
 20
2.686125
  0
VERTEX
  8
EBENE_1
 62
    39
  6
CONTINUOUS
 10
0.752764
 20
2.686976
  0
VERTEX
  8
EBENE_1
 62
    39
  6
CONTINUOUS
 10
0.749209
 20
2.686125
  0
VERTEX
  8
EBENE_1
 62
    39
  6
CONTINUOUS
 10
0.746855
 20
2.683771
  0
VERTEX
  8
EBENE_1
 62
    39
  6
CONTINUOUS
 10
0.746004
 20
2.680217
  0
VERTEX
  8
EBENE_1
 62
    39
  6
CONTINUOUS
 10
0.746855
 20
2.676963
  0
VERTEX
  8
EBENE_1
 62
    39
  6
CONTINUOUS
 10
0.749209
 20
2.674459
  0
SEQEND
  8
0
  0
POLYLINE
  8
EBENE_1
 62
    39
  6
CONTINUOUS
 66
     1
 40
0.003000
 41
0.003000
 70
     1
  0
VERTEX
  8
EBENE_1
 62
    39
  6
CONTINUOUS
 10
0.824406
 20
2.689004
  0
VERTEX
  8
EBENE_1
 62
    39
  6
CONTINUOUS
 10
0.827960
 20
2.689854
  0
VERTEX
  8
EBENE_1
 62
    39
  6
CONTINUOUS
 10
0.830314
 20
2.692207
  0
VERTEX
  8
EBENE_1
 62
    39
  6
CONTINUOUS
 10
0.831165
 20
2.695764
  0
VERTEX
  8
EBENE_1
 62
    39
  6
CONTINUOUS
 10
0.830314
 20
2.699017
  0
VERTEX
  8
EBENE_1
 62
    39
  6
CONTINUOUS
 10
0.827960
 20
2.701519
  0
VERTEX
  8
EBENE_1
 62
    39
  6
CONTINUOUS
 10
0.824406
 20
2.702520
  0
VERTEX
  8
EBENE_1
 62
    39
  6
CONTINUOUS
 10
0.821153
 20
2.701519
  0
VERTEX
  8
EBENE_1
 62
    39
  6
CONTINUOUS
 10
0.818650
 20
2.699017
  0
VERTEX
  8
EBENE_1
 62
    39
  6
CONTINUOUS
 10
0.817650
 20
2.695764
  0
VERTEX
  8
EBENE_1
 62
    39
  6
CONTINUOUS
 10
0.818650
 20
2.692207
  0
VERTEX
  8
EBENE_1
 62
    39
  6
CONTINUOUS
 10
0.821153
 20
2.689854
  0
SEQEND
  8
0
  0
POLYLINE
  8
EBENE_1
 62
    39
  6
CONTINUOUS
 66
     1
 40
0.003000
 41
0.003000
 70
     1
  0
VERTEX
  8
EBENE_1
 62
    39
  6
CONTINUOUS
 10
0.894701
 20
2.661965
  0
VERTEX
  8
EBENE_1
 62
    39
  6
CONTINUOUS
 10
0.898255
 20
2.662966
  0
VERTEX
  8
EBENE_1
 62
    39
  6
CONTINUOUS
 10
0.900606
 20
2.665471
  0
VERTEX
  8
EBENE_1
 62
    39
  6
CONTINUOUS
 10
0.901457
 20
2.668724
  0
VERTEX
  8
EBENE_1
 62
    39
  6
CONTINUOUS
 10
0.900606
 20
2.672279
  0
VERTEX
  8
EBENE_1
 62
    39
  6
CONTINUOUS
 10
0.898255
 20
2.674633
  0
VERTEX
  8
EBENE_1
 62
    39
  6
CONTINUOUS
 10
0.894701
 20
2.675484
  0
VERTEX
  8
EBENE_1
 62
    39
  6
CONTINUOUS
 10
0.891445
 20
2.674633
  0
VERTEX
  8
EBENE_1
 62
    39
  6
CONTINUOUS
 10
0.888942
 20
2.672279
  0
VERTEX
  8
EBENE_1
 62
    39
  6
CONTINUOUS
 10
0.887941
 20
2.668724
  0
VERTEX
  8
EBENE_1
 62
    39
  6
CONTINUOUS
 10
0.888942
 20
2.665471
  0
VERTEX
  8
EBENE_1
 62
    39
  6
CONTINUOUS
 10
0.891445
 20
2.662966
  0
SEQEND
  8
0
  0
POLYLINE
  8
EBENE_1
 62
    39
  6
CONTINUOUS
 66
     1
 40
0.003000
 41
0.003000
 70
     1
  0
VERTEX
  8
EBENE_1
 62
    39
  6
CONTINUOUS
 10
1.117067
 20
2.741043
  0
VERTEX
  8
EBENE_1
 62
    39
  6
CONTINUOUS
 10
1.304965
 20
2.433516
  0
VERTEX
  8
EBENE_1
 62
    39
  6
CONTINUOUS
 10
1.108280
 20
2.382823
  0
VERTEX
  8
EBENE_1
 62
    39
  6
CONTINUOUS
 10
1.100006
 20
2.381434
  0
VERTEX
  8
EBENE_1
 62
    39
  6
CONTINUOUS
 10
1.090855
 20
2.380869
  0
VERTEX
  8
EBENE_1
 62
    39
  6
CONTINUOUS
 10
1.080901
 20
2.381122
  0
VERTEX
  8
EBENE_1
 62
    39
  6
CONTINUOUS
 10
1.070218
 20
2.382188
  0
VERTEX
  8
EBENE_1
 62
    39
  6
CONTINUOUS
 10
1.058879
 20
2.384061
  0
VERTEX
  8
EBENE_1
 62
    39
  6
CONTINUOUS
 10
1.046959
 20
2.386736
  0
VERTEX
  8
EBENE_1
 62
    39
  6
CONTINUOUS
 10
1.034531
 20
2.390208
  0
VERTEX
  8
EBENE_1
 62
    39
  6
CONTINUOUS
 10
1.021670
 20
2.394471
  0
VERTEX
  8
EBENE_1
 62
    39
  6
CONTINUOUS
 10
1.008449
 20
2.399521
  0
VERTEX
  8
EBENE_1
 62
    39
  6
CONTINUOUS
 10
0.994942
 20
2.405351
  0
VERTEX
  8
EBENE_1
 62
    39
  6
CONTINUOUS
 10
0.981224
 20
2.411956
  0
VERTEX
  8
EBENE_1
 62
    39
  6
CONTINUOUS
 10
0.967369
 20
2.419331
  0
VERTEX
  8
EBENE_1
 62
    39
  6
CONTINUOUS
 10
0.953450
 20
2.427471
  0
VERTEX
  8
EBENE_1
 62
    39
  6
CONTINUOUS
 10
0.939541
 20
2.436370
  0
VERTEX
  8
EBENE_1
 62
    39
  6
CONTINUOUS
 10
0.925716
 20
2.446023
  0
VERTEX
  8
EBENE_1
 62
    39
  6
CONTINUOUS
 10
0.912049
 20
2.456425
  0
VERTEX
  8
EBENE_1
 62
    39
  6
CONTINUOUS
 10
0.898615
 20
2.467569
  0
VERTEX
  8
EBENE_1
 62
    39
  6
CONTINUOUS
 10
0.885487
 20
2.479452
  0
VERTEX
  8
EBENE_1
 62
    39
  6
CONTINUOUS
 10
0.872739
 20
2.492066
  0
VERTEX
  8
EBENE_1
 62
    39
  6
CONTINUOUS
 10
0.860445
 20
2.505408
  0
VERTEX
  8
EBENE_1
 62
    39
  6
CONTINUOUS
 10
0.848679
 20
2.519472
  0
VERTEX
  8
EBENE_1
 62
    39
  6
CONTINUOUS
 10
0.837515
 20
2.534252
  0
VERTEX
  8
EBENE_1
 62
    39
  6
CONTINUOUS
 10
0.827027
 20
2.549742
  0
VERTEX
  8
EBENE_1
 62
    39
  6
CONTINUOUS
 10
0.817289
 20
2.565939
  0
VERTEX
  8
EBENE_1
 62
    39
  6
CONTINUOUS
 10
0.808375
 20
2.582836
  0
VERTEX
  8
EBENE_1
 62
    39
  6
CONTINUOUS
 10
0.800359
 20
2.600427
  0
VERTEX
  8
EBENE_1
 62
    39
  6
CONTINUOUS
 10
0.793315
 20
2.618709
  0
VERTEX
  8
EBENE_1
 62
    39
  6
CONTINUOUS
 10
0.790612
 20
2.639716
  0
VERTEX
  8
EBENE_1
 62
    39
  6
CONTINUOUS
 10
0.790951
 20
2.659021
  0
VERTEX
  8
EBENE_1
 62
    39
  6
CONTINUOUS
 10
0.794077
 20
2.676439
  0
VERTEX
  8
EBENE_1
 62
    39
  6
CONTINUOUS
 10
0.799738
 20
2.691791
  0
VERTEX
  8
EBENE_1
 62
    39
  6
CONTINUOUS
 10
0.807680
 20
2.704893
  0
VERTEX
  8
EBENE_1
 62
    39
  6
CONTINUOUS
 10
0.817650
 20
2.715563
  0
VERTEX
  8
EBENE_1
 62
    39
  6
CONTINUOUS
 10
0.829393
 20
2.723620
  0
VERTEX
  8
EBENE_1
 62
    39
  6
CONTINUOUS
 10
0.842657
 20
2.728882
  0
VERTEX
  8
EBENE_1
 62
    39
  6
CONTINUOUS
 10
1.046776
 20
2.783626
  0
VERTEX
  8
EBENE_1
 62
    39
  6
CONTINUOUS
 10
1.067189
 20
2.786198
  0
VERTEX
  8
EBENE_1
 62
    39
  6
CONTINUOUS
 10
1.081219
 20
2.782350
  0
VERTEX
  8
EBENE_1
 62
    39
  6
CONTINUOUS
 10
1.091044
 20
2.773995
  0
VERTEX
  8
EBENE_1
 62
    39
  6
CONTINUOUS
 10
1.098841
 20
2.763049
  0
VERTEX
  8
EBENE_1
 62
    39
  6
CONTINUOUS
 10
1.106790
 20
2.751427
  0
SEQEND
  8
0
  0
POLYLINE
  8
EBENE_1
 62
    39
  6
CONTINUOUS
 66
     1
 40
0.003000
 41
0.003000
 70
     1
  0
VERTEX
  8
EBENE_1
 62
    39
  6
CONTINUOUS
 10
1.117067
 20
2.739693
  0
VERTEX
  8
EBENE_1
 62
    39
  6
CONTINUOUS
 10
1.301583
 20
2.437571
  0
VERTEX
  8
EBENE_1
 62
    39
  6
CONTINUOUS
 10
1.108280
 20
2.386882
  0
VERTEX
  8
EBENE_1
 62
    39
  6
CONTINUOUS
 10
1.099832
 20
2.385525
  0
VERTEX
  8
EBENE_1
 62
    39
  6
CONTINUOUS
 10
1.090452
 20
2.385038
  0
VERTEX
  8
EBENE_1
 62
    39
  6
CONTINUOUS
 10
1.080222
 20
2.385416
  0
VERTEX
  8
EBENE_1
 62
    39
  6
CONTINUOUS
 10
1.069224
 20
2.386652
  0
VERTEX
  8
EBENE_1
 62
    39
  6
CONTINUOUS
 10
1.057540
 20
2.388740
  0
VERTEX
  8
EBENE_1
 62
    39
  6
CONTINUOUS
 10
1.045251
 20
2.391676
  0
VERTEX
  8
EBENE_1
 62
    39
  6
CONTINUOUS
 10
1.032440
 20
2.395453
  0
VERTEX
  8
EBENE_1
 62
    39
  6
CONTINUOUS
 10
1.019189
 20
2.400066
  0
VERTEX
  8
EBENE_1
 62
    39
  6
CONTINUOUS
 10
1.005579
 20
2.405508
  0
VERTEX
  8
EBENE_1
 62
    39
  6
CONTINUOUS
 10
0.991693
 20
2.411775
  0
VERTEX
  8
EBENE_1
 62
    39
  6
CONTINUOUS
 10
0.977611
 20
2.418859
  0
VERTEX
  8
EBENE_1
 62
    39
  6
CONTINUOUS
 10
0.963417
 20
2.426756
  0
VERTEX
  8
EBENE_1
 62
    39
  6
CONTINUOUS
 10
0.949192
 20
2.435460
  0
VERTEX
  8
EBENE_1
 62
    39
  6
CONTINUOUS
 10
0.935018
 20
2.444964
  0
VERTEX
  8
EBENE_1
 62
    39
  6
CONTINUOUS
 10
0.920977
 20
2.455264
  0
VERTEX
  8
EBENE_1
 62
    39
  6
CONTINUOUS
 10
0.907151
 20
2.466352
  0
VERTEX
  8
EBENE_1
 62
    39
  6
CONTINUOUS
 10
0.893622
 20
2.478225
  0
VERTEX
  8
EBENE_1
 62
    39
  6
CONTINUOUS
 10
0.880471
 20
2.490875
  0
VERTEX
  8
EBENE_1
 62
    39
  6
CONTINUOUS
 10
0.867781
 20
2.504297
  0
VERTEX
  8
EBENE_1
 62
    39
  6
CONTINUOUS
 10
0.855633
 20
2.518486
  0
VERTEX
  8
EBENE_1
 62
    39
  6
CONTINUOUS
 10
0.844109
 20
2.533435
  0
VERTEX
  8
EBENE_1
 62
    39
  6
CONTINUOUS
 10
0.833292
 20
2.549139
  0
VERTEX
  8
EBENE_1
 62
    39
  6
CONTINUOUS
 10
0.823263
 20
2.565592
  0
VERTEX
  8
EBENE_1
 62
    39
  6
CONTINUOUS
 10
0.814104
 20
2.582787
  0
VERTEX
  8
EBENE_1
 62
    39
  6
CONTINUOUS
 10
0.805897
 20
2.600721
  0
VERTEX
  8
EBENE_1
 62
    39
  6
CONTINUOUS
 10
0.798724
 20
2.619386
  0
VERTEX
  8
EBENE_1
 62
    39
  6
CONTINUOUS
 10
0.798724
 20
2.619386
  0
VERTEX
  8
EBENE_1
 62
    39
  6
CONTINUOUS
 10
0.795884
 20
2.642970
  0
VERTEX
  8
EBENE_1
 62
    39
  6
CONTINUOUS
 10
0.796946
 20
2.664295
  0
VERTEX
  8
EBENE_1
 62
    39
  6
CONTINUOUS
 10
0.801507
 20
2.683090
  0
VERTEX
  8
EBENE_1
 62
    39
  6
CONTINUOUS
 10
0.809167
 20
2.699083
  0
VERTEX
  8
EBENE_1
 62
    39
  6
CONTINUOUS
 10
0.819521
 20
2.712001
  0
VERTEX
  8
EBENE_1
 62
    39
  6
CONTINUOUS
 10
0.832169
 20
2.721573
  0
VERTEX
  8
EBENE_1
 62
    39
  6
CONTINUOUS
 10
0.846709
 20
2.727528
  0
VERTEX
  8
EBENE_1
 62
    39
  6
CONTINUOUS
 10
1.048126
 20
2.781598
  0
VERTEX
  8
EBENE_1
 62
    39
  6
CONTINUOUS
 10
1.068205
 20
2.784221
  0
VERTEX
  8
EBENE_1
 62
    39
  6
CONTINUOUS
 10
1.081920
 20
2.780497
  0
VERTEX
  8
EBENE_1
 62
    39
  6
CONTINUOUS
 10
1.091467
 20
2.772305
  0
VERTEX
  8
EBENE_1
 62
    39
  6
CONTINUOUS
 10
1.099042
 20
2.761521
  0
VERTEX
  8
EBENE_1
 62
    39
  6
CONTINUOUS
 10
1.106843
 20
2.750025
  0
SEQEND
  8
0
  0
POLYLINE
  8
EBENE_1
 62
    39
  6
CONTINUOUS
 66
     1
 40
0.003000
 41
0.003000
 70
     1
  0
VERTEX
  8
EBENE_1
 62
    39
  6
CONTINUOUS
 10
0.953504
 20
2.726177
  0
VERTEX
  8
EBENE_1
 62
    39
  6
CONTINUOUS
 10
0.956757
 20
2.727029
  0
VERTEX
  8
EBENE_1
 62
    39
  6
CONTINUOUS
 10
0.959259
 20
2.729382
  0
VERTEX
  8
EBENE_1
 62
    39
  6
CONTINUOUS
 10
0.960260
 20
2.732937
  0
VERTEX
  8
EBENE_1
 62
    39
  6
CONTINUOUS
 10
0.959259
 20
2.736190
  0
VERTEX
  8
EBENE_1
 62
    39
  6
CONTINUOUS
 10
0.956757
 20
2.738692
  0
VERTEX
  8
EBENE_1
 62
    39
  6
CONTINUOUS
 10
0.953504
 20
2.739693
  0
VERTEX
  8
EBENE_1
 62
    39
  6
CONTINUOUS
 10
0.949947
 20
2.738692
  0
VERTEX
  8
EBENE_1
 62
    39
  6
CONTINUOUS
 10
0.947595
 20
2.736190
  0
VERTEX
  8
EBENE_1
 62
    39
  6
CONTINUOUS
 10
0.946744
 20
2.732937
  0
VERTEX
  8
EBENE_1
 62
    39
  6
CONTINUOUS
 10
0.947595
 20
2.729382
  0
VERTEX
  8
EBENE_1
 62
    39
  6
CONTINUOUS
 10
0.949947
 20
2.727029
  0
SEQEND
  8
0
  0
POLYLINE
  8
EBENE_1
 62
    39
  6
CONTINUOUS
 66
     1
 40
0.003000
 41
0.003000
 70
     1
  0
VERTEX
  8
EBENE_1
 62
    39
  6
CONTINUOUS
 10
1.025146
 20
2.741043
  0
VERTEX
  8
EBENE_1
 62
    39
  6
CONTINUOUS
 10
1.028401
 20
2.742045
  0
VERTEX
  8
EBENE_1
 62
    39
  6
CONTINUOUS
 10
1.030904
 20
2.744549
  0
VERTEX
  8
EBENE_1
 62
    39
  6
CONTINUOUS
 10
1.031906
 20
2.747803
  0
VERTEX
  8
EBENE_1
 62
    39
  6
CONTINUOUS
 10
1.030904
 20
2.751358
  0
VERTEX
  8
EBENE_1
 62
    39
  6
CONTINUOUS
 10
1.028401
 20
2.753712
  0
VERTEX
  8
EBENE_1
 62
    39
  6
CONTINUOUS
 10
1.025146
 20
2.754563
  0
VERTEX
  8
EBENE_1
 62
    39
  6
CONTINUOUS
 10
1.021591
 20
2.753712
  0
VERTEX
  8
EBENE_1
 62
    39
  6
CONTINUOUS
 10
1.019237
 20
2.751358
  0
VERTEX
  8
EBENE_1
 62
    39
  6
CONTINUOUS
 10
1.018386
 20
2.747803
  0
VERTEX
  8
EBENE_1
 62
    39
  6
CONTINUOUS
 10
1.019237
 20
2.744549
  0
VERTEX
  8
EBENE_1
 62
    39
  6
CONTINUOUS
 10
1.021591
 20
2.742045
  0
SEQEND
  8
0
  0
POLYLINE
  8
EBENE_1
 62
    39
  6
CONTINUOUS
 66
     1
 40
0.003000
 41
0.003000
 70
     1
  0
VERTEX
  8
EBENE_1
 62
    39
  6
CONTINUOUS
 10
1.095437
 20
2.714012
  0
VERTEX
  8
EBENE_1
 62
    39
  6
CONTINUOUS
 10
1.098693
 20
2.715013
  0
VERTEX
  8
EBENE_1
 62
    39
  6
CONTINUOUS
 10
1.101196
 20
2.717515
  0
VERTEX
  8
EBENE_1
 62
    39
  6
CONTINUOUS
 10
1.102197
 20
2.720768
  0
VERTEX
  8
EBENE_1
 62
    39
  6
CONTINUOUS
 10
1.101196
 20
2.724323
  0
VERTEX
  8
EBENE_1
 62
    39
  6
CONTINUOUS
 10
1.098693
 20
2.726676
  0
VERTEX
  8
EBENE_1
 62
    39
  6
CONTINUOUS
 10
1.095437
 20
2.727528
  0
VERTEX
  8
EBENE_1
 62
    39
  6
CONTINUOUS
 10
1.091882
 20
2.726676
  0
VERTEX
  8
EBENE_1
 62
    39
  6
CONTINUOUS
 10
1.089529
 20
2.724323
  0
VERTEX
  8
EBENE_1
 62
    39
  6
CONTINUOUS
 10
1.088677
 20
2.720768
  0
VERTEX
  8
EBENE_1
 62
    39
  6
CONTINUOUS
 10
1.089529
 20
2.717515
  0
VERTEX
  8
EBENE_1
 62
    39
  6
CONTINUOUS
 10
1.091882
 20
2.715013
  0
SEQEND
  8
0
  0
POLYLINE
  8
EBENE_1
 62
    39
  6
CONTINUOUS
 66
     1
 40
0.003000
 41
0.003000
 70
     1
  0
VERTEX
  8
EBENE_1
 62
    39
  6
CONTINUOUS
 10
-0.594953
 20
2.592350
  0
VERTEX
  8
EBENE_1
 62
    39
  6
CONTINUOUS
 10
-0.407732
 20
2.284823
  0
VERTEX
  8
EBENE_1
 62
    39
  6
CONTINUOUS
 10
-0.604417
 20
2.233453
  0
VERTEX
  8
EBENE_1
 62
    39
  6
CONTINUOUS
 10
-0.612691
 20
2.232064
  0
VERTEX
  8
EBENE_1
 62
    39
  6
CONTINUOUS
 10
-0.621842
 20
2.231499
  0
VERTEX
  8
EBENE_1
 62
    39
  6
CONTINUOUS
 10
-0.631796
 20
2.231753
  0
VERTEX
  8
EBENE_1
 62
    39
  6
CONTINUOUS
 10
-0.642479
 20
2.232820
  0
VERTEX
  8
EBENE_1
 62
    39
  6
CONTINUOUS
 10
-0.653818
 20
2.234695
  0
VERTEX
  8
EBENE_1
 62
    39
  6
CONTINUOUS
 10
-0.665738
 20
2.237373
  0
VERTEX
  8
EBENE_1
 62
    39
  6
CONTINUOUS
 10
-0.678166
 20
2.240850
  0
VERTEX
  8
EBENE_1
 62
    39
  6
CONTINUOUS
 10
-0.691027
 20
2.245119
  0
VERTEX
  8
EBENE_1
 62
    39
  6
CONTINUOUS
 10
-0.704248
 20
2.250176
  0
VERTEX
  8
EBENE_1
 62
    39
  6
CONTINUOUS
 10
-0.717754
 20
2.256015
  0
VERTEX
  8
EBENE_1
 62
    39
  6
CONTINUOUS
 10
-0.731472
 20
2.262632
  0
VERTEX
  8
EBENE_1
 62
    39
  6
CONTINUOUS
 10
-0.745328
 20
2.270021
  0
VERTEX
  8
EBENE_1
 62
    39
  6
CONTINUOUS
 10
-0.759247
 20
2.278177
  0
VERTEX
  8
EBENE_1
 62
    39
  6
CONTINUOUS
 10
-0.773156
 20
2.287095
  0
VERTEX
  8
EBENE_1
 62
    39
  6
CONTINUOUS
 10
-0.786981
 20
2.296769
  0
VERTEX
  8
EBENE_1
 62
    39
  6
CONTINUOUS
 10
-0.800648
 20
2.307196
  0
VERTEX
  8
EBENE_1
 62
    39
  6
CONTINUOUS
 10
-0.814082
 20
2.318368
  0
VERTEX
  8
EBENE_1
 62
    39
  6
CONTINUOUS
 10
-0.827210
 20
2.330282
  0
VERTEX
  8
EBENE_1
 62
    39
  6
CONTINUOUS
 10
-0.839958
 20
2.342932
  0
VERTEX
  8
EBENE_1
 62
    39
  6
CONTINUOUS
 10
-0.852252
 20
2.356313
  0
VERTEX
  8
EBENE_1
 62
    39
  6
CONTINUOUS
 10
-0.864018
 20
2.370420
  0
VERTEX
  8
EBENE_1
 62
    39
  6
CONTINUOUS
 10
-0.875182
 20
2.385248
  0
VERTEX
  8
EBENE_1
 62
    39
  6
CONTINUOUS
 10
-0.885670
 20
2.400791
  0
VERTEX
  8
EBENE_1
 62
    39
  6
CONTINUOUS
 10
-0.895408
 20
2.417044
  0
VERTEX
  8
EBENE_1
 62
    39
  6
CONTINUOUS
 10
-0.904322
 20
2.434003
  0
VERTEX
  8
EBENE_1
 62
    39
  6
CONTINUOUS
 10
-0.912338
 20
2.451662
  0
VERTEX
  8
EBENE_1
 62
    39
  6
CONTINUOUS
 10
-0.919382
 20
2.470016
  0
VERTEX
  8
EBENE_1
 62
    39
  6
CONTINUOUS
 10
-0.919382
 20
2.470016
  0
VERTEX
  8
EBENE_1
 62
    39
  6
CONTINUOUS
 10
-0.922181
 20
2.493638
  0
VERTEX
  8
EBENE_1
 62
    39
  6
CONTINUOUS
 10
-0.921009
 20
2.515073
  0
VERTEX
  8
EBENE_1
 62
    39
  6
CONTINUOUS
 10
-0.916277
 20
2.534037
  0
VERTEX
  8
EBENE_1
 62
    39
  6
CONTINUOUS
 10
-0.908401
 20
2.550246
  0
VERTEX
  8
EBENE_1
 62
    39
  6
CONTINUOUS
 10
-0.897793
 20
2.563417
  0
VERTEX
  8
EBENE_1
 62
    39
  6
CONTINUOUS
 10
-0.884868
 20
2.573265
  0
VERTEX
  8
EBENE_1
 62
    39
  6
CONTINUOUS
 10
-0.870039
 20
2.579508
  0
VERTEX
  8
EBENE_1
 62
    39
  6
CONTINUOUS
 10
-0.665921
 20
2.634256
  0
VERTEX
  8
EBENE_1
 62
    39
  6
CONTINUOUS
 10
-0.645270
 20
2.636831
  0
VERTEX
  8
EBENE_1
 62
    39
  6
CONTINUOUS
 10
-0.631151
 20
2.633004
  0
VERTEX
  8
EBENE_1
 62
    39
  6
CONTINUOUS
 10
-0.621313
 20
2.624708
  0
VERTEX
  8
EBENE_1
 62
    39
  6
CONTINUOUS
 10
-0.613502
 20
2.613878
  0
VERTEX
  8
EBENE_1
 62
    39
  6
CONTINUOUS
 10
-0.605467
 20
2.602447
  0
SEQEND
  8
0
  0
POLYLINE
  8
EBENE_1
 62
    39
  6
CONTINUOUS
 66
     1
 40
0.003000
 41
0.003000
 70
     1
  0
VERTEX
  8
EBENE_1
 62
    39
  6
CONTINUOUS
 10
-0.594953
 20
2.591000
  0
VERTEX
  8
EBENE_1
 62
    39
  6
CONTINUOUS
 10
-0.411110
 20
2.288201
  0
VERTEX
  8
EBENE_1
 62
    39
  6
CONTINUOUS
 10
-0.603740
 20
2.238185
  0
VERTEX
  8
EBENE_1
 62
    39
  6
CONTINUOUS
 10
-0.612260
 20
2.236753
  0
VERTEX
  8
EBENE_1
 62
    39
  6
CONTINUOUS
 10
-0.621702
 20
2.236198
  0
VERTEX
  8
EBENE_1
 62
    39
  6
CONTINUOUS
 10
-0.631982
 20
2.236513
  0
VERTEX
  8
EBENE_1
 62
    39
  6
CONTINUOUS
 10
-0.643022
 20
2.237692
  0
VERTEX
  8
EBENE_1
 62
    39
  6
CONTINUOUS
 10
-0.654740
 20
2.239730
  0
VERTEX
  8
EBENE_1
 62
    39
  6
CONTINUOUS
 10
-0.667054
 20
2.242621
  0
VERTEX
  8
EBENE_1
 62
    39
  6
CONTINUOUS
 10
-0.679885
 20
2.246359
  0
VERTEX
  8
EBENE_1
 62
    39
  6
CONTINUOUS
 10
-0.693150
 20
2.250939
  0
VERTEX
  8
EBENE_1
 62
    39
  6
CONTINUOUS
 10
-0.706769
 20
2.256354
  0
VERTEX
  8
EBENE_1
 62
    39
  6
CONTINUOUS
 10
-0.720662
 20
2.262600
  0
VERTEX
  8
EBENE_1
 62
    39
  6
CONTINUOUS
 10
-0.734746
 20
2.269669
  0
VERTEX
  8
EBENE_1
 62
    39
  6
CONTINUOUS
 10
-0.748941
 20
2.277557
  0
VERTEX
  8
EBENE_1
 62
    39
  6
CONTINUOUS
 10
-0.763166
 20
2.286258
  0
VERTEX
  8
EBENE_1
 62
    39
  6
CONTINUOUS
 10
-0.777340
 20
2.295765
  0
VERTEX
  8
EBENE_1
 62
    39
  6
CONTINUOUS
 10
-0.791382
 20
2.306074
  0
VERTEX
  8
EBENE_1
 62
    39
  6
CONTINUOUS
 10
-0.805211
 20
2.317178
  0
VERTEX
  8
EBENE_1
 62
    39
  6
CONTINUOUS
 10
-0.818746
 20
2.329071
  0
VERTEX
  8
EBENE_1
 62
    39
  6
CONTINUOUS
 10
-0.831907
 20
2.341748
  0
VERTEX
  8
EBENE_1
 62
    39
  6
CONTINUOUS
 10
-0.844611
 20
2.355203
  0
VERTEX
  8
EBENE_1
 62
    39
  6
CONTINUOUS
 10
-0.856778
 20
2.369431
  0
VERTEX
  8
EBENE_1
 62
    39
  6
CONTINUOUS
 10
-0.868328
 20
2.384424
  0
VERTEX
  8
EBENE_1
 62
    39
  6
CONTINUOUS
 10
-0.879178
 20
2.400179
  0
VERTEX
  8
EBENE_1
 62
    39
  6
CONTINUOUS
 10
-0.889249
 20
2.416689
  0
VERTEX
  8
EBENE_1
 62
    39
  6
CONTINUOUS
 10
-0.898459
 20
2.433947
  0
VERTEX
  8
EBENE_1
 62
    39
  6
CONTINUOUS
 10
-0.906727
 20
2.451949
  0
VERTEX
  8
EBENE_1
 62
    39
  6
CONTINUOUS
 10
-0.913972
 20
2.470689
  0
VERTEX
  8
EBENE_1
 62
    39
  6
CONTINUOUS
 10
-0.913972
 20
2.470689
  0
VERTEX
  8
EBENE_1
 62
    39
  6
CONTINUOUS
 10
-0.916811
 20
2.494022
  0
VERTEX
  8
EBENE_1
 62
    39
  6
CONTINUOUS
 10
-0.915735
 20
2.515168
  0
VERTEX
  8
EBENE_1
 62
    39
  6
CONTINUOUS
 10
-0.911136
 20
2.533843
  0
VERTEX
  8
EBENE_1
 62
    39
  6
CONTINUOUS
 10
-0.903404
 20
2.549763
  0
VERTEX
  8
EBENE_1
 62
    39
  6
CONTINUOUS
 10
-0.892929
 20
2.562644
  0
VERTEX
  8
EBENE_1
 62
    39
  6
CONTINUOUS
 10
-0.880101
 20
2.572204
  0
VERTEX
  8
EBENE_1
 62
    39
  6
CONTINUOUS
 10
-0.865311
 20
2.578157
  0
VERTEX
  8
EBENE_1
 62
    39
  6
CONTINUOUS
 10
-0.664571
 20
2.632228
  0
VERTEX
  8
EBENE_1
 62
    39
  6
CONTINUOUS
 10
-0.644441
 20
2.634852
  0
VERTEX
  8
EBENE_1
 62
    39
  6
CONTINUOUS
 10
-0.630601
 20
2.631150
  0
VERTEX
  8
EBENE_1
 62
    39
  6
CONTINUOUS
 10
-0.620892
 20
2.623018
  0
VERTEX
  8
EBENE_1
 62
    39
  6
CONTINUOUS
 10
-0.613153
 20
2.612351
  0
VERTEX
  8
EBENE_1
 62
    39
  6
CONTINUOUS
 10
-0.605227
 20
2.601047
  0
SEQEND
  8
0
  0
POLYLINE
  8
EBENE_1
 62
    39
  6
CONTINUOUS
 66
     1
 40
0.003000
 41
0.003000
 70
     1
  0
VERTEX
  8
EBENE_1
 62
    39
  6
CONTINUOUS
 10
-0.759197
 20
2.576803
  0
VERTEX
  8
EBENE_1
 62
    39
  6
CONTINUOUS
 10
-0.755941
 20
2.577655
  0
VERTEX
  8
EBENE_1
 62
    39
  6
CONTINUOUS
 10
-0.753438
 20
2.580008
  0
VERTEX
  8
EBENE_1
 62
    39
  6
CONTINUOUS
 10
-0.752437
 20
2.583563
  0
VERTEX
  8
EBENE_1
 62
    39
  6
CONTINUOUS
 10
-0.753438
 20
2.586817
  0
VERTEX
  8
EBENE_1
 62
    39
  6
CONTINUOUS
 10
-0.755941
 20
2.589321
  0
VERTEX
  8
EBENE_1
 62
    39
  6
CONTINUOUS
 10
-0.759197
 20
2.590323
  0
VERTEX
  8
EBENE_1
 62
    39
  6
CONTINUOUS
 10
-0.762749
 20
2.589321
  0
VERTEX
  8
EBENE_1
 62
    39
  6
CONTINUOUS
 10
-0.765101
 20
2.586817
  0
VERTEX
  8
EBENE_1
 62
    39
  6
CONTINUOUS
 10
-0.765953
 20
2.583563
  0
VERTEX
  8
EBENE_1
 62
    39
  6
CONTINUOUS
 10
-0.765101
 20
2.580008
  0
VERTEX
  8
EBENE_1
 62
    39
  6
CONTINUOUS
 10
-0.762749
 20
2.577655
  0
SEQEND
  8
0
  0
POLYLINE
  8
EBENE_1
 62
    39
  6
CONTINUOUS
 66
     1
 40
0.003000
 41
0.003000
 70
     1
  0
VERTEX
  8
EBENE_1
 62
    39
  6
CONTINUOUS
 10
-0.687551
 20
2.592350
  0
VERTEX
  8
EBENE_1
 62
    39
  6
CONTINUOUS
 10
-0.683996
 20
2.593202
  0
VERTEX
  8
EBENE_1
 62
    39
  6
CONTINUOUS
 10
-0.681643
 20
2.595555
  0
VERTEX
  8
EBENE_1
 62
    39
  6
CONTINUOUS
 10
-0.680791
 20
2.599110
  0
VERTEX
  8
EBENE_1
 62
    39
  6
CONTINUOUS
 10
-0.681643
 20
2.602363
  0
VERTEX
  8
EBENE_1
 62
    39
  6
CONTINUOUS
 10
-0.683996
 20
2.604865
  0
VERTEX
  8
EBENE_1
 62
    39
  6
CONTINUOUS
 10
-0.687551
 20
2.605866
  0
VERTEX
  8
EBENE_1
 62
    39
  6
CONTINUOUS
 10
-0.690805
 20
2.604865
  0
VERTEX
  8
EBENE_1
 62
    39
  6
CONTINUOUS
 10
-0.693309
 20
2.602363
  0
VERTEX
  8
EBENE_1
 62
    39
  6
CONTINUOUS
 10
-0.694311
 20
2.599110
  0
VERTEX
  8
EBENE_1
 62
    39
  6
CONTINUOUS
 10
-0.693309
 20
2.595555
  0
VERTEX
  8
EBENE_1
 62
    39
  6
CONTINUOUS
 10
-0.690805
 20
2.593202
  0
SEQEND
  8
0
  0
POLYLINE
  8
EBENE_1
 62
    39
  6
CONTINUOUS
 66
     1
 40
0.003000
 41
0.003000
 70
     1
  0
VERTEX
  8
EBENE_1
 62
    39
  6
CONTINUOUS
 10
-0.617256
 20
2.565315
  0
VERTEX
  8
EBENE_1
 62
    39
  6
CONTINUOUS
 10
-0.613704
 20
2.566166
  0
VERTEX
  8
EBENE_1
 62
    39
  6
CONTINUOUS
 10
-0.611351
 20
2.568520
  0
VERTEX
  8
EBENE_1
 62
    39
  6
CONTINUOUS
 10
-0.610500
 20
2.572075
  0
VERTEX
  8
EBENE_1
 62
    39
  6
CONTINUOUS
 10
-0.611351
 20
2.575329
  0
VERTEX
  8
EBENE_1
 62
    39
  6
CONTINUOUS
 10
-0.613704
 20
2.577833
  0
VERTEX
  8
EBENE_1
 62
    39
  6
CONTINUOUS
 10
-0.617256
 20
2.578835
  0
VERTEX
  8
EBENE_1
 62
    39
  6
CONTINUOUS
 10
-0.620812
 20
2.577833
  0
VERTEX
  8
EBENE_1
 62
    39
  6
CONTINUOUS
 10
-0.623165
 20
2.575329
  0
VERTEX
  8
EBENE_1
 62
    39
  6
CONTINUOUS
 10
-0.624016
 20
2.572075
  0
VERTEX
  8
EBENE_1
 62
    39
  6
CONTINUOUS
 10
-0.623165
 20
2.568520
  0
VERTEX
  8
EBENE_1
 62
    39
  6
CONTINUOUS
 10
-0.620812
 20
2.566166
  0
SEQEND
  8
0
  0
POLYLINE
  8
EBENE_1
 62
    39
  6
CONTINUOUS
 66
     1
 40
0.003000
 41
0.003000
 70
     1
  0
VERTEX
  8
EBENE_1
 62
    39
  6
CONTINUOUS
 10
-0.394890
 20
2.644394
  0
VERTEX
  8
EBENE_1
 62
    39
  6
CONTINUOUS
 10
-0.206992
 20
2.336866
  0
VERTEX
  8
EBENE_1
 62
    39
  6
CONTINUOUS
 10
-0.403677
 20
2.285496
  0
VERTEX
  8
EBENE_1
 62
    39
  6
CONTINUOUS
 10
-0.411951
 20
2.284177
  0
VERTEX
  8
EBENE_1
 62
    39
  6
CONTINUOUS
 10
-0.421101
 20
2.283671
  0
VERTEX
  8
EBENE_1
 62
    39
  6
CONTINUOUS
 10
-0.431055
 20
2.283974
  0
VERTEX
  8
EBENE_1
 62
    39
  6
CONTINUOUS
 10
-0.441739
 20
2.285081
  0
VERTEX
  8
EBENE_1
 62
    39
  6
CONTINUOUS
 10
-0.453078
 20
2.286988
  0
VERTEX
  8
EBENE_1
 62
    39
  6
CONTINUOUS
 10
-0.464998
 20
2.289690
  0
VERTEX
  8
EBENE_1
 62
    39
  6
CONTINUOUS
 10
-0.477426
 20
2.293182
  0
VERTEX
  8
EBENE_1
 62
    39
  6
CONTINUOUS
 10
-0.490287
 20
2.297460
  0
VERTEX
  8
EBENE_1
 62
    39
  6
CONTINUOUS
 10
-0.503508
 20
2.302520
  0
VERTEX
  8
EBENE_1
 62
    39
  6
CONTINUOUS
 10
-0.517014
 20
2.308357
  0
VERTEX
  8
EBENE_1
 62
    39
  6
CONTINUOUS
 10
-0.530732
 20
2.314966
  0
VERTEX
  8
EBENE_1
 62
    39
  6
CONTINUOUS
 10
-0.544588
 20
2.322343
  0
VERTEX
  8
EBENE_1
 62
    39
  6
CONTINUOUS
 10
-0.558507
 20
2.330483
  0
VERTEX
  8
EBENE_1
 62
    39
  6
CONTINUOUS
 10
-0.572416
 20
2.339382
  0
VERTEX
  8
EBENE_1
 62
    39
  6
CONTINUOUS
 10
-0.586241
 20
2.349036
  0
VERTEX
  8
EBENE_1
 62
    39
  6
CONTINUOUS
 10
-0.599907
 20
2.359439
  0
VERTEX
  8
EBENE_1
 62
    39
  6
CONTINUOUS
 10
-0.613342
 20
2.370587
  0
VERTEX
  8
EBENE_1
 62
    39
  6
CONTINUOUS
 10
-0.626470
 20
2.382476
  0
VERTEX
  8
EBENE_1
 62
    39
  6
CONTINUOUS
 10
-0.639218
 20
2.395101
  0
VERTEX
  8
EBENE_1
 62
    39
  6
CONTINUOUS
 10
-0.651512
 20
2.408458
  0
VERTEX
  8
EBENE_1
 62
    39
  6
CONTINUOUS
 10
-0.663278
 20
2.422542
  0
VERTEX
  8
EBENE_1
 62
    39
  6
CONTINUOUS
 10
-0.674442
 20
2.437348
  0
VERTEX
  8
EBENE_1
 62
    39
  6
CONTINUOUS
 10
-0.684929
 20
2.452872
  0
VERTEX
  8
EBENE_1
 62
    39
  6
CONTINUOUS
 10
-0.694667
 20
2.469110
  0
VERTEX
  8
EBENE_1
 62
    39
  6
CONTINUOUS
 10
-0.703581
 20
2.486057
  0
VERTEX
  8
EBENE_1
 62
    39
  6
CONTINUOUS
 10
-0.711597
 20
2.503708
  0
VERTEX
  8
EBENE_1
 62
    39
  6
CONTINUOUS
 10
-0.718642
 20
2.522059
  0
VERTEX
  8
EBENE_1
 62
    39
  6
CONTINUOUS
 10
-0.718642
 20
2.522059
  0
VERTEX
  8
EBENE_1
 62
    39
  6
CONTINUOUS
 10
-0.721345
 20
2.543064
  0
VERTEX
  8
EBENE_1
 62
    39
  6
CONTINUOUS
 10
-0.721007
 20
2.562359
  0
VERTEX
  8
EBENE_1
 62
    39
  6
CONTINUOUS
 10
-0.717881
 20
2.579752
  0
VERTEX
  8
EBENE_1
 62
    39
  6
CONTINUOUS
 10
-0.712220
 20
2.595055
  0
VERTEX
  8
EBENE_1
 62
    39
  6
CONTINUOUS
 10
-0.704279
 20
2.608076
  0
VERTEX
  8
EBENE_1
 62
    39
  6
CONTINUOUS
 10
-0.694310
 20
2.618626
  0
VERTEX
  8
EBENE_1
 62
    39
  6
CONTINUOUS
 10
-0.682567
 20
2.626514
  0
VERTEX
  8
EBENE_1
 62
    39
  6
CONTINUOUS
 10
-0.669303
 20
2.631551
  0
VERTEX
  8
EBENE_1
 62
    39
  6
CONTINUOUS
 10
-0.465181
 20
2.686299
  0
VERTEX
  8
EBENE_1
 62
    39
  6
CONTINUOUS
 10
-0.444768
 20
2.689155
  0
VERTEX
  8
EBENE_1
 62
    39
  6
CONTINUOUS
 10
-0.430738
 20
2.685497
  0
VERTEX
  8
EBENE_1
 62
    39
  6
CONTINUOUS
 10
-0.420913
 20
2.677258
  0
VERTEX
  8
EBENE_1
 62
    39
  6
CONTINUOUS
 10
-0.413115
 20
2.666372
  0
VERTEX
  8
EBENE_1
 62
    39
  6
CONTINUOUS
 10
-0.405167
 20
2.654773
  0
SEQEND
  8
0
  0
POLYLINE
  8
EBENE_1
 62
    39
  6
CONTINUOUS
 66
     1
 40
0.003000
 41
0.003000
 70
     1
  0
VERTEX
  8
EBENE_1
 62
    39
  6
CONTINUOUS
 10
-0.394890
 20
2.643039
  0
VERTEX
  8
EBENE_1
 62
    39
  6
CONTINUOUS
 10
-0.210374
 20
2.340244
  0
VERTEX
  8
EBENE_1
 62
    39
  6
CONTINUOUS
 10
-0.403677
 20
2.290228
  0
VERTEX
  8
EBENE_1
 62
    39
  6
CONTINUOUS
 10
-0.412125
 20
2.288869
  0
VERTEX
  8
EBENE_1
 62
    39
  6
CONTINUOUS
 10
-0.421505
 20
2.288374
  0
VERTEX
  8
EBENE_1
 62
    39
  6
CONTINUOUS
 10
-0.431735
 20
2.288738
  0
VERTEX
  8
EBENE_1
 62
    39
  6
CONTINUOUS
 10
-0.442733
 20
2.289958
  0
VERTEX
  8
EBENE_1
 62
    39
  6
CONTINUOUS
 10
-0.454417
 20
2.292027
  0
VERTEX
  8
EBENE_1
 62
    39
  6
CONTINUOUS
 10
-0.466706
 20
2.294940
  0
VERTEX
  8
EBENE_1
 62
    39
  6
CONTINUOUS
 10
-0.479516
 20
2.298693
  0
VERTEX
  8
EBENE_1
 62
    39
  6
CONTINUOUS
 10
-0.492768
 20
2.303280
  0
VERTEX
  8
EBENE_1
 62
    39
  6
CONTINUOUS
 10
-0.506378
 20
2.308697
  0
VERTEX
  8
EBENE_1
 62
    39
  6
CONTINUOUS
 10
-0.520264
 20
2.314937
  0
VERTEX
  8
EBENE_1
 62
    39
  6
CONTINUOUS
 10
-0.534345
 20
2.321997
  0
VERTEX
  8
EBENE_1
 62
    39
  6
CONTINUOUS
 10
-0.548539
 20
2.329871
  0
VERTEX
  8
EBENE_1
 62
    39
  6
CONTINUOUS
 10
-0.562764
 20
2.338554
  0
VERTEX
  8
EBENE_1
 62
    39
  6
CONTINUOUS
 10
-0.576938
 20
2.348040
  0
VERTEX
  8
EBENE_1
 62
    39
  6
CONTINUOUS
 10
-0.590979
 20
2.358326
  0
VERTEX
  8
EBENE_1
 62
    39
  6
CONTINUOUS
 10
-0.604805
 20
2.369405
  0
VERTEX
  8
EBENE_1
 62
    39
  6
CONTINUOUS
 10
-0.618335
 20
2.381272
  0
VERTEX
  8
EBENE_1
 62
    39
  6
CONTINUOUS
 10
-0.631486
 20
2.393924
  0
VERTEX
  8
EBENE_1
 62
    39
  6
CONTINUOUS
 10
-0.644176
 20
2.407353
  0
VERTEX
  8
EBENE_1
 62
    39
  6
CONTINUOUS
 10
-0.656324
 20
2.421557
  0
VERTEX
  8
EBENE_1
 62
    39
  6
CONTINUOUS
 10
-0.667847
 20
2.436528
  0
VERTEX
  8
EBENE_1
 62
    39
  6
CONTINUOUS
 10
-0.678665
 20
2.452263
  0
VERTEX
  8
EBENE_1
 62
    39
  6
CONTINUOUS
 10
-0.688694
 20
2.468756
  0
VERTEX
  8
EBENE_1
 62
    39
  6
CONTINUOUS
 10
-0.697852
 20
2.486002
  0
VERTEX
  8
EBENE_1
 62
    39
  6
CONTINUOUS
 10
-0.706059
 20
2.503995
  0
VERTEX
  8
EBENE_1
 62
    39
  6
CONTINUOUS
 10
-0.713232
 20
2.522732
  0
VERTEX
  8
EBENE_1
 62
    39
  6
CONTINUOUS
 10
-0.716072
 20
2.546068
  0
VERTEX
  8
EBENE_1
 62
    39
  6
CONTINUOUS
 10
-0.715011
 20
2.567228
  0
VERTEX
  8
EBENE_1
 62
    39
  6
CONTINUOUS
 10
-0.710449
 20
2.585940
  0
VERTEX
  8
EBENE_1
 62
    39
  6
CONTINUOUS
 10
-0.702790
 20
2.601933
  0
VERTEX
  8
EBENE_1
 62
    39
  6
CONTINUOUS
 10
-0.692435
 20
2.614935
  0
VERTEX
  8
EBENE_1
 62
    39
  6
CONTINUOUS
 10
-0.679787
 20
2.624672
  0
VERTEX
  8
EBENE_1
 62
    39
  6
CONTINUOUS
 10
-0.665248
 20
2.630874
  0
VERTEX
  8
EBENE_1
 62
    39
  6
CONTINUOUS
 10
-0.463831
 20
2.684272
  0
VERTEX
  8
EBENE_1
 62
    39
  6
CONTINUOUS
 10
-0.443751
 20
2.686897
  0
VERTEX
  8
EBENE_1
 62
    39
  6
CONTINUOUS
 10
-0.430037
 20
2.683195
  0
VERTEX
  8
EBENE_1
 62
    39
  6
CONTINUOUS
 10
-0.420490
 20
2.675062
  0
VERTEX
  8
EBENE_1
 62
    39
  6
CONTINUOUS
 10
-0.412915
 20
2.664394
  0
VERTEX
  8
EBENE_1
 62
    39
  6
CONTINUOUS
 10
-0.405114
 20
2.653088
  0
SEQEND
  8
0
  0
POLYLINE
  8
EBENE_1
 62
    39
  6
CONTINUOUS
 66
     1
 40
0.003000
 41
0.003000
 70
     1
  0
VERTEX
  8
EBENE_1
 62
    39
  6
CONTINUOUS
 10
-0.559130
 20
2.628846
  0
VERTEX
  8
EBENE_1
 62
    39
  6
CONTINUOUS
 10
-0.555578
 20
2.629848
  0
VERTEX
  8
EBENE_1
 62
    39
  6
CONTINUOUS
 10
-0.553225
 20
2.632352
  0
VERTEX
  8
EBENE_1
 62
    39
  6
CONTINUOUS
 10
-0.552374
 20
2.635606
  0
VERTEX
  8
EBENE_1
 62
    39
  6
CONTINUOUS
 10
-0.553225
 20
2.639161
  0
VERTEX
  8
EBENE_1
 62
    39
  6
CONTINUOUS
 10
-0.555578
 20
2.641515
  0
VERTEX
  8
EBENE_1
 62
    39
  6
CONTINUOUS
 10
-0.559130
 20
2.642366
  0
VERTEX
  8
EBENE_1
 62
    39
  6
CONTINUOUS
 10
-0.562386
 20
2.641515
  0
VERTEX
  8
EBENE_1
 62
    39
  6
CONTINUOUS
 10
-0.564889
 20
2.639161
  0
VERTEX
  8
EBENE_1
 62
    39
  6
CONTINUOUS
 10
-0.565890
 20
2.635606
  0
VERTEX
  8
EBENE_1
 62
    39
  6
CONTINUOUS
 10
-0.564889
 20
2.632352
  0
VERTEX
  8
EBENE_1
 62
    39
  6
CONTINUOUS
 10
-0.562386
 20
2.629848
  0
SEQEND
  8
0
  0
POLYLINE
  8
EBENE_1
 62
    39
  6
CONTINUOUS
 66
     1
 40
0.003000
 41
0.003000
 70
     1
  0
VERTEX
  8
EBENE_1
 62
    39
  6
CONTINUOUS
 10
-0.486811
 20
2.644394
  0
VERTEX
  8
EBENE_1
 62
    39
  6
CONTINUOUS
 10
-0.483558
 20
2.645395
  0
VERTEX
  8
EBENE_1
 62
    39
  6
CONTINUOUS
 10
-0.481056
 20
2.647898
  0
VERTEX
  8
EBENE_1
 62
    39
  6
CONTINUOUS
 10
-0.480055
 20
2.651154
  0
VERTEX
  8
EBENE_1
 62
    39
  6
CONTINUOUS
 10
-0.481056
 20
2.654708
  0
VERTEX
  8
EBENE_1
 62
    39
  6
CONTINUOUS
 10
-0.483558
 20
2.657062
  0
VERTEX
  8
EBENE_1
 62
    39
  6
CONTINUOUS
 10
-0.486811
 20
2.657913
  0
VERTEX
  8
EBENE_1
 62
    39
  6
CONTINUOUS
 10
-0.490366
 20
2.657062
  0
VERTEX
  8
EBENE_1
 62
    39
  6
CONTINUOUS
 10
-0.492719
 20
2.654708
  0
VERTEX
  8
EBENE_1
 62
    39
  6
CONTINUOUS
 10
-0.493571
 20
2.651154
  0
VERTEX
  8
EBENE_1
 62
    39
  6
CONTINUOUS
 10
-0.492719
 20
2.647898
  0
VERTEX
  8
EBENE_1
 62
    39
  6
CONTINUOUS
 10
-0.490366
 20
2.645395
  0
SEQEND
  8
0
  0
POLYLINE
  8
EBENE_1
 62
    39
  6
CONTINUOUS
 66
     1
 40
0.003000
 41
0.003000
 70
     1
  0
VERTEX
  8
EBENE_1
 62
    39
  6
CONTINUOUS
 10
-0.416520
 20
2.617358
  0
VERTEX
  8
EBENE_1
 62
    39
  6
CONTINUOUS
 10
-0.413264
 20
2.618360
  0
VERTEX
  8
EBENE_1
 62
    39
  6
CONTINUOUS
 10
-0.410761
 20
2.620864
  0
VERTEX
  8
EBENE_1
 62
    39
  6
CONTINUOUS
 10
-0.409760
 20
2.624118
  0
VERTEX
  8
EBENE_1
 62
    39
  6
CONTINUOUS
 10
-0.410761
 20
2.627672
  0
VERTEX
  8
EBENE_1
 62
    39
  6
CONTINUOUS
 10
-0.413264
 20
2.630024
  0
VERTEX
  8
EBENE_1
 62
    39
  6
CONTINUOUS
 10
-0.416520
 20
2.630874
  0
VERTEX
  8
EBENE_1
 62
    39
  6
CONTINUOUS
 10
-0.420075
 20
2.630024
  0
VERTEX
  8
EBENE_1
 62
    39
  6
CONTINUOUS
 10
-0.422428
 20
2.627672
  0
VERTEX
  8
EBENE_1
 62
    39
  6
CONTINUOUS
 10
-0.423280
 20
2.624118
  0
VERTEX
  8
EBENE_1
 62
    39
  6
CONTINUOUS
 10
-0.422428
 20
2.620864
  0
VERTEX
  8
EBENE_1
 62
    39
  6
CONTINUOUS
 10
-0.420075
 20
2.618360
  0
SEQEND
  8
0
  0
POLYLINE
  8
EBENE_1
 62
    39
  6
CONTINUOUS
 66
     1
 40
0.003000
 41
0.003000
 70
     1
  0
VERTEX
  8
EBENE_1
 62
    39
  6
CONTINUOUS
 10
-0.194154
 20
2.696437
  0
VERTEX
  8
EBENE_1
 62
    39
  6
CONTINUOUS
 10
-0.006933
 20
2.388909
  0
VERTEX
  8
EBENE_1
 62
    39
  6
CONTINUOUS
 10
-0.202941
 20
2.338217
  0
VERTEX
  8
EBENE_1
 62
    39
  6
CONTINUOUS
 10
-0.211217
 20
2.336828
  0
VERTEX
  8
EBENE_1
 62
    39
  6
CONTINUOUS
 10
-0.220375
 20
2.336263
  0
VERTEX
  8
EBENE_1
 62
    39
  6
CONTINUOUS
 10
-0.230341
 20
2.336515
  0
VERTEX
  8
EBENE_1
 62
    39
  6
CONTINUOUS
 10
-0.241040
 20
2.337581
  0
VERTEX
  8
EBENE_1
 62
    39
  6
CONTINUOUS
 10
-0.252398
 20
2.339454
  0
VERTEX
  8
EBENE_1
 62
    39
  6
CONTINUOUS
 10
-0.264339
 20
2.342129
  0
VERTEX
  8
EBENE_1
 62
    39
  6
CONTINUOUS
 10
-0.276790
 20
2.345601
  0
VERTEX
  8
EBENE_1
 62
    39
  6
CONTINUOUS
 10
-0.289676
 20
2.349864
  0
VERTEX
  8
EBENE_1
 62
    39
  6
CONTINUOUS
 10
-0.302921
 20
2.354914
  0
VERTEX
  8
EBENE_1
 62
    39
  6
CONTINUOUS
 10
-0.316452
 20
2.360744
  0
VERTEX
  8
EBENE_1
 62
    39
  6
CONTINUOUS
 10
-0.330194
 20
2.367349
  0
VERTEX
  8
EBENE_1
 62
    39
  6
CONTINUOUS
 10
-0.344073
 20
2.374724
  0
VERTEX
  8
EBENE_1
 62
    39
  6
CONTINUOUS
 10
-0.358013
 20
2.382864
  0
VERTEX
  8
EBENE_1
 62
    39
  6
CONTINUOUS
 10
-0.371941
 20
2.391763
  0
VERTEX
  8
EBENE_1
 62
    39
  6
CONTINUOUS
 10
-0.385781
 20
2.401415
  0
VERTEX
  8
EBENE_1
 62
    39
  6
CONTINUOUS
 10
-0.399459
 20
2.411817
  0
VERTEX
  8
EBENE_1
 62
    39
  6
CONTINUOUS
 10
-0.412901
 20
2.422961
  0
VERTEX
  8
EBENE_1
 62
    39
  6
CONTINUOUS
 10
-0.426032
 20
2.434844
  0
VERTEX
  8
EBENE_1
 62
    39
  6
CONTINUOUS
 10
-0.438777
 20
2.447458
  0
VERTEX
  8
EBENE_1
 62
    39
  6
CONTINUOUS
 10
-0.451061
 20
2.460800
  0
VERTEX
  8
EBENE_1
 62
    39
  6
CONTINUOUS
 10
-0.462811
 20
2.474864
  0
VERTEX
  8
EBENE_1
 62
    39
  6
CONTINUOUS
 10
-0.473952
 20
2.489644
  0
VERTEX
  8
EBENE_1
 62
    39
  6
CONTINUOUS
 10
-0.484408
 20
2.505135
  0
VERTEX
  8
EBENE_1
 62
    39
  6
CONTINUOUS
 10
-0.494106
 20
2.521332
  0
VERTEX
  8
EBENE_1
 62
    39
  6
CONTINUOUS
 10
-0.502970
 20
2.538229
  0
VERTEX
  8
EBENE_1
 62
    39
  6
CONTINUOUS
 10
-0.510927
 20
2.555821
  0
VERTEX
  8
EBENE_1
 62
    39
  6
CONTINUOUS
 10
-0.517902
 20
2.574102
  0
VERTEX
  8
EBENE_1
 62
    39
  6
CONTINUOUS
 10
-0.517902
 20
2.574102
  0
VERTEX
  8
EBENE_1
 62
    39
  6
CONTINUOUS
 10
-0.520800
 20
2.595109
  0
VERTEX
  8
EBENE_1
 62
    39
  6
CONTINUOUS
 10
-0.520563
 20
2.614413
  0
VERTEX
  8
EBENE_1
 62
    39
  6
CONTINUOUS
 10
-0.517474
 20
2.631831
  0
VERTEX
  8
EBENE_1
 62
    39
  6
CONTINUOUS
 10
-0.511819
 20
2.647183
  0
VERTEX
  8
EBENE_1
 62
    39
  6
CONTINUOUS
 10
-0.503883
 20
2.660285
  0
VERTEX
  8
EBENE_1
 62
    39
  6
CONTINUOUS
 10
-0.493951
 20
2.670955
  0
VERTEX
  8
EBENE_1
 62
    39
  6
CONTINUOUS
 10
-0.482308
 20
2.679011
  0
VERTEX
  8
EBENE_1
 62
    39
  6
CONTINUOUS
 10
-0.469240
 20
2.684272
  0
VERTEX
  8
EBENE_1
 62
    39
  6
CONTINUOUS
 10
-0.264445
 20
2.739016
  0
VERTEX
  8
EBENE_1
 62
    39
  6
CONTINUOUS
 10
-0.244077
 20
2.741588
  0
VERTEX
  8
EBENE_1
 62
    39
  6
CONTINUOUS
 10
-0.230149
 20
2.737740
  0
VERTEX
  8
EBENE_1
 62
    39
  6
CONTINUOUS
 10
-0.220428
 20
2.729385
  0
VERTEX
  8
EBENE_1
 62
    39
  6
CONTINUOUS
 10
-0.212677
 20
2.718440
  0
VERTEX
  8
EBENE_1
 62
    39
  6
CONTINUOUS
 10
-0.204664
 20
2.706819
  0
SEQEND
  8
0
  0
POLYLINE
  8
EBENE_1
 62
    39
  6
CONTINUOUS
 66
     1
 40
0.003000
 41
0.003000
 70
     1
  0
VERTEX
  8
EBENE_1
 62
    39
  6
CONTINUOUS
 10
-0.194154
 20
2.695087
  0
VERTEX
  8
EBENE_1
 62
    39
  6
CONTINUOUS
 10
-0.009634
 20
2.392965
  0
VERTEX
  8
EBENE_1
 62
    39
  6
CONTINUOUS
 10
-0.202941
 20
2.342949
  0
VERTEX
  8
EBENE_1
 62
    39
  6
CONTINUOUS
 10
-0.211389
 20
2.341517
  0
VERTEX
  8
EBENE_1
 62
    39
  6
CONTINUOUS
 10
-0.220769
 20
2.340961
  0
VERTEX
  8
EBENE_1
 62
    39
  6
CONTINUOUS
 10
-0.230999
 20
2.341274
  0
VERTEX
  8
EBENE_1
 62
    39
  6
CONTINUOUS
 10
-0.241997
 20
2.342452
  0
VERTEX
  8
EBENE_1
 62
    39
  6
CONTINUOUS
 10
-0.253681
 20
2.344487
  0
VERTEX
  8
EBENE_1
 62
    39
  6
CONTINUOUS
 10
-0.265969
 20
2.347375
  0
VERTEX
  8
EBENE_1
 62
    39
  6
CONTINUOUS
 10
-0.278780
 20
2.351108
  0
VERTEX
  8
EBENE_1
 62
    39
  6
CONTINUOUS
 10
-0.292031
 20
2.355681
  0
VERTEX
  8
EBENE_1
 62
    39
  6
CONTINUOUS
 10
-0.305640
 20
2.361088
  0
VERTEX
  8
EBENE_1
 62
    39
  6
CONTINUOUS
 10
-0.319527
 20
2.367323
  0
VERTEX
  8
EBENE_1
 62
    39
  6
CONTINUOUS
 10
-0.333608
 20
2.374380
  0
VERTEX
  8
EBENE_1
 62
    39
  6
CONTINUOUS
 10
-0.347802
 20
2.382253
  0
VERTEX
  8
EBENE_1
 62
    39
  6
CONTINUOUS
 10
-0.362027
 20
2.390936
  0
VERTEX
  8
EBENE_1
 62
    39
  6
CONTINUOUS
 10
-0.376200
 20
2.400422
  0
VERTEX
  8
EBENE_1
 62
    39
  6
CONTINUOUS
 10
-0.390241
 20
2.410706
  0
VERTEX
  8
EBENE_1
 62
    39
  6
CONTINUOUS
 10
-0.404068
 20
2.421782
  0
VERTEX
  8
EBENE_1
 62
    39
  6
CONTINUOUS
 10
-0.417597
 20
2.433644
  0
VERTEX
  8
EBENE_1
 62
    39
  6
CONTINUOUS
 10
-0.430748
 20
2.446286
  0
VERTEX
  8
EBENE_1
 62
    39
  6
CONTINUOUS
 10
-0.443438
 20
2.459702
  0
VERTEX
  8
EBENE_1
 62
    39
  6
CONTINUOUS
 10
-0.455586
 20
2.473886
  0
VERTEX
  8
EBENE_1
 62
    39
  6
CONTINUOUS
 10
-0.467110
 20
2.488831
  0
VERTEX
  8
EBENE_1
 62
    39
  6
CONTINUOUS
 10
-0.477927
 20
2.504532
  0
VERTEX
  8
EBENE_1
 62
    39
  6
CONTINUOUS
 10
-0.487956
 20
2.520983
  0
VERTEX
  8
EBENE_1
 62
    39
  6
CONTINUOUS
 10
-0.497115
 20
2.538178
  0
VERTEX
  8
EBENE_1
 62
    39
  6
CONTINUOUS
 10
-0.505323
 20
2.556111
  0
VERTEX
  8
EBENE_1
 62
    39
  6
CONTINUOUS
 10
-0.512496
 20
2.574776
  0
VERTEX
  8
EBENE_1
 62
    39
  6
CONTINUOUS
 10
-0.515371
 20
2.598360
  0
VERTEX
  8
EBENE_1
 62
    39
  6
CONTINUOUS
 10
-0.514391
 20
2.619685
  0
VERTEX
  8
EBENE_1
 62
    39
  6
CONTINUOUS
 10
-0.509924
 20
2.638480
  0
VERTEX
  8
EBENE_1
 62
    39
  6
CONTINUOUS
 10
-0.502336
 20
2.654473
  0
VERTEX
  8
EBENE_1
 62
    39
  6
CONTINUOUS
 10
-0.491993
 20
2.667391
  0
VERTEX
  8
EBENE_1
 62
    39
  6
CONTINUOUS
 10
-0.479262
 20
2.676963
  0
VERTEX
  8
EBENE_1
 62
    39
  6
CONTINUOUS
 10
-0.464508
 20
2.682917
  0
VERTEX
  8
EBENE_1
 62
    39
  6
CONTINUOUS
 10
-0.263768
 20
2.736988
  0
VERTEX
  8
EBENE_1
 62
    39
  6
CONTINUOUS
 10
-0.243638
 20
2.739612
  0
VERTEX
  8
EBENE_1
 62
    39
  6
CONTINUOUS
 10
-0.229798
 20
2.735889
  0
VERTEX
  8
EBENE_1
 62
    39
  6
CONTINUOUS
 10
-0.220089
 20
2.727698
  0
VERTEX
  8
EBENE_1
 62
    39
  6
CONTINUOUS
 10
-0.212351
 20
2.716915
  0
VERTEX
  8
EBENE_1
 62
    39
  6
CONTINUOUS
 10
-0.204426
 20
2.705419
  0
SEQEND
  8
0
  0
POLYLINE
  8
EBENE_1
 62
    39
  6
CONTINUOUS
 66
     1
 40
0.003000
 41
0.003000
 70
     1
  0
VERTEX
  8
EBENE_1
 62
    39
  6
CONTINUOUS
 10
-0.358394
 20
2.681567
  0
VERTEX
  8
EBENE_1
 62
    39
  6
CONTINUOUS
 10
-0.354839
 20
2.682418
  0
VERTEX
  8
EBENE_1
 62
    39
  6
CONTINUOUS
 10
-0.352485
 20
2.684772
  0
VERTEX
  8
EBENE_1
 62
    39
  6
CONTINUOUS
 10
-0.351634
 20
2.688327
  0
VERTEX
  8
EBENE_1
 62
    39
  6
CONTINUOUS
 10
-0.352485
 20
2.691581
  0
VERTEX
  8
EBENE_1
 62
    39
  6
CONTINUOUS
 10
-0.354839
 20
2.694085
  0
VERTEX
  8
EBENE_1
 62
    39
  6
CONTINUOUS
 10
-0.358394
 20
2.695087
  0
VERTEX
  8
EBENE_1
 62
    39
  6
CONTINUOUS
 10
-0.361648
 20
2.694085
  0
VERTEX
  8
EBENE_1
 62
    39
  6
CONTINUOUS
 10
-0.364152
 20
2.691581
  0
VERTEX
  8
EBENE_1
 62
    39
  6
CONTINUOUS
 10
-0.365154
 20
2.688327
  0
VERTEX
  8
EBENE_1
 62
    39
  6
CONTINUOUS
 10
-0.364152
 20
2.684772
  0
VERTEX
  8
EBENE_1
 62
    39
  6
CONTINUOUS
 10
-0.361648
 20
2.682418
  0
SEQEND
  8
0
  0
POLYLINE
  8
EBENE_1
 62
    39
  6
CONTINUOUS
 66
     1
 40
0.003000
 41
0.003000
 70
     1
  0
VERTEX
  8
EBENE_1
 62
    39
  6
CONTINUOUS
 10
-0.286748
 20
2.696437
  0
VERTEX
  8
EBENE_1
 62
    39
  6
CONTINUOUS
 10
-0.283193
 20
2.697438
  0
VERTEX
  8
EBENE_1
 62
    39
  6
CONTINUOUS
 10
-0.280840
 20
2.699941
  0
VERTEX
  8
EBENE_1
 62
    39
  6
CONTINUOUS
 10
-0.279988
 20
2.703197
  0
VERTEX
  8
EBENE_1
 62
    39
  6
CONTINUOUS
 10
-0.280840
 20
2.706752
  0
VERTEX
  8
EBENE_1
 62
    39
  6
CONTINUOUS
 10
-0.283193
 20
2.709105
  0
VERTEX
  8
EBENE_1
 62
    39
  6
CONTINUOUS
 10
-0.286748
 20
2.709957
  0
VERTEX
  8
EBENE_1
 62
    39
  6
CONTINUOUS
 10
-0.290004
 20
2.709105
  0
VERTEX
  8
EBENE_1
 62
    39
  6
CONTINUOUS
 10
-0.292507
 20
2.706752
  0
VERTEX
  8
EBENE_1
 62
    39
  6
CONTINUOUS
 10
-0.293508
 20
2.703197
  0
VERTEX
  8
EBENE_1
 62
    39
  6
CONTINUOUS
 10
-0.292507
 20
2.699941
  0
VERTEX
  8
EBENE_1
 62
    39
  6
CONTINUOUS
 10
-0.290004
 20
2.697438
  0
SEQEND
  8
0
  0
POLYLINE
  8
EBENE_1
 62
    39
  6
CONTINUOUS
 66
     1
 40
0.003000
 41
0.003000
 70
     1
  0
VERTEX
  8
EBENE_1
 62
    39
  6
CONTINUOUS
 10
-0.216457
 20
2.670079
  0
VERTEX
  8
EBENE_1
 62
    39
  6
CONTINUOUS
 10
-0.212902
 20
2.670929
  0
VERTEX
  8
EBENE_1
 62
    39
  6
CONTINUOUS
 10
-0.210548
 20
2.673282
  0
VERTEX
  8
EBENE_1
 62
    39
  6
CONTINUOUS
 10
-0.209697
 20
2.676839
  0
VERTEX
  8
EBENE_1
 62
    39
  6
CONTINUOUS
 10
-0.210548
 20
2.680091
  0
VERTEX
  8
EBENE_1
 62
    39
  6
CONTINUOUS
 10
-0.212902
 20
2.682594
  0
VERTEX
  8
EBENE_1
 62
    39
  6
CONTINUOUS
 10
-0.216457
 20
2.683594
  0
VERTEX
  8
EBENE_1
 62
    39
  6
CONTINUOUS
 10
-0.219711
 20
2.682594
  0
VERTEX
  8
EBENE_1
 62
    39
  6
CONTINUOUS
 10
-0.222215
 20
2.680091
  0
VERTEX
  8
EBENE_1
 62
    39
  6
CONTINUOUS
 10
-0.223217
 20
2.676839
  0
VERTEX
  8
EBENE_1
 62
    39
  6
CONTINUOUS
 10
-0.222215
 20
2.673282
  0
VERTEX
  8
EBENE_1
 62
    39
  6
CONTINUOUS
 10
-0.219711
 20
2.670929
  0
SEQEND
  8
0
  0
POLYLINE
  8
EBENE_1
 62
    39
  6
CONTINUOUS
 66
     1
 40
0.003000
 41
0.003000
 70
     1
  0
VERTEX
  8
EBENE_1
 62
    39
  6
CONTINUOUS
 10
0.005906
 20
2.749157
  0
VERTEX
  8
EBENE_1
 62
    39
  6
CONTINUOUS
 10
0.193803
 20
2.441626
  0
VERTEX
  8
EBENE_1
 62
    39
  6
CONTINUOUS
 10
-0.002874
 20
2.390260
  0
VERTEX
  8
EBENE_1
 62
    39
  6
CONTINUOUS
 10
-0.011148
 20
2.388871
  0
VERTEX
  8
EBENE_1
 62
    39
  6
CONTINUOUS
 10
-0.020299
 20
2.388306
  0
VERTEX
  8
EBENE_1
 62
    39
  6
CONTINUOUS
 10
-0.030253
 20
2.388560
  0
VERTEX
  8
EBENE_1
 62
    39
  6
CONTINUOUS
 10
-0.040937
 20
2.389627
  0
VERTEX
  8
EBENE_1
 62
    39
  6
CONTINUOUS
 10
-0.052276
 20
2.391502
  0
VERTEX
  8
EBENE_1
 62
    39
  6
CONTINUOUS
 10
-0.064197
 20
2.394180
  0
VERTEX
  8
EBENE_1
 62
    39
  6
CONTINUOUS
 10
-0.076625
 20
2.397656
  0
VERTEX
  8
EBENE_1
 62
    39
  6
CONTINUOUS
 10
-0.089486
 20
2.401925
  0
VERTEX
  8
EBENE_1
 62
    39
  6
CONTINUOUS
 10
-0.102707
 20
2.406982
  0
VERTEX
  8
EBENE_1
 62
    39
  6
CONTINUOUS
 10
-0.116214
 20
2.412821
  0
VERTEX
  8
EBENE_1
 62
    39
  6
CONTINUOUS
 10
-0.129932
 20
2.419438
  0
VERTEX
  8
EBENE_1
 62
    39
  6
CONTINUOUS
 10
-0.143788
 20
2.426826
  0
VERTEX
  8
EBENE_1
 62
    39
  6
CONTINUOUS
 10
-0.157707
 20
2.434982
  0
VERTEX
  8
EBENE_1
 62
    39
  6
CONTINUOUS
 10
-0.171616
 20
2.443900
  0
VERTEX
  8
EBENE_1
 62
    39
  6
CONTINUOUS
 10
-0.185441
 20
2.453574
  0
VERTEX
  8
EBENE_1
 62
    39
  6
CONTINUOUS
 10
-0.199107
 20
2.464000
  0
VERTEX
  8
EBENE_1
 62
    39
  6
CONTINUOUS
 10
-0.212541
 20
2.475173
  0
VERTEX
  8
EBENE_1
 62
    39
  6
CONTINUOUS
 10
-0.225669
 20
2.487086
  0
VERTEX
  8
EBENE_1
 62
    39
  6
CONTINUOUS
 10
-0.238417
 20
2.499736
  0
VERTEX
  8
EBENE_1
 62
    39
  6
CONTINUOUS
 10
-0.250711
 20
2.513117
  0
VERTEX
  8
EBENE_1
 62
    39
  6
CONTINUOUS
 10
-0.262477
 20
2.527224
  0
VERTEX
  8
EBENE_1
 62
    39
  6
CONTINUOUS
 10
-0.273640
 20
2.542051
  0
VERTEX
  8
EBENE_1
 62
    39
  6
CONTINUOUS
 10
-0.284128
 20
2.557594
  0
VERTEX
  8
EBENE_1
 62
    39
  6
CONTINUOUS
 10
-0.293865
 20
2.573848
  0
VERTEX
  8
EBENE_1
 62
    39
  6
CONTINUOUS
 10
-0.302779
 20
2.590806
  0
VERTEX
  8
EBENE_1
 62
    39
  6
CONTINUOUS
 10
-0.310795
 20
2.608465
  0
VERTEX
  8
EBENE_1
 62
    39
  6
CONTINUOUS
 10
-0.317839
 20
2.626819
  0
VERTEX
  8
EBENE_1
 62
    39
  6
CONTINUOUS
 10
-0.320675
 20
2.650442
  0
VERTEX
  8
EBENE_1
 62
    39
  6
CONTINUOUS
 10
-0.319585
 20
2.671878
  0
VERTEX
  8
EBENE_1
 62
    39
  6
CONTINUOUS
 10
-0.314949
 20
2.690843
  0
VERTEX
  8
EBENE_1
 62
    39
  6
CONTINUOUS
 10
-0.307144
 20
2.707053
  0
VERTEX
  8
EBENE_1
 62
    39
  6
CONTINUOUS
 10
-0.296548
 20
2.720224
  0
VERTEX
  8
EBENE_1
 62
    39
  6
CONTINUOUS
 10
-0.283541
 20
2.730073
  0
VERTEX
  8
EBENE_1
 62
    39
  6
CONTINUOUS
 10
-0.268500
 20
2.736315
  0
VERTEX
  8
EBENE_1
 62
    39
  6
CONTINUOUS
 10
-0.064382
 20
2.791063
  0
VERTEX
  8
EBENE_1
 62
    39
  6
CONTINUOUS
 10
-0.043967
 20
2.793685
  0
VERTEX
  8
EBENE_1
 62
    39
  6
CONTINUOUS
 10
-0.029936
 20
2.789962
  0
VERTEX
  8
EBENE_1
 62
    39
  6
CONTINUOUS
 10
-0.020111
 20
2.781769
  0
VERTEX
  8
EBENE_1
 62
    39
  6
CONTINUOUS
 10
-0.012315
 20
2.770986
  0
VERTEX
  8
EBENE_1
 62
    39
  6
CONTINUOUS
 10
-0.004368
 20
2.759490
  0
SEQEND
  8
0
  0
POLYLINE
  8
EBENE_1
 62
    39
  6
CONTINUOUS
 66
     1
 40
0.003000
 41
0.003000
 70
     1
  0
VERTEX
  8
EBENE_1
 62
    39
  6
CONTINUOUS
 10
0.005906
 20
2.747803
  0
VERTEX
  8
EBENE_1
 62
    39
  6
CONTINUOUS
 10
0.190425
 20
2.445008
  0
VERTEX
  8
EBENE_1
 62
    39
  6
CONTINUOUS
 10
-0.002201
 20
2.394992
  0
VERTEX
  8
EBENE_1
 62
    39
  6
CONTINUOUS
 10
-0.010724
 20
2.393632
  0
VERTEX
  8
EBENE_1
 62
    39
  6
CONTINUOUS
 10
-0.020172
 20
2.393137
  0
VERTEX
  8
EBENE_1
 62
    39
  6
CONTINUOUS
 10
-0.030466
 20
2.393502
  0
VERTEX
  8
EBENE_1
 62
    39
  6
CONTINUOUS
 10
-0.041522
 20
2.394721
  0
VERTEX
  8
EBENE_1
 62
    39
  6
CONTINUOUS
 10
-0.053260
 20
2.396790
  0
VERTEX
  8
EBENE_1
 62
    39
  6
CONTINUOUS
 10
-0.065597
 20
2.399704
  0
VERTEX
  8
EBENE_1
 62
    39
  6
CONTINUOUS
 10
-0.078451
 20
2.403457
  0
VERTEX
  8
EBENE_1
 62
    39
  6
CONTINUOUS
 10
-0.091742
 20
2.408044
  0
VERTEX
  8
EBENE_1
 62
    39
  6
CONTINUOUS
 10
-0.105387
 20
2.413460
  0
VERTEX
  8
EBENE_1
 62
    39
  6
CONTINUOUS
 10
-0.119305
 20
2.419701
  0
VERTEX
  8
EBENE_1
 62
    39
  6
CONTINUOUS
 10
-0.133414
 20
2.426761
  0
VERTEX
  8
EBENE_1
 62
    39
  6
CONTINUOUS
 10
-0.147633
 20
2.434635
  0
VERTEX
  8
EBENE_1
 62
    39
  6
CONTINUOUS
 10
-0.161879
 20
2.443317
  0
VERTEX
  8
EBENE_1
 62
    39
  6
CONTINUOUS
 10
-0.176071
 20
2.452804
  0
VERTEX
  8
EBENE_1
 62
    39
  6
CONTINUOUS
 10
-0.190128
 20
2.463089
  0
VERTEX
  8
EBENE_1
 62
    39
  6
CONTINUOUS
 10
-0.203967
 20
2.474169
  0
VERTEX
  8
EBENE_1
 62
    39
  6
CONTINUOUS
 10
-0.217507
 20
2.486036
  0
VERTEX
  8
EBENE_1
 62
    39
  6
CONTINUOUS
 10
-0.230666
 20
2.498688
  0
VERTEX
  8
EBENE_1
 62
    39
  6
CONTINUOUS
 10
-0.243363
 20
2.512117
  0
VERTEX
  8
EBENE_1
 62
    39
  6
CONTINUOUS
 10
-0.255516
 20
2.526320
  0
VERTEX
  8
EBENE_1
 62
    39
  6
CONTINUOUS
 10
-0.267043
 20
2.541292
  0
VERTEX
  8
EBENE_1
 62
    39
  6
CONTINUOUS
 10
-0.277863
 20
2.557027
  0
VERTEX
  8
EBENE_1
 62
    39
  6
CONTINUOUS
 10
-0.287893
 20
2.573519
  0
VERTEX
  8
EBENE_1
 62
    39
  6
CONTINUOUS
 10
-0.297053
 20
2.590765
  0
VERTEX
  8
EBENE_1
 62
    39
  6
CONTINUOUS
 10
-0.305260
 20
2.608759
  0
VERTEX
  8
EBENE_1
 62
    39
  6
CONTINUOUS
 10
-0.312433
 20
2.627496
  0
VERTEX
  8
EBENE_1
 62
    39
  6
CONTINUOUS
 10
-0.312433
 20
2.627496
  0
VERTEX
  8
EBENE_1
 62
    39
  6
CONTINUOUS
 10
-0.315270
 20
2.650829
  0
VERTEX
  8
EBENE_1
 62
    39
  6
CONTINUOUS
 10
-0.314194
 20
2.671975
  0
VERTEX
  8
EBENE_1
 62
    39
  6
CONTINUOUS
 10
-0.309595
 20
2.690650
  0
VERTEX
  8
EBENE_1
 62
    39
  6
CONTINUOUS
 10
-0.301863
 20
2.706569
  0
VERTEX
  8
EBENE_1
 62
    39
  6
CONTINUOUS
 10
-0.291387
 20
2.719450
  0
VERTEX
  8
EBENE_1
 62
    39
  6
CONTINUOUS
 10
-0.278559
 20
2.729008
  0
VERTEX
  8
EBENE_1
 62
    39
  6
CONTINUOUS
 10
-0.263768
 20
2.734961
  0
VERTEX
  8
EBENE_1
 62
    39
  6
CONTINUOUS
 10
-0.063031
 20
2.789035
  0
VERTEX
  8
EBENE_1
 62
    39
  6
CONTINUOUS
 10
-0.042952
 20
2.791660
  0
VERTEX
  8
EBENE_1
 62
    39
  6
CONTINUOUS
 10
-0.029237
 20
2.787957
  0
VERTEX
  8
EBENE_1
 62
    39
  6
CONTINUOUS
 10
-0.019690
 20
2.779824
  0
VERTEX
  8
EBENE_1
 62
    39
  6
CONTINUOUS
 10
-0.012115
 20
2.769157
  0
VERTEX
  8
EBENE_1
 62
    39
  6
CONTINUOUS
 10
-0.004315
 20
2.757851
  0
SEQEND
  8
0
  0
POLYLINE
  8
EBENE_1
 62
    39
  6
CONTINUOUS
 66
     1
 40
0.003000
 41
0.003000
 70
     1
  0
VERTEX
  8
EBENE_1
 62
    39
  6
CONTINUOUS
 10
-0.157654
 20
2.733610
  0
VERTEX
  8
EBENE_1
 62
    39
  6
CONTINUOUS
 10
-0.154400
 20
2.734462
  0
VERTEX
  8
EBENE_1
 62
    39
  6
CONTINUOUS
 10
-0.151896
 20
2.736815
  0
VERTEX
  8
EBENE_1
 62
    39
  6
CONTINUOUS
 10
-0.150894
 20
2.740370
  0
VERTEX
  8
EBENE_1
 62
    39
  6
CONTINUOUS
 10
-0.151896
 20
2.743624
  0
VERTEX
  8
EBENE_1
 62
    39
  6
CONTINUOUS
 10
-0.154400
 20
2.746128
  0
VERTEX
  8
EBENE_1
 62
    39
  6
CONTINUOUS
 10
-0.157654
 20
2.747130
  0
VERTEX
  8
EBENE_1
 62
    39
  6
CONTINUOUS
 10
-0.161208
 20
2.746128
  0
VERTEX
  8
EBENE_1
 62
    39
  6
CONTINUOUS
 10
-0.163562
 20
2.743624
  0
VERTEX
  8
EBENE_1
 62
    39
  6
CONTINUOUS
 10
-0.164413
 20
2.740370
  0
VERTEX
  8
EBENE_1
 62
    39
  6
CONTINUOUS
 10
-0.163562
 20
2.736815
  0
VERTEX
  8
EBENE_1
 62
    39
  6
CONTINUOUS
 10
-0.161208
 20
2.734462
  0
SEQEND
  8
0
  0
POLYLINE
  8
EBENE_1
 62
    39
  6
CONTINUOUS
 66
     1
 40
0.003000
 41
0.003000
 70
     1
  0
VERTEX
  8
EBENE_1
 62
    39
  6
CONTINUOUS
 10
-0.086012
 20
2.749157
  0
VERTEX
  8
EBENE_1
 62
    39
  6
CONTINUOUS
 10
-0.082756
 20
2.750008
  0
VERTEX
  8
EBENE_1
 62
    39
  6
CONTINUOUS
 10
-0.080253
 20
2.752360
  0
VERTEX
  8
EBENE_1
 62
    39
  6
CONTINUOUS
 10
-0.079252
 20
2.755913
  0
VERTEX
  8
EBENE_1
 62
    39
  6
CONTINUOUS
 10
-0.080253
 20
2.759169
  0
VERTEX
  8
EBENE_1
 62
    39
  6
CONTINUOUS
 10
-0.082756
 20
2.761672
  0
VERTEX
  8
EBENE_1
 62
    39
  6
CONTINUOUS
 10
-0.086012
 20
2.762673
  0
VERTEX
  8
EBENE_1
 62
    39
  6
CONTINUOUS
 10
-0.089566
 20
2.761672
  0
VERTEX
  8
EBENE_1
 62
    39
  6
CONTINUOUS
 10
-0.091917
 20
2.759169
  0
VERTEX
  8
EBENE_1
 62
    39
  6
CONTINUOUS
 10
-0.092768
 20
2.755913
  0
VERTEX
  8
EBENE_1
 62
    39
  6
CONTINUOUS
 10
-0.091917
 20
2.752360
  0
VERTEX
  8
EBENE_1
 62
    39
  6
CONTINUOUS
 10
-0.089566
 20
2.750008
  0
SEQEND
  8
0
  0
POLYLINE
  8
EBENE_1
 62
    39
  6
CONTINUOUS
 66
     1
 40
0.003000
 41
0.003000
 70
     1
  0
VERTEX
  8
EBENE_1
 62
    39
  6
CONTINUOUS
 10
-0.015717
 20
2.722122
  0
VERTEX
  8
EBENE_1
 62
    39
  6
CONTINUOUS
 10
-0.012464
 20
2.722973
  0
VERTEX
  8
EBENE_1
 62
    39
  6
CONTINUOUS
 10
-0.009962
 20
2.725325
  0
VERTEX
  8
EBENE_1
 62
    39
  6
CONTINUOUS
 10
-0.008961
 20
2.728882
  0
VERTEX
  8
EBENE_1
 62
    39
  6
CONTINUOUS
 10
-0.009962
 20
2.732135
  0
VERTEX
  8
EBENE_1
 62
    39
  6
CONTINUOUS
 10
-0.012464
 20
2.734637
  0
VERTEX
  8
EBENE_1
 62
    39
  6
CONTINUOUS
 10
-0.015717
 20
2.735638
  0
VERTEX
  8
EBENE_1
 62
    39
  6
CONTINUOUS
 10
-0.019271
 20
2.734637
  0
VERTEX
  8
EBENE_1
 62
    39
  6
CONTINUOUS
 10
-0.021625
 20
2.732135
  0
VERTEX
  8
EBENE_1
 62
    39
  6
CONTINUOUS
 10
-0.022476
 20
2.728882
  0
VERTEX
  8
EBENE_1
 62
    39
  6
CONTINUOUS
 10
-0.021625
 20
2.725325
  0
VERTEX
  8
EBENE_1
 62
    39
  6
CONTINUOUS
 10
-0.019271
 20
2.722973
  0
SEQEND
  8
0
  0
POLYLINE
  8
EBENE_1
 62
    39
  6
CONTINUOUS
 66
     1
 40
0.003000
 41
0.003000
 70
     1
  0
VERTEX
  8
EBENE_1
 62
    39
  6
CONTINUOUS
 10
0.206646
 20
2.801201
  0
VERTEX
  8
EBENE_1
 62
    39
  6
CONTINUOUS
 10
0.393866
 20
2.493669
  0
VERTEX
  8
EBENE_1
 62
    39
  6
CONTINUOUS
 10
0.197858
 20
2.442980
  0
VERTEX
  8
EBENE_1
 62
    39
  6
CONTINUOUS
 10
0.189582
 20
2.441588
  0
VERTEX
  8
EBENE_1
 62
    39
  6
CONTINUOUS
 10
0.180424
 20
2.441015
  0
VERTEX
  8
EBENE_1
 62
    39
  6
CONTINUOUS
 10
0.170458
 20
2.441256
  0
VERTEX
  8
EBENE_1
 62
    39
  6
CONTINUOUS
 10
0.159759
 20
2.442306
  0
VERTEX
  8
EBENE_1
 62
    39
  6
CONTINUOUS
 10
0.148401
 20
2.444160
  0
VERTEX
  8
EBENE_1
 62
    39
  6
CONTINUOUS
 10
0.136460
 20
2.446813
  0
VERTEX
  8
EBENE_1
 62
    39
  6
CONTINUOUS
 10
0.124009
 20
2.450262
  0
VERTEX
  8
EBENE_1
 62
    39
  6
CONTINUOUS
 10
0.111124
 20
2.454501
  0
VERTEX
  8
EBENE_1
 62
    39
  6
CONTINUOUS
 10
0.097878
 20
2.459525
  0
VERTEX
  8
EBENE_1
 62
    39
  6
CONTINUOUS
 10
0.084347
 20
2.465330
  0
VERTEX
  8
EBENE_1
 62
    39
  6
CONTINUOUS
 10
0.070605
 20
2.471911
  0
VERTEX
  8
EBENE_1
 62
    39
  6
CONTINUOUS
 10
0.056726
 20
2.479263
  0
VERTEX
  8
EBENE_1
 62
    39
  6
CONTINUOUS
 10
0.042786
 20
2.487381
  0
VERTEX
  8
EBENE_1
 62
    39
  6
CONTINUOUS
 10
0.028858
 20
2.496261
  0
VERTEX
  8
EBENE_1
 62
    39
  6
CONTINUOUS
 10
0.015018
 20
2.505899
  0
VERTEX
  8
EBENE_1
 62
    39
  6
CONTINUOUS
 10
0.001340
 20
2.516288
  0
VERTEX
  8
EBENE_1
 62
    39
  6
CONTINUOUS
 10
-0.012102
 20
2.527425
  0
VERTEX
  8
EBENE_1
 62
    39
  6
CONTINUOUS
 10
-0.025232
 20
2.539304
  0
VERTEX
  8
EBENE_1
 62
    39
  6
CONTINUOUS
 10
-0.037977
 20
2.551922
  0
VERTEX
  8
EBENE_1
 62
    39
  6
CONTINUOUS
 10
-0.050262
 20
2.565273
  0
VERTEX
  8
EBENE_1
 62
    39
  6
CONTINUOUS
 10
-0.062012
 20
2.579352
  0
VERTEX
  8
EBENE_1
 62
    39
  6
CONTINUOUS
 10
-0.073152
 20
2.594155
  0
VERTEX
  8
EBENE_1
 62
    39
  6
CONTINUOUS
 10
-0.083609
 20
2.609678
  0
VERTEX
  8
EBENE_1
 62
    39
  6
CONTINUOUS
 10
-0.093306
 20
2.625914
  0
VERTEX
  8
EBENE_1
 62
    39
  6
CONTINUOUS
 10
-0.102171
 20
2.642860
  0
VERTEX
  8
EBENE_1
 62
    39
  6
CONTINUOUS
 10
-0.110128
 20
2.660511
  0
VERTEX
  8
EBENE_1
 62
    39
  6
CONTINUOUS
 10
-0.117102
 20
2.678862
  0
VERTEX
  8
EBENE_1
 62
    39
  6
CONTINUOUS
 10
-0.117102
 20
2.678862
  0
VERTEX
  8
EBENE_1
 62
    39
  6
CONTINUOUS
 10
-0.119939
 20
2.702733
  0
VERTEX
  8
EBENE_1
 62
    39
  6
CONTINUOUS
 10
-0.118863
 20
2.724334
  0
VERTEX
  8
EBENE_1
 62
    39
  6
CONTINUOUS
 10
-0.114264
 20
2.743381
  0
VERTEX
  8
EBENE_1
 62
    39
  6
CONTINUOUS
 10
-0.106532
 20
2.759591
  0
VERTEX
  8
EBENE_1
 62
    39
  6
CONTINUOUS
 10
-0.096057
 20
2.772679
  0
VERTEX
  8
EBENE_1
 62
    39
  6
CONTINUOUS
 10
-0.083228
 20
2.782363
  0
VERTEX
  8
EBENE_1
 62
    39
  6
CONTINUOUS
 10
-0.068437
 20
2.788358
  0
VERTEX
  8
EBENE_1
 62
    39
  6
CONTINUOUS
 10
0.136354
 20
2.843106
  0
VERTEX
  8
EBENE_1
 62
    39
  6
CONTINUOUS
 10
0.156721
 20
2.845962
  0
VERTEX
  8
EBENE_1
 62
    39
  6
CONTINUOUS
 10
0.170648
 20
2.842304
  0
VERTEX
  8
EBENE_1
 62
    39
  6
CONTINUOUS
 10
0.180370
 20
2.834065
  0
VERTEX
  8
EBENE_1
 62
    39
  6
CONTINUOUS
 10
0.188121
 20
2.823179
  0
VERTEX
  8
EBENE_1
 62
    39
  6
CONTINUOUS
 10
0.196135
 20
2.811580
  0
SEQEND
  8
0
  0
POLYLINE
  8
EBENE_1
 62
    39
  6
CONTINUOUS
 66
     1
 40
0.003000
 41
0.003000
 70
     1
  0
VERTEX
  8
EBENE_1
 62
    39
  6
CONTINUOUS
 10
0.206646
 20
2.799846
  0
VERTEX
  8
EBENE_1
 62
    39
  6
CONTINUOUS
 10
0.391161
 20
2.497724
  0
VERTEX
  8
EBENE_1
 62
    39
  6
CONTINUOUS
 10
0.197858
 20
2.447035
  0
VERTEX
  8
EBENE_1
 62
    39
  6
CONTINUOUS
 10
0.189410
 20
2.445678
  0
VERTEX
  8
EBENE_1
 62
    39
  6
CONTINUOUS
 10
0.180030
 20
2.445192
  0
VERTEX
  8
EBENE_1
 62
    39
  6
CONTINUOUS
 10
0.169801
 20
2.445569
  0
VERTEX
  8
EBENE_1
 62
    39
  6
CONTINUOUS
 10
0.158803
 20
2.446805
  0
VERTEX
  8
EBENE_1
 62
    39
  6
CONTINUOUS
 10
0.147119
 20
2.448894
  0
VERTEX
  8
EBENE_1
 62
    39
  6
CONTINUOUS
 10
0.134830
 20
2.451830
  0
VERTEX
  8
EBENE_1
 62
    39
  6
CONTINUOUS
 10
0.122020
 20
2.455607
  0
VERTEX
  8
EBENE_1
 62
    39
  6
CONTINUOUS
 10
0.108769
 20
2.460220
  0
VERTEX
  8
EBENE_1
 62
    39
  6
CONTINUOUS
 10
0.095159
 20
2.465662
  0
VERTEX
  8
EBENE_1
 62
    39
  6
CONTINUOUS
 10
0.081273
 20
2.471928
  0
VERTEX
  8
EBENE_1
 62
    39
  6
CONTINUOUS
 10
0.067192
 20
2.479013
  0
VERTEX
  8
EBENE_1
 62
    39
  6
CONTINUOUS
 10
0.052998
 20
2.486910
  0
VERTEX
  8
EBENE_1
 62
    39
  6
CONTINUOUS
 10
0.038773
 20
2.495613
  0
VERTEX
  8
EBENE_1
 62
    39
  6
CONTINUOUS
 10
0.024599
 20
2.505118
  0
VERTEX
  8
EBENE_1
 62
    39
  6
CONTINUOUS
 10
0.010559
 20
2.515417
  0
VERTEX
  8
EBENE_1
 62
    39
  6
CONTINUOUS
 10
-0.003267
 20
2.526506
  0
VERTEX
  8
EBENE_1
 62
    39
  6
CONTINUOUS
 10
-0.016797
 20
2.538378
  0
VERTEX
  8
EBENE_1
 62
    39
  6
CONTINUOUS
 10
-0.029947
 20
2.551029
  0
VERTEX
  8
EBENE_1
 62
    39
  6
CONTINUOUS
 10
-0.042637
 20
2.564451
  0
VERTEX
  8
EBENE_1
 62
    39
  6
CONTINUOUS
 10
-0.054785
 20
2.578639
  0
VERTEX
  8
EBENE_1
 62
    39
  6
CONTINUOUS
 10
-0.066308
 20
2.593589
  0
VERTEX
  8
EBENE_1
 62
    39
  6
CONTINUOUS
 10
-0.077125
 20
2.609292
  0
VERTEX
  8
EBENE_1
 62
    39
  6
CONTINUOUS
 10
-0.087154
 20
2.625745
  0
VERTEX
  8
EBENE_1
 62
    39
  6
CONTINUOUS
 10
-0.096313
 20
2.642941
  0
VERTEX
  8
EBENE_1
 62
    39
  6
CONTINUOUS
 10
-0.104520
 20
2.660874
  0
VERTEX
  8
EBENE_1
 62
    39
  6
CONTINUOUS
 10
-0.111693
 20
2.679539
  0
VERTEX
  8
EBENE_1
 62
    39
  6
CONTINUOUS
 10
-0.111693
 20
2.679539
  0
VERTEX
  8
EBENE_1
 62
    39
  6
CONTINUOUS
 10
-0.114533
 20
2.702875
  0
VERTEX
  8
EBENE_1
 62
    39
  6
CONTINUOUS
 10
-0.113471
 20
2.724034
  0
VERTEX
  8
EBENE_1
 62
    39
  6
CONTINUOUS
 10
-0.108910
 20
2.742746
  0
VERTEX
  8
EBENE_1
 62
    39
  6
CONTINUOUS
 10
-0.101250
 20
2.758739
  0
VERTEX
  8
EBENE_1
 62
    39
  6
CONTINUOUS
 10
-0.090895
 20
2.771740
  0
VERTEX
  8
EBENE_1
 62
    39
  6
CONTINUOUS
 10
-0.078246
 20
2.781478
  0
VERTEX
  8
EBENE_1
 62
    39
  6
CONTINUOUS
 10
-0.063705
 20
2.787681
  0
VERTEX
  8
EBENE_1
 62
    39
  6
CONTINUOUS
 10
0.137705
 20
2.841079
  0
VERTEX
  8
EBENE_1
 62
    39
  6
CONTINUOUS
 10
0.157784
 20
2.843750
  0
VERTEX
  8
EBENE_1
 62
    39
  6
CONTINUOUS
 10
0.171500
 20
2.840151
  0
VERTEX
  8
EBENE_1
 62
    39
  6
CONTINUOUS
 10
0.181047
 20
2.832122
  0
VERTEX
  8
EBENE_1
 62
    39
  6
CONTINUOUS
 10
0.188622
 20
2.821501
  0
VERTEX
  8
EBENE_1
 62
    39
  6
CONTINUOUS
 10
0.196423
 20
2.810130
  0
SEQEND
  8
0
  0
POLYLINE
  8
EBENE_1
 62
    39
  6
CONTINUOUS
 66
     1
 40
0.003000
 41
0.003000
 70
     1
  0
VERTEX
  8
EBENE_1
 62
    39
  6
CONTINUOUS
 10
0.042406
 20
2.785654
  0
VERTEX
  8
EBENE_1
 62
    39
  6
CONTINUOUS
 10
0.045959
 20
2.786655
  0
VERTEX
  8
EBENE_1
 62
    39
  6
CONTINUOUS
 10
0.048311
 20
2.789160
  0
VERTEX
  8
EBENE_1
 62
    39
  6
CONTINUOUS
 10
0.049161
 20
2.792413
  0
VERTEX
  8
EBENE_1
 62
    39
  6
CONTINUOUS
 10
0.048311
 20
2.795968
  0
VERTEX
  8
EBENE_1
 62
    39
  6
CONTINUOUS
 10
0.045959
 20
2.798322
  0
VERTEX
  8
EBENE_1
 62
    39
  6
CONTINUOUS
 10
0.042406
 20
2.799173
  0
VERTEX
  8
EBENE_1
 62
    39
  6
CONTINUOUS
 10
0.039150
 20
2.798322
  0
VERTEX
  8
EBENE_1
 62
    39
  6
CONTINUOUS
 10
0.036647
 20
2.795968
  0
VERTEX
  8
EBENE_1
 62
    39
  6
CONTINUOUS
 10
0.035646
 20
2.792413
  0
VERTEX
  8
EBENE_1
 62
    39
  6
CONTINUOUS
 10
0.036647
 20
2.789160
  0
VERTEX
  8
EBENE_1
 62
    39
  6
CONTINUOUS
 10
0.039150
 20
2.786655
  0
SEQEND
  8
0
  0
POLYLINE
  8
EBENE_1
 62
    39
  6
CONTINUOUS
 66
     1
 40
0.003000
 41
0.003000
 70
     1
  0
VERTEX
  8
EBENE_1
 62
    39
  6
CONTINUOUS
 10
0.114724
 20
2.801201
  0
VERTEX
  8
EBENE_1
 62
    39
  6
CONTINUOUS
 10
0.117803
 20
2.802202
  0
VERTEX
  8
EBENE_1
 62
    39
  6
CONTINUOUS
 10
0.119981
 20
2.804705
  0
VERTEX
  8
EBENE_1
 62
    39
  6
CONTINUOUS
 10
0.120807
 20
2.807961
  0
VERTEX
  8
EBENE_1
 62
    39
  6
CONTINUOUS
 10
0.119981
 20
2.811513
  0
VERTEX
  8
EBENE_1
 62
    39
  6
CONTINUOUS
 10
0.117803
 20
2.813865
  0
VERTEX
  8
EBENE_1
 62
    39
  6
CONTINUOUS
 10
0.114724
 20
2.814717
  0
VERTEX
  8
EBENE_1
 62
    39
  6
CONTINUOUS
 10
0.111170
 20
2.813865
  0
VERTEX
  8
EBENE_1
 62
    39
  6
CONTINUOUS
 10
0.108816
 20
2.811513
  0
VERTEX
  8
EBENE_1
 62
    39
  6
CONTINUOUS
 10
0.107965
 20
2.807961
  0
VERTEX
  8
EBENE_1
 62
    39
  6
CONTINUOUS
 10
0.108816
 20
2.804705
  0
VERTEX
  8
EBENE_1
 62
    39
  6
CONTINUOUS
 10
0.111170
 20
2.802202
  0
SEQEND
  8
0
  0
POLYLINE
  8
EBENE_1
 62
    39
  6
CONTINUOUS
 66
     1
 40
0.003000
 41
0.003000
 70
     1
  0
VERTEX
  8
EBENE_1
 62
    39
  6
CONTINUOUS
 10
0.184343
 20
2.774165
  0
VERTEX
  8
EBENE_1
 62
    39
  6
CONTINUOUS
 10
0.187896
 20
2.775166
  0
VERTEX
  8
EBENE_1
 62
    39
  6
CONTINUOUS
 10
0.190248
 20
2.777668
  0
VERTEX
  8
EBENE_1
 62
    39
  6
CONTINUOUS
 10
0.191098
 20
2.780921
  0
VERTEX
  8
EBENE_1
 62
    39
  6
CONTINUOUS
 10
0.190248
 20
2.784478
  0
VERTEX
  8
EBENE_1
 62
    39
  6
CONTINUOUS
 10
0.187896
 20
2.786831
  0
VERTEX
  8
EBENE_1
 62
    39
  6
CONTINUOUS
 10
0.184343
 20
2.787681
  0
VERTEX
  8
EBENE_1
 62
    39
  6
CONTINUOUS
 10
0.181087
 20
2.786831
  0
VERTEX
  8
EBENE_1
 62
    39
  6
CONTINUOUS
 10
0.178584
 20
2.784478
  0
VERTEX
  8
EBENE_1
 62
    39
  6
CONTINUOUS
 10
0.177583
 20
2.780921
  0
VERTEX
  8
EBENE_1
 62
    39
  6
CONTINUOUS
 10
0.178584
 20
2.777668
  0
VERTEX
  8
EBENE_1
 62
    39
  6
CONTINUOUS
 10
0.181087
 20
2.775166
  0
SEQEND
  8
0
  0
POLYLINE
  8
EBENE_1
 62
    39
  6
CONTINUOUS
 66
     1
 40
0.003000
 41
0.003000
 70
     1
  0
VERTEX
  8
EBENE_1
 62
    39
  6
CONTINUOUS
 10
0.407386
 20
2.853244
  0
VERTEX
  8
EBENE_1
 62
    39
  6
CONTINUOUS
 10
0.593929
 20
2.545713
  0
VERTEX
  8
EBENE_1
 62
    39
  6
CONTINUOUS
 10
0.398598
 20
2.495024
  0
VERTEX
  8
EBENE_1
 62
    39
  6
CONTINUOUS
 10
0.390252
 20
2.493634
  0
VERTEX
  8
EBENE_1
 62
    39
  6
CONTINUOUS
 10
0.381035
 20
2.493069
  0
VERTEX
  8
EBENE_1
 62
    39
  6
CONTINUOUS
 10
0.371019
 20
2.493321
  0
VERTEX
  8
EBENE_1
 62
    39
  6
CONTINUOUS
 10
0.360278
 20
2.494387
  0
VERTEX
  8
EBENE_1
 62
    39
  6
CONTINUOUS
 10
0.348887
 20
2.496260
  0
VERTEX
  8
EBENE_1
 62
    39
  6
CONTINUOUS
 10
0.336919
 20
2.498935
  0
VERTEX
  8
EBENE_1
 62
    39
  6
CONTINUOUS
 10
0.324448
 20
2.502407
  0
VERTEX
  8
EBENE_1
 62
    39
  6
CONTINUOUS
 10
0.311547
 20
2.506670
  0
VERTEX
  8
EBENE_1
 62
    39
  6
CONTINUOUS
 10
0.298291
 20
2.511719
  0
VERTEX
  8
EBENE_1
 62
    39
  6
CONTINUOUS
 10
0.284753
 20
2.517549
  0
VERTEX
  8
EBENE_1
 62
    39
  6
CONTINUOUS
 10
0.271007
 20
2.524154
  0
VERTEX
  8
EBENE_1
 62
    39
  6
CONTINUOUS
 10
0.257127
 20
2.531529
  0
VERTEX
  8
EBENE_1
 62
    39
  6
CONTINUOUS
 10
0.243186
 20
2.539669
  0
VERTEX
  8
EBENE_1
 62
    39
  6
CONTINUOUS
 10
0.229258
 20
2.548568
  0
VERTEX
  8
EBENE_1
 62
    39
  6
CONTINUOUS
 10
0.215417
 20
2.558221
  0
VERTEX
  8
EBENE_1
 62
    39
  6
CONTINUOUS
 10
0.201737
 20
2.568623
  0
VERTEX
  8
EBENE_1
 62
    39
  6
CONTINUOUS
 10
0.188291
 20
2.579767
  0
VERTEX
  8
EBENE_1
 62
    39
  6
CONTINUOUS
 10
0.175154
 20
2.591650
  0
VERTEX
  8
EBENE_1
 62
    39
  6
CONTINUOUS
 10
0.162398
 20
2.604265
  0
VERTEX
  8
EBENE_1
 62
    39
  6
CONTINUOUS
 10
0.150098
 20
2.617607
  0
VERTEX
  8
EBENE_1
 62
    39
  6
CONTINUOUS
 10
0.138328
 20
2.631670
  0
VERTEX
  8
EBENE_1
 62
    39
  6
CONTINUOUS
 10
0.127161
 20
2.646451
  0
VERTEX
  8
EBENE_1
 62
    39
  6
CONTINUOUS
 10
0.116671
 20
2.661942
  0
VERTEX
  8
EBENE_1
 62
    39
  6
CONTINUOUS
 10
0.106932
 20
2.678139
  0
VERTEX
  8
EBENE_1
 62
    39
  6
CONTINUOUS
 10
0.098017
 20
2.695036
  0
VERTEX
  8
EBENE_1
 62
    39
  6
CONTINUOUS
 10
0.090001
 20
2.712628
  0
VERTEX
  8
EBENE_1
 62
    39
  6
CONTINUOUS
 10
0.082957
 20
2.730909
  0
VERTEX
  8
EBENE_1
 62
    39
  6
CONTINUOUS
 10
0.082957
 20
2.730909
  0
VERTEX
  8
EBENE_1
 62
    39
  6
CONTINUOUS
 10
0.080281
 20
2.751916
  0
VERTEX
  8
EBENE_1
 62
    39
  6
CONTINUOUS
 10
0.080687
 20
2.771219
  0
VERTEX
  8
EBENE_1
 62
    39
  6
CONTINUOUS
 10
0.083896
 20
2.788637
  0
VERTEX
  8
EBENE_1
 62
    39
  6
CONTINUOUS
 10
0.089632
 20
2.803988
  0
VERTEX
  8
EBENE_1
 62
    39
  6
CONTINUOUS
 10
0.097618
 20
2.817090
  0
VERTEX
  8
EBENE_1
 62
    39
  6
CONTINUOUS
 10
0.107575
 20
2.827760
  0
VERTEX
  8
EBENE_1
 62
    39
  6
CONTINUOUS
 10
0.119228
 20
2.835817
  0
VERTEX
  8
EBENE_1
 62
    39
  6
CONTINUOUS
 10
0.132299
 20
2.841079
  0
VERTEX
  8
EBENE_1
 62
    39
  6
CONTINUOUS
 10
0.336417
 20
2.895823
  0
VERTEX
  8
EBENE_1
 62
    39
  6
CONTINUOUS
 10
0.357069
 20
2.898395
  0
VERTEX
  8
EBENE_1
 62
    39
  6
CONTINUOUS
 10
0.371187
 20
2.894547
  0
VERTEX
  8
EBENE_1
 62
    39
  6
CONTINUOUS
 10
0.381024
 20
2.886192
  0
VERTEX
  8
EBENE_1
 62
    39
  6
CONTINUOUS
 10
0.388834
 20
2.875247
  0
VERTEX
  8
EBENE_1
 62
    39
  6
CONTINUOUS
 10
0.396871
 20
2.863626
  0
SEQEND
  8
0
  0
POLYLINE
  8
EBENE_1
 62
    39
  6
CONTINUOUS
 66
     1
 40
0.003000
 41
0.003000
 70
     1
  0
VERTEX
  8
EBENE_1
 62
    39
  6
CONTINUOUS
 10
0.407386
 20
2.851890
  0
VERTEX
  8
EBENE_1
 62
    39
  6
CONTINUOUS
 10
0.590551
 20
2.549768
  0
VERTEX
  8
EBENE_1
 62
    39
  6
CONTINUOUS
 10
0.398598
 20
2.499752
  0
VERTEX
  8
EBENE_1
 62
    39
  6
CONTINUOUS
 10
0.390078
 20
2.498320
  0
VERTEX
  8
EBENE_1
 62
    39
  6
CONTINUOUS
 10
0.380637
 20
2.497764
  0
VERTEX
  8
EBENE_1
 62
    39
  6
CONTINUOUS
 10
0.370356
 20
2.498078
  0
VERTEX
  8
EBENE_1
 62
    39
  6
CONTINUOUS
 10
0.359316
 20
2.499256
  0
VERTEX
  8
EBENE_1
 62
    39
  6
CONTINUOUS
 10
0.347599
 20
2.501292
  0
VERTEX
  8
EBENE_1
 62
    39
  6
CONTINUOUS
 10
0.335284
 20
2.504180
  0
VERTEX
  8
EBENE_1
 62
    39
  6
CONTINUOUS
 10
0.322454
 20
2.507913
  0
VERTEX
  8
EBENE_1
 62
    39
  6
CONTINUOUS
 10
0.309189
 20
2.512486
  0
VERTEX
  8
EBENE_1
 62
    39
  6
CONTINUOUS
 10
0.295569
 20
2.517893
  0
VERTEX
  8
EBENE_1
 62
    39
  6
CONTINUOUS
 10
0.281677
 20
2.524128
  0
VERTEX
  8
EBENE_1
 62
    39
  6
CONTINUOUS
 10
0.267593
 20
2.531185
  0
VERTEX
  8
EBENE_1
 62
    39
  6
CONTINUOUS
 10
0.253398
 20
2.539058
  0
VERTEX
  8
EBENE_1
 62
    39
  6
CONTINUOUS
 10
0.239173
 20
2.547741
  0
VERTEX
  8
EBENE_1
 62
    39
  6
CONTINUOUS
 10
0.224999
 20
2.557227
  0
VERTEX
  8
EBENE_1
 62
    39
  6
CONTINUOUS
 10
0.210957
 20
2.567511
  0
VERTEX
  8
EBENE_1
 62
    39
  6
CONTINUOUS
 10
0.197127
 20
2.578588
  0
VERTEX
  8
EBENE_1
 62
    39
  6
CONTINUOUS
 10
0.183592
 20
2.590450
  0
VERTEX
  8
EBENE_1
 62
    39
  6
CONTINUOUS
 10
0.170432
 20
2.603092
  0
VERTEX
  8
EBENE_1
 62
    39
  6
CONTINUOUS
 10
0.157728
 20
2.616507
  0
VERTEX
  8
EBENE_1
 62
    39
  6
CONTINUOUS
 10
0.145560
 20
2.630691
  0
VERTEX
  8
EBENE_1
 62
    39
  6
CONTINUOUS
 10
0.134011
 20
2.645637
  0
VERTEX
  8
EBENE_1
 62
    39
  6
CONTINUOUS
 10
0.123160
 20
2.661338
  0
VERTEX
  8
EBENE_1
 62
    39
  6
CONTINUOUS
 10
0.113089
 20
2.677789
  0
VERTEX
  8
EBENE_1
 62
    39
  6
CONTINUOUS
 10
0.103879
 20
2.694985
  0
VERTEX
  8
EBENE_1
 62
    39
  6
CONTINUOUS
 10
0.095611
 20
2.712918
  0
VERTEX
  8
EBENE_1
 62
    39
  6
CONTINUOUS
 10
0.088366
 20
2.731583
  0
VERTEX
  8
EBENE_1
 62
    39
  6
CONTINUOUS
 10
0.088366
 20
2.731583
  0
VERTEX
  8
EBENE_1
 62
    39
  6
CONTINUOUS
 10
0.085528
 20
2.755167
  0
VERTEX
  8
EBENE_1
 62
    39
  6
CONTINUOUS
 10
0.086603
 20
2.776492
  0
VERTEX
  8
EBENE_1
 62
    39
  6
CONTINUOUS
 10
0.091202
 20
2.795287
  0
VERTEX
  8
EBENE_1
 62
    39
  6
CONTINUOUS
 10
0.098935
 20
2.811280
  0
VERTEX
  8
EBENE_1
 62
    39
  6
CONTINUOUS
 10
0.109410
 20
2.824198
  0
VERTEX
  8
EBENE_1
 62
    39
  6
CONTINUOUS
 10
0.122237
 20
2.833770
  0
VERTEX
  8
EBENE_1
 62
    39
  6
CONTINUOUS
 10
0.137028
 20
2.839724
  0
VERTEX
  8
EBENE_1
 62
    39
  6
CONTINUOUS
 10
0.337768
 20
2.893795
  0
VERTEX
  8
EBENE_1
 62
    39
  6
CONTINUOUS
 10
0.357897
 20
2.896418
  0
VERTEX
  8
EBENE_1
 62
    39
  6
CONTINUOUS
 10
0.371737
 20
2.892694
  0
VERTEX
  8
EBENE_1
 62
    39
  6
CONTINUOUS
 10
0.381447
 20
2.884501
  0
VERTEX
  8
EBENE_1
 62
    39
  6
CONTINUOUS
 10
0.389185
 20
2.873718
  0
VERTEX
  8
EBENE_1
 62
    39
  6
CONTINUOUS
 10
0.397112
 20
2.862222
  0
SEQEND
  8
0
  0
POLYLINE
  8
EBENE_1
 62
    39
  6
CONTINUOUS
 66
     1
 40
0.003000
 41
0.003000
 70
     1
  0
VERTEX
  8
EBENE_1
 62
    39
  6
CONTINUOUS
 10
0.243146
 20
2.838374
  0
VERTEX
  8
EBENE_1
 62
    39
  6
CONTINUOUS
 10
0.246399
 20
2.839225
  0
VERTEX
  8
EBENE_1
 62
    39
  6
CONTINUOUS
 10
0.248901
 20
2.841579
  0
VERTEX
  8
EBENE_1
 62
    39
  6
CONTINUOUS
 10
0.249902
 20
2.845134
  0
VERTEX
  8
EBENE_1
 62
    39
  6
CONTINUOUS
 10
0.248901
 20
2.848387
  0
VERTEX
  8
EBENE_1
 62
    39
  6
CONTINUOUS
 10
0.246399
 20
2.850889
  0
VERTEX
  8
EBENE_1
 62
    39
  6
CONTINUOUS
 10
0.243146
 20
2.851890
  0
VERTEX
  8
EBENE_1
 62
    39
  6
CONTINUOUS
 10
0.239589
 20
2.850889
  0
VERTEX
  8
EBENE_1
 62
    39
  6
CONTINUOUS
 10
0.237236
 20
2.848387
  0
VERTEX
  8
EBENE_1
 62
    39
  6
CONTINUOUS
 10
0.236386
 20
2.845134
  0
VERTEX
  8
EBENE_1
 62
    39
  6
CONTINUOUS
 10
0.237236
 20
2.841579
  0
VERTEX
  8
EBENE_1
 62
    39
  6
CONTINUOUS
 10
0.239589
 20
2.839225
  0
SEQEND
  8
0
  0
POLYLINE
  8
EBENE_1
 62
    39
  6
CONTINUOUS
 66
     1
 40
0.003000
 41
0.003000
 70
     1
  0
VERTEX
  8
EBENE_1
 62
    39
  6
CONTINUOUS
 10
0.314787
 20
2.853917
  0
VERTEX
  8
EBENE_1
 62
    39
  6
CONTINUOUS
 10
0.318342
 20
2.854769
  0
VERTEX
  8
EBENE_1
 62
    39
  6
CONTINUOUS
 10
0.320696
 20
2.857122
  0
VERTEX
  8
EBENE_1
 62
    39
  6
CONTINUOUS
 10
0.321547
 20
2.860677
  0
VERTEX
  8
EBENE_1
 62
    39
  6
CONTINUOUS
 10
0.320696
 20
2.863933
  0
VERTEX
  8
EBENE_1
 62
    39
  6
CONTINUOUS
 10
0.318342
 20
2.866436
  0
VERTEX
  8
EBENE_1
 62
    39
  6
CONTINUOUS
 10
0.314787
 20
2.867437
  0
VERTEX
  8
EBENE_1
 62
    39
  6
CONTINUOUS
 10
0.311534
 20
2.866436
  0
VERTEX
  8
EBENE_1
 62
    39
  6
CONTINUOUS
 10
0.309029
 20
2.863933
  0
VERTEX
  8
EBENE_1
 62
    39
  6
CONTINUOUS
 10
0.308028
 20
2.860677
  0
VERTEX
  8
EBENE_1
 62
    39
  6
CONTINUOUS
 10
0.309029
 20
2.857122
  0
VERTEX
  8
EBENE_1
 62
    39
  6
CONTINUOUS
 10
0.311534
 20
2.854769
  0
SEQEND
  8
0
  0
POLYLINE
  8
EBENE_1
 62
    39
  6
CONTINUOUS
 66
     1
 40
0.003000
 41
0.003000
 70
     1
  0
VERTEX
  8
EBENE_1
 62
    39
  6
CONTINUOUS
 10
0.385079
 20
2.826886
  0
VERTEX
  8
EBENE_1
 62
    39
  6
CONTINUOUS
 10
0.388634
 20
2.827736
  0
VERTEX
  8
EBENE_1
 62
    39
  6
CONTINUOUS
 10
0.390987
 20
2.830088
  0
VERTEX
  8
EBENE_1
 62
    39
  6
CONTINUOUS
 10
0.391839
 20
2.833642
  0
VERTEX
  8
EBENE_1
 62
    39
  6
CONTINUOUS
 10
0.390987
 20
2.836896
  0
VERTEX
  8
EBENE_1
 62
    39
  6
CONTINUOUS
 10
0.388634
 20
2.839400
  0
VERTEX
  8
EBENE_1
 62
    39
  6
CONTINUOUS
 10
0.385079
 20
2.840402
  0
VERTEX
  8
EBENE_1
 62
    39
  6
CONTINUOUS
 10
0.381524
 20
2.839400
  0
VERTEX
  8
EBENE_1
 62
    39
  6
CONTINUOUS
 10
0.379170
 20
2.836896
  0
VERTEX
  8
EBENE_1
 62
    39
  6
CONTINUOUS
 10
0.378319
 20
2.833642
  0
VERTEX
  8
EBENE_1
 62
    39
  6
CONTINUOUS
 10
0.379170
 20
2.830088
  0
VERTEX
  8
EBENE_1
 62
    39
  6
CONTINUOUS
 10
0.381524
 20
2.827736
  0
SEQEND
  8
0
  0
POLYLINE
  8
EBENE_1
 62
    39
  6
CONTINUOUS
 66
     1
 40
0.003000
 41
0.003000
 70
     1
  0
VERTEX
  8
EBENE_1
 62
    39
  6
CONTINUOUS
 10
0.606772
 20
2.905961
  0
VERTEX
  8
EBENE_1
 62
    39
  6
CONTINUOUS
 10
0.794669
 20
2.598433
  0
VERTEX
  8
EBENE_1
 62
    39
  6
CONTINUOUS
 10
0.597984
 20
2.547067
  0
VERTEX
  8
EBENE_1
 62
    39
  6
CONTINUOUS
 10
0.589714
 20
2.545748
  0
VERTEX
  8
EBENE_1
 62
    39
  6
CONTINUOUS
 10
0.580571
 20
2.545241
  0
VERTEX
  8
EBENE_1
 62
    39
  6
CONTINUOUS
 10
0.570629
 20
2.545544
  0
VERTEX
  8
EBENE_1
 62
    39
  6
CONTINUOUS
 10
0.559963
 20
2.546651
  0
VERTEX
  8
EBENE_1
 62
    39
  6
CONTINUOUS
 10
0.548645
 20
2.548557
  0
VERTEX
  8
EBENE_1
 62
    39
  6
CONTINUOUS
 10
0.536749
 20
2.551259
  0
VERTEX
  8
EBENE_1
 62
    39
  6
CONTINUOUS
 10
0.524349
 20
2.554751
  0
VERTEX
  8
EBENE_1
 62
    39
  6
CONTINUOUS
 10
0.511517
 20
2.559029
  0
VERTEX
  8
EBENE_1
 62
    39
  6
CONTINUOUS
 10
0.498329
 20
2.564088
  0
VERTEX
  8
EBENE_1
 62
    39
  6
CONTINUOUS
 10
0.484857
 20
2.569925
  0
VERTEX
  8
EBENE_1
 62
    39
  6
CONTINUOUS
 10
0.471175
 20
2.576534
  0
VERTEX
  8
EBENE_1
 62
    39
  6
CONTINUOUS
 10
0.457356
 20
2.583910
  0
VERTEX
  8
EBENE_1
 62
    39
  6
CONTINUOUS
 10
0.443474
 20
2.592051
  0
VERTEX
  8
EBENE_1
 62
    39
  6
CONTINUOUS
 10
0.429603
 20
2.600950
  0
VERTEX
  8
EBENE_1
 62
    39
  6
CONTINUOUS
 10
0.415815
 20
2.610603
  0
VERTEX
  8
EBENE_1
 62
    39
  6
CONTINUOUS
 10
0.402186
 20
2.621006
  0
VERTEX
  8
EBENE_1
 62
    39
  6
CONTINUOUS
 10
0.388787
 20
2.632154
  0
VERTEX
  8
EBENE_1
 62
    39
  6
CONTINUOUS
 10
0.375693
 20
2.644043
  0
VERTEX
  8
EBENE_1
 62
    39
  6
CONTINUOUS
 10
0.362978
 20
2.656668
  0
VERTEX
  8
EBENE_1
 62
    39
  6
CONTINUOUS
 10
0.350714
 20
2.670025
  0
VERTEX
  8
EBENE_1
 62
    39
  6
CONTINUOUS
 10
0.338975
 20
2.684109
  0
VERTEX
  8
EBENE_1
 62
    39
  6
CONTINUOUS
 10
0.327836
 20
2.698915
  0
VERTEX
  8
EBENE_1
 62
    39
  6
CONTINUOUS
 10
0.317369
 20
2.714439
  0
VERTEX
  8
EBENE_1
 62
    39
  6
CONTINUOUS
 10
0.307648
 20
2.730677
  0
VERTEX
  8
EBENE_1
 62
    39
  6
CONTINUOUS
 10
0.298747
 20
2.747624
  0
VERTEX
  8
EBENE_1
 62
    39
  6
CONTINUOUS
 10
0.290738
 20
2.765275
  0
VERTEX
  8
EBENE_1
 62
    39
  6
CONTINUOUS
 10
0.283697
 20
2.783626
  0
VERTEX
  8
EBENE_1
 62
    39
  6
CONTINUOUS
 10
0.283697
 20
2.783626
  0
VERTEX
  8
EBENE_1
 62
    39
  6
CONTINUOUS
 10
0.280993
 20
2.804631
  0
VERTEX
  8
EBENE_1
 62
    39
  6
CONTINUOUS
 10
0.281330
 20
2.823926
  0
VERTEX
  8
EBENE_1
 62
    39
  6
CONTINUOUS
 10
0.284456
 20
2.841319
  0
VERTEX
  8
EBENE_1
 62
    39
  6
CONTINUOUS
 10
0.290117
 20
2.856622
  0
VERTEX
  8
EBENE_1
 62
    39
  6
CONTINUOUS
 10
0.298058
 20
2.869644
  0
VERTEX
  8
EBENE_1
 62
    39
  6
CONTINUOUS
 10
0.308028
 20
2.880194
  0
VERTEX
  8
EBENE_1
 62
    39
  6
CONTINUOUS
 10
0.319771
 20
2.888084
  0
VERTEX
  8
EBENE_1
 62
    39
  6
CONTINUOUS
 10
0.333035
 20
2.893122
  0
VERTEX
  8
EBENE_1
 62
    39
  6
CONTINUOUS
 10
0.536480
 20
2.947866
  0
VERTEX
  8
EBENE_1
 62
    39
  6
CONTINUOUS
 10
0.556894
 20
2.950724
  0
VERTEX
  8
EBENE_1
 62
    39
  6
CONTINUOUS
 10
0.570924
 20
2.947066
  0
VERTEX
  8
EBENE_1
 62
    39
  6
CONTINUOUS
 10
0.580749
 20
2.938828
  0
VERTEX
  8
EBENE_1
 62
    39
  6
CONTINUOUS
 10
0.588546
 20
2.927941
  0
VERTEX
  8
EBENE_1
 62
    39
  6
CONTINUOUS
 10
0.596495
 20
2.916341
  0
SEQEND
  8
0
  0
POLYLINE
  8
EBENE_1
 62
    39
  6
CONTINUOUS
 66
     1
 40
0.003000
 41
0.003000
 70
     1
  0
VERTEX
  8
EBENE_1
 62
    39
  6
CONTINUOUS
 10
0.606772
 20
2.904610
  0
VERTEX
  8
EBENE_1
 62
    39
  6
CONTINUOUS
 10
0.791287
 20
2.601815
  0
VERTEX
  8
EBENE_1
 62
    39
  6
CONTINUOUS
 10
0.597984
 20
2.551795
  0
VERTEX
  8
EBENE_1
 62
    39
  6
CONTINUOUS
 10
0.589539
 20
2.550436
  0
VERTEX
  8
EBENE_1
 62
    39
  6
CONTINUOUS
 10
0.580168
 20
2.549941
  0
VERTEX
  8
EBENE_1
 62
    39
  6
CONTINUOUS
 10
0.569951
 20
2.550306
  0
VERTEX
  8
EBENE_1
 62
    39
  6
CONTINUOUS
 10
0.558972
 20
2.551526
  0
VERTEX
  8
EBENE_1
 62
    39
  6
CONTINUOUS
 10
0.547310
 20
2.553595
  0
VERTEX
  8
EBENE_1
 62
    39
  6
CONTINUOUS
 10
0.535047
 20
2.556509
  0
VERTEX
  8
EBENE_1
 62
    39
  6
CONTINUOUS
 10
0.522266
 20
2.560262
  0
VERTEX
  8
EBENE_1
 62
    39
  6
CONTINUOUS
 10
0.509046
 20
2.564849
  0
VERTEX
  8
EBENE_1
 62
    39
  6
CONTINUOUS
 10
0.495471
 20
2.570266
  0
VERTEX
  8
EBENE_1
 62
    39
  6
CONTINUOUS
 10
0.481621
 20
2.576506
  0
VERTEX
  8
EBENE_1
 62
    39
  6
CONTINUOUS
 10
0.467577
 20
2.583566
  0
VERTEX
  8
EBENE_1
 62
    39
  6
CONTINUOUS
 10
0.453421
 20
2.591440
  0
VERTEX
  8
EBENE_1
 62
    39
  6
CONTINUOUS
 10
0.439235
 20
2.600123
  0
VERTEX
  8
EBENE_1
 62
    39
  6
CONTINUOUS
 10
0.425100
 20
2.609609
  0
VERTEX
  8
EBENE_1
 62
    39
  6
CONTINUOUS
 10
0.411098
 20
2.619895
  0
VERTEX
  8
EBENE_1
 62
    39
  6
CONTINUOUS
 10
0.397309
 20
2.630974
  0
VERTEX
  8
EBENE_1
 62
    39
  6
CONTINUOUS
 10
0.383815
 20
2.642841
  0
VERTEX
  8
EBENE_1
 62
    39
  6
CONTINUOUS
 10
0.370699
 20
2.655493
  0
VERTEX
  8
EBENE_1
 62
    39
  6
CONTINUOUS
 10
0.358040
 20
2.668923
  0
VERTEX
  8
EBENE_1
 62
    39
  6
CONTINUOUS
 10
0.345921
 20
2.683126
  0
VERTEX
  8
EBENE_1
 62
    39
  6
CONTINUOUS
 10
0.334424
 20
2.698097
  0
VERTEX
  8
EBENE_1
 62
    39
  6
CONTINUOUS
 10
0.323629
 20
2.713832
  0
VERTEX
  8
EBENE_1
 62
    39
  6
CONTINUOUS
 10
0.313617
 20
2.730325
  0
VERTEX
  8
EBENE_1
 62
    39
  6
CONTINUOUS
 10
0.304472
 20
2.747572
  0
VERTEX
  8
EBENE_1
 62
    39
  6
CONTINUOUS
 10
0.296273
 20
2.765566
  0
VERTEX
  8
EBENE_1
 62
    39
  6
CONTINUOUS
 10
0.289102
 20
2.784303
  0
VERTEX
  8
EBENE_1
 62
    39
  6
CONTINUOUS
 10
0.286264
 20
2.807638
  0
VERTEX
  8
EBENE_1
 62
    39
  6
CONTINUOUS
 10
0.287326
 20
2.828798
  0
VERTEX
  8
EBENE_1
 62
    39
  6
CONTINUOUS
 10
0.291889
 20
2.847510
  0
VERTEX
  8
EBENE_1
 62
    39
  6
CONTINUOUS
 10
0.299548
 20
2.863503
  0
VERTEX
  8
EBENE_1
 62
    39
  6
CONTINUOUS
 10
0.309903
 20
2.876504
  0
VERTEX
  8
EBENE_1
 62
    39
  6
CONTINUOUS
 10
0.322551
 20
2.886242
  0
VERTEX
  8
EBENE_1
 62
    39
  6
CONTINUOUS
 10
0.337091
 20
2.892445
  0
VERTEX
  8
EBENE_1
 62
    39
  6
CONTINUOUS
 10
0.537831
 20
2.945839
  0
VERTEX
  8
EBENE_1
 62
    39
  6
CONTINUOUS
 10
0.557910
 20
2.948464
  0
VERTEX
  8
EBENE_1
 62
    39
  6
CONTINUOUS
 10
0.571625
 20
2.944763
  0
VERTEX
  8
EBENE_1
 62
    39
  6
CONTINUOUS
 10
0.581171
 20
2.936631
  0
VERTEX
  8
EBENE_1
 62
    39
  6
CONTINUOUS
 10
0.588747
 20
2.925964
  0
VERTEX
  8
EBENE_1
 62
    39
  6
CONTINUOUS
 10
0.596548
 20
2.914658
  0
SEQEND
  8
0
  0
POLYLINE
  8
EBENE_1
 62
    39
  6
CONTINUOUS
 66
     1
 40
0.003000
 41
0.003000
 70
     1
  0
VERTEX
  8
EBENE_1
 62
    39
  6
CONTINUOUS
 10
0.443205
 20
2.890417
  0
VERTEX
  8
EBENE_1
 62
    39
  6
CONTINUOUS
 10
0.446761
 20
2.891418
  0
VERTEX
  8
EBENE_1
 62
    39
  6
CONTINUOUS
 10
0.449114
 20
2.893922
  0
VERTEX
  8
EBENE_1
 62
    39
  6
CONTINUOUS
 10
0.449965
 20
2.897177
  0
VERTEX
  8
EBENE_1
 62
    39
  6
CONTINUOUS
 10
0.449114
 20
2.900731
  0
VERTEX
  8
EBENE_1
 62
    39
  6
CONTINUOUS
 10
0.446761
 20
2.903083
  0
VERTEX
  8
EBENE_1
 62
    39
  6
CONTINUOUS
 10
0.443205
 20
2.903933
  0
VERTEX
  8
EBENE_1
 62
    39
  6
CONTINUOUS
 10
0.439951
 20
2.903083
  0
VERTEX
  8
EBENE_1
 62
    39
  6
CONTINUOUS
 10
0.437447
 20
2.900731
  0
VERTEX
  8
EBENE_1
 62
    39
  6
CONTINUOUS
 10
0.436445
 20
2.897177
  0
VERTEX
  8
EBENE_1
 62
    39
  6
CONTINUOUS
 10
0.437447
 20
2.893922
  0
VERTEX
  8
EBENE_1
 62
    39
  6
CONTINUOUS
 10
0.439951
 20
2.891418
  0
SEQEND
  8
0
  0
POLYLINE
  8
EBENE_1
 62
    39
  6
CONTINUOUS
 66
     1
 40
0.003000
 41
0.003000
 70
     1
  0
VERTEX
  8
EBENE_1
 62
    39
  6
CONTINUOUS
 10
0.514850
 20
2.905961
  0
VERTEX
  8
EBENE_1
 62
    39
  6
CONTINUOUS
 10
0.518104
 20
2.906812
  0
VERTEX
  8
EBENE_1
 62
    39
  6
CONTINUOUS
 10
0.520608
 20
2.909166
  0
VERTEX
  8
EBENE_1
 62
    39
  6
CONTINUOUS
 10
0.521610
 20
2.912720
  0
VERTEX
  8
EBENE_1
 62
    39
  6
CONTINUOUS
 10
0.520608
 20
2.915976
  0
VERTEX
  8
EBENE_1
 62
    39
  6
CONTINUOUS
 10
0.518104
 20
2.918479
  0
VERTEX
  8
EBENE_1
 62
    39
  6
CONTINUOUS
 10
0.514850
 20
2.919480
  0
VERTEX
  8
EBENE_1
 62
    39
  6
CONTINUOUS
 10
0.511296
 20
2.918479
  0
VERTEX
  8
EBENE_1
 62
    39
  6
CONTINUOUS
 10
0.508942
 20
2.915976
  0
VERTEX
  8
EBENE_1
 62
    39
  6
CONTINUOUS
 10
0.508091
 20
2.912720
  0
VERTEX
  8
EBENE_1
 62
    39
  6
CONTINUOUS
 10
0.508942
 20
2.909166
  0
VERTEX
  8
EBENE_1
 62
    39
  6
CONTINUOUS
 10
0.511296
 20
2.906812
  0
SEQEND
  8
0
  0
POLYLINE
  8
EBENE_1
 62
    39
  6
CONTINUOUS
 66
     1
 40
0.003000
 41
0.003000
 70
     1
  0
VERTEX
  8
EBENE_1
 62
    39
  6
CONTINUOUS
 10
0.585142
 20
2.878929
  0
VERTEX
  8
EBENE_1
 62
    39
  6
CONTINUOUS
 10
0.588396
 20
2.879930
  0
VERTEX
  8
EBENE_1
 62
    39
  6
CONTINUOUS
 10
0.590900
 20
2.882432
  0
VERTEX
  8
EBENE_1
 62
    39
  6
CONTINUOUS
 10
0.591902
 20
2.885685
  0
VERTEX
  8
EBENE_1
 62
    39
  6
CONTINUOUS
 10
0.590900
 20
2.889240
  0
VERTEX
  8
EBENE_1
 62
    39
  6
CONTINUOUS
 10
0.588396
 20
2.891593
  0
VERTEX
  8
EBENE_1
 62
    39
  6
CONTINUOUS
 10
0.585142
 20
2.892445
  0
VERTEX
  8
EBENE_1
 62
    39
  6
CONTINUOUS
 10
0.581588
 20
2.891593
  0
VERTEX
  8
EBENE_1
 62
    39
  6
CONTINUOUS
 10
0.579236
 20
2.889240
  0
VERTEX
  8
EBENE_1
 62
    39
  6
CONTINUOUS
 10
0.578386
 20
2.885685
  0
VERTEX
  8
EBENE_1
 62
    39
  6
CONTINUOUS
 10
0.579236
 20
2.882432
  0
VERTEX
  8
EBENE_1
 62
    39
  6
CONTINUOUS
 10
0.581588
 20
2.879930
  0
SEQEND
  8
0
  0
POLYLINE
  8
EBENE_1
 62
    39
  6
CONTINUOUS
 66
     1
 40
0.003000
 41
0.003000
 70
     1
  0
VERTEX
  8
EBENE_1
 62
    39
  6
CONTINUOUS
 10
0.807512
 20
2.958004
  0
VERTEX
  8
EBENE_1
 62
    39
  6
CONTINUOUS
 10
0.994732
 20
2.650476
  0
VERTEX
  8
EBENE_1
 62
    39
  6
CONTINUOUS
 10
0.798724
 20
2.599787
  0
VERTEX
  8
EBENE_1
 62
    39
  6
CONTINUOUS
 10
0.790448
 20
2.598398
  0
VERTEX
  8
EBENE_1
 62
    39
  6
CONTINUOUS
 10
0.781290
 20
2.597833
  0
VERTEX
  8
EBENE_1
 62
    39
  6
CONTINUOUS
 10
0.771324
 20
2.598085
  0
VERTEX
  8
EBENE_1
 62
    39
  6
CONTINUOUS
 10
0.760625
 20
2.599151
  0
VERTEX
  8
EBENE_1
 62
    39
  6
CONTINUOUS
 10
0.749267
 20
2.601024
  0
VERTEX
  8
EBENE_1
 62
    39
  6
CONTINUOUS
 10
0.737325
 20
2.603699
  0
VERTEX
  8
EBENE_1
 62
    39
  6
CONTINUOUS
 10
0.724875
 20
2.607170
  0
VERTEX
  8
EBENE_1
 62
    39
  6
CONTINUOUS
 10
0.711989
 20
2.611433
  0
VERTEX
  8
EBENE_1
 62
    39
  6
CONTINUOUS
 10
0.698743
 20
2.616483
  0
VERTEX
  8
EBENE_1
 62
    39
  6
CONTINUOUS
 10
0.685212
 20
2.622313
  0
VERTEX
  8
EBENE_1
 62
    39
  6
CONTINUOUS
 10
0.671470
 20
2.628918
  0
VERTEX
  8
EBENE_1
 62
    39
  6
CONTINUOUS
 10
0.657591
 20
2.636293
  0
VERTEX
  8
EBENE_1
 62
    39
  6
CONTINUOUS
 10
0.643650
 20
2.644432
  0
VERTEX
  8
EBENE_1
 62
    39
  6
CONTINUOUS
 10
0.629722
 20
2.653331
  0
VERTEX
  8
EBENE_1
 62
    39
  6
CONTINUOUS
 10
0.615882
 20
2.662984
  0
VERTEX
  8
EBENE_1
 62
    39
  6
CONTINUOUS
 10
0.602204
 20
2.673386
  0
VERTEX
  8
EBENE_1
 62
    39
  6
CONTINUOUS
 10
0.588762
 20
2.684530
  0
VERTEX
  8
EBENE_1
 62
    39
  6
CONTINUOUS
 10
0.575631
 20
2.696412
  0
VERTEX
  8
EBENE_1
 62
    39
  6
CONTINUOUS
 10
0.562886
 20
2.709027
  0
VERTEX
  8
EBENE_1
 62
    39
  6
CONTINUOUS
 10
0.550601
 20
2.722369
  0
VERTEX
  8
EBENE_1
 62
    39
  6
CONTINUOUS
 10
0.538851
 20
2.736432
  0
VERTEX
  8
EBENE_1
 62
    39
  6
CONTINUOUS
 10
0.527710
 20
2.751212
  0
VERTEX
  8
EBENE_1
 62
    39
  6
CONTINUOUS
 10
0.517254
 20
2.766703
  0
VERTEX
  8
EBENE_1
 62
    39
  6
CONTINUOUS
 10
0.507556
 20
2.782900
  0
VERTEX
  8
EBENE_1
 62
    39
  6
CONTINUOUS
 10
0.498691
 20
2.799796
  0
VERTEX
  8
EBENE_1
 62
    39
  6
CONTINUOUS
 10
0.490734
 20
2.817388
  0
VERTEX
  8
EBENE_1
 62
    39
  6
CONTINUOUS
 10
0.483760
 20
2.835669
  0
VERTEX
  8
EBENE_1
 62
    39
  6
CONTINUOUS
 10
0.480861
 20
2.856676
  0
VERTEX
  8
EBENE_1
 62
    39
  6
CONTINUOUS
 10
0.481099
 20
2.875980
  0
VERTEX
  8
EBENE_1
 62
    39
  6
CONTINUOUS
 10
0.484188
 20
2.893398
  0
VERTEX
  8
EBENE_1
 62
    39
  6
CONTINUOUS
 10
0.489843
 20
2.908750
  0
VERTEX
  8
EBENE_1
 62
    39
  6
CONTINUOUS
 10
0.497779
 20
2.921851
  0
VERTEX
  8
EBENE_1
 62
    39
  6
CONTINUOUS
 10
0.507710
 20
2.932522
  0
VERTEX
  8
EBENE_1
 62
    39
  6
CONTINUOUS
 10
0.519353
 20
2.940578
  0
VERTEX
  8
EBENE_1
 62
    39
  6
CONTINUOUS
 10
0.532421
 20
2.945839
  0
VERTEX
  8
EBENE_1
 62
    39
  6
CONTINUOUS
 10
0.737217
 20
3.000587
  0
VERTEX
  8
EBENE_1
 62
    39
  6
CONTINUOUS
 10
0.757585
 20
3.003159
  0
VERTEX
  8
EBENE_1
 62
    39
  6
CONTINUOUS
 10
0.771513
 20
2.999310
  0
VERTEX
  8
EBENE_1
 62
    39
  6
CONTINUOUS
 10
0.781236
 20
2.990956
  0
VERTEX
  8
EBENE_1
 62
    39
  6
CONTINUOUS
 10
0.788987
 20
2.980010
  0
VERTEX
  8
EBENE_1
 62
    39
  6
CONTINUOUS
 10
0.797001
 20
2.968388
  0
SEQEND
  8
0
  0
POLYLINE
  8
EBENE_1
 62
    39
  6
CONTINUOUS
 66
     1
 40
0.003000
 41
0.003000
 70
     1
  0
VERTEX
  8
EBENE_1
 62
    39
  6
CONTINUOUS
 10
0.807512
 20
2.956654
  0
VERTEX
  8
EBENE_1
 62
    39
  6
CONTINUOUS
 10
0.992028
 20
2.654531
  0
VERTEX
  8
EBENE_1
 62
    39
  6
CONTINUOUS
 10
0.798724
 20
2.603843
  0
VERTEX
  8
EBENE_1
 62
    39
  6
CONTINUOUS
 10
0.790276
 20
2.602486
  0
VERTEX
  8
EBENE_1
 62
    39
  6
CONTINUOUS
 10
0.780897
 20
2.601999
  0
VERTEX
  8
EBENE_1
 62
    39
  6
CONTINUOUS
 10
0.770667
 20
2.602376
  0
VERTEX
  8
EBENE_1
 62
    39
  6
CONTINUOUS
 10
0.759669
 20
2.603612
  0
VERTEX
  8
EBENE_1
 62
    39
  6
CONTINUOUS
 10
0.747984
 20
2.605701
  0
VERTEX
  8
EBENE_1
 62
    39
  6
CONTINUOUS
 10
0.735696
 20
2.608637
  0
VERTEX
  8
EBENE_1
 62
    39
  6
CONTINUOUS
 10
0.722885
 20
2.612414
  0
VERTEX
  8
EBENE_1
 62
    39
  6
CONTINUOUS
 10
0.709634
 20
2.617027
  0
VERTEX
  8
EBENE_1
 62
    39
  6
CONTINUOUS
 10
0.696024
 20
2.622469
  0
VERTEX
  8
EBENE_1
 62
    39
  6
CONTINUOUS
 10
0.682137
 20
2.628735
  0
VERTEX
  8
EBENE_1
 62
    39
  6
CONTINUOUS
 10
0.668056
 20
2.635820
  0
VERTEX
  8
EBENE_1
 62
    39
  6
CONTINUOUS
 10
0.653862
 20
2.643717
  0
VERTEX
  8
EBENE_1
 62
    39
  6
CONTINUOUS
 10
0.639637
 20
2.652420
  0
VERTEX
  8
EBENE_1
 62
    39
  6
CONTINUOUS
 10
0.625463
 20
2.661925
  0
VERTEX
  8
EBENE_1
 62
    39
  6
CONTINUOUS
 10
0.611422
 20
2.672224
  0
VERTEX
  8
EBENE_1
 62
    39
  6
CONTINUOUS
 10
0.597595
 20
2.683313
  0
VERTEX
  8
EBENE_1
 62
    39
  6
CONTINUOUS
 10
0.584066
 20
2.695186
  0
VERTEX
  8
EBENE_1
 62
    39
  6
CONTINUOUS
 10
0.570915
 20
2.707836
  0
VERTEX
  8
EBENE_1
 62
    39
  6
CONTINUOUS
 10
0.558224
 20
2.721258
  0
VERTEX
  8
EBENE_1
 62
    39
  6
CONTINUOUS
 10
0.546076
 20
2.735447
  0
VERTEX
  8
EBENE_1
 62
    39
  6
CONTINUOUS
 10
0.534552
 20
2.750396
  0
VERTEX
  8
EBENE_1
 62
    39
  6
CONTINUOUS
 10
0.523735
 20
2.766099
  0
VERTEX
  8
EBENE_1
 62
    39
  6
CONTINUOUS
 10
0.513705
 20
2.782552
  0
VERTEX
  8
EBENE_1
 62
    39
  6
CONTINUOUS
 10
0.504546
 20
2.799748
  0
VERTEX
  8
EBENE_1
 62
    39
  6
CONTINUOUS
 10
0.496339
 20
2.817681
  0
VERTEX
  8
EBENE_1
 62
    39
  6
CONTINUOUS
 10
0.489165
 20
2.836346
  0
VERTEX
  8
EBENE_1
 62
    39
  6
CONTINUOUS
 10
0.486291
 20
2.859717
  0
VERTEX
  8
EBENE_1
 62
    39
  6
CONTINUOUS
 10
0.487271
 20
2.880960
  0
VERTEX
  8
EBENE_1
 62
    39
  6
CONTINUOUS
 10
0.491738
 20
2.899766
  0
VERTEX
  8
EBENE_1
 62
    39
  6
CONTINUOUS
 10
0.499327
 20
2.915830
  0
VERTEX
  8
EBENE_1
 62
    39
  6
CONTINUOUS
 10
0.509670
 20
2.928843
  0
VERTEX
  8
EBENE_1
 62
    39
  6
CONTINUOUS
 10
0.522401
 20
2.938498
  0
VERTEX
  8
EBENE_1
 62
    39
  6
CONTINUOUS
 10
0.537154
 20
2.944488
  0
VERTEX
  8
EBENE_1
 62
    39
  6
CONTINUOUS
 10
0.737894
 20
2.998559
  0
VERTEX
  8
EBENE_1
 62
    39
  6
CONTINUOUS
 10
0.758023
 20
3.001181
  0
VERTEX
  8
EBENE_1
 62
    39
  6
CONTINUOUS
 10
0.771863
 20
2.997458
  0
VERTEX
  8
EBENE_1
 62
    39
  6
CONTINUOUS
 10
0.781573
 20
2.989265
  0
VERTEX
  8
EBENE_1
 62
    39
  6
CONTINUOUS
 10
0.789311
 20
2.978482
  0
VERTEX
  8
EBENE_1
 62
    39
  6
CONTINUOUS
 10
0.797238
 20
2.966986
  0
SEQEND
  8
0
  0
POLYLINE
  8
EBENE_1
 62
    39
  6
CONTINUOUS
 66
     1
 40
0.003000
 41
0.003000
 70
     1
  0
VERTEX
  8
EBENE_1
 62
    39
  6
CONTINUOUS
 10
0.643268
 20
2.942461
  0
VERTEX
  8
EBENE_1
 62
    39
  6
CONTINUOUS
 10
0.646823
 20
2.943462
  0
VERTEX
  8
EBENE_1
 62
    39
  6
CONTINUOUS
 10
0.649176
 20
2.945965
  0
VERTEX
  8
EBENE_1
 62
    39
  6
CONTINUOUS
 10
0.650028
 20
2.949220
  0
VERTEX
  8
EBENE_1
 62
    39
  6
CONTINUOUS
 10
0.649176
 20
2.952775
  0
VERTEX
  8
EBENE_1
 62
    39
  6
CONTINUOUS
 10
0.646823
 20
2.955129
  0
VERTEX
  8
EBENE_1
 62
    39
  6
CONTINUOUS
 10
0.643268
 20
2.955980
  0
VERTEX
  8
EBENE_1
 62
    39
  6
CONTINUOUS
 10
0.640015
 20
2.955129
  0
VERTEX
  8
EBENE_1
 62
    39
  6
CONTINUOUS
 10
0.637513
 20
2.952775
  0
VERTEX
  8
EBENE_1
 62
    39
  6
CONTINUOUS
 10
0.636512
 20
2.949220
  0
VERTEX
  8
EBENE_1
 62
    39
  6
CONTINUOUS
 10
0.637513
 20
2.945965
  0
VERTEX
  8
EBENE_1
 62
    39
  6
CONTINUOUS
 10
0.640015
 20
2.943462
  0
SEQEND
  8
0
  0
POLYLINE
  8
EBENE_1
 62
    39
  6
CONTINUOUS
 66
     1
 40
0.003000
 41
0.003000
 70
     1
  0
VERTEX
  8
EBENE_1
 62
    39
  6
CONTINUOUS
 10
0.714913
 20
2.958004
  0
VERTEX
  8
EBENE_1
 62
    39
  6
CONTINUOUS
 10
0.718468
 20
2.959006
  0
VERTEX
  8
EBENE_1
 62
    39
  6
CONTINUOUS
 10
0.720822
 20
2.961510
  0
VERTEX
  8
EBENE_1
 62
    39
  6
CONTINUOUS
 10
0.721673
 20
2.964764
  0
VERTEX
  8
EBENE_1
 62
    39
  6
CONTINUOUS
 10
0.720822
 20
2.968319
  0
VERTEX
  8
EBENE_1
 62
    39
  6
CONTINUOUS
 10
0.718468
 20
2.970672
  0
VERTEX
  8
EBENE_1
 62
    39
  6
CONTINUOUS
 10
0.714913
 20
2.971524
  0
VERTEX
  8
EBENE_1
 62
    39
  6
CONTINUOUS
 10
0.711660
 20
2.970672
  0
VERTEX
  8
EBENE_1
 62
    39
  6
CONTINUOUS
 10
0.709155
 20
2.968319
  0
VERTEX
  8
EBENE_1
 62
    39
  6
CONTINUOUS
 10
0.708154
 20
2.964764
  0
VERTEX
  8
EBENE_1
 62
    39
  6
CONTINUOUS
 10
0.709155
 20
2.961510
  0
VERTEX
  8
EBENE_1
 62
    39
  6
CONTINUOUS
 10
0.711660
 20
2.959006
  0
SEQEND
  8
0
  0
POLYLINE
  8
EBENE_1
 62
    39
  6
CONTINUOUS
 66
     1
 40
0.003000
 41
0.003000
 70
     1
  0
VERTEX
  8
EBENE_1
 62
    39
  6
CONTINUOUS
 10
0.785205
 20
2.930969
  0
VERTEX
  8
EBENE_1
 62
    39
  6
CONTINUOUS
 10
0.788760
 20
2.931970
  0
VERTEX
  8
EBENE_1
 62
    39
  6
CONTINUOUS
 10
0.791113
 20
2.934474
  0
VERTEX
  8
EBENE_1
 62
    39
  6
CONTINUOUS
 10
0.791965
 20
2.937728
  0
VERTEX
  8
EBENE_1
 62
    39
  6
CONTINUOUS
 10
0.791113
 20
2.941283
  0
VERTEX
  8
EBENE_1
 62
    39
  6
CONTINUOUS
 10
0.788760
 20
2.943637
  0
VERTEX
  8
EBENE_1
 62
    39
  6
CONTINUOUS
 10
0.785205
 20
2.944488
  0
VERTEX
  8
EBENE_1
 62
    39
  6
CONTINUOUS
 10
0.781951
 20
2.943637
  0
VERTEX
  8
EBENE_1
 62
    39
  6
CONTINUOUS
 10
0.779447
 20
2.941283
  0
VERTEX
  8
EBENE_1
 62
    39
  6
CONTINUOUS
 10
0.778445
 20
2.937728
  0
VERTEX
  8
EBENE_1
 62
    39
  6
CONTINUOUS
 10
0.779447
 20
2.934474
  0
VERTEX
  8
EBENE_1
 62
    39
  6
CONTINUOUS
 10
0.781951
 20
2.931970
  0
SEQEND
  8
0
  0
POLYLINE
  8
EBENE_1
 62
    39
  6
DASHED
 66
     1
 40
0.003000
 41
0.003000
  0
VERTEX
  8
EBENE_1
 62
    39
  6
DASHED
 10
-1.047799
 20
2.530843
  0
VERTEX
  8
EBENE_1
 62
    39
  6
DASHED
 10
-1.177567
 20
2.180059
  0
VERTEX
  8
EBENE_1
 62
    39
  6
DASHED
 10
-0.735539
 20
2.175327
  0
SEQEND
  8
0
  0
POLYLINE
  8
EBENE_1
 62
    39
  6
DASHED
 66
     1
 40
0.003000
 41
0.003000
  0
VERTEX
  8
EBENE_1
 62
    39
  6
DASHED
 10
-0.735539
 20
2.175327
  0
VERTEX
  8
EBENE_1
 62
    39
  6
DASHED
 10
-0.709656
 20
2.180927
  0
VERTEX
  8
EBENE_1
 62
    39
  6
DASHED
 10
-0.689365
 20
2.189838
  0
VERTEX
  8
EBENE_1
 62
    39
  6
DASHED
 10
-0.673803
 20
2.200652
  0
VERTEX
  8
EBENE_1
 62
    39
  6
DASHED
 10
-0.662108
 20
2.211963
  0
VERTEX
  8
EBENE_1
 62
    39
  6
DASHED
 10
-0.653417
 20
2.222363
  0
VERTEX
  8
EBENE_1
 62
    39
  6
DASHED
 10
-0.646865
 20
2.230445
  0
VERTEX
  8
EBENE_1
 62
    39
  6
DASHED
 10
-0.641591
 20
2.234803
  0
SEQEND
  8
0
  0
POLYLINE
  8
EBENE_1
 62
    39
  6
DASHED
 66
     1
 40
0.003000
 41
0.003000
  0
VERTEX
  8
EBENE_1
 62
    39
  6
DASHED
 10
-0.641591
 20
2.234803
  0
VERTEX
  8
EBENE_1
 62
    39
  6
DASHED
 10
-0.642474
 20
2.236778
  0
VERTEX
  8
EBENE_1
 62
    39
  6
DASHED
 10
-0.645193
 20
2.241844
  0
VERTEX
  8
EBENE_1
 62
    39
  6
DASHED
 10
-0.649598
 20
2.249725
  0
VERTEX
  8
EBENE_1
 62
    39
  6
DASHED
 10
-0.655540
 20
2.260146
  0
VERTEX
  8
EBENE_1
 62
    39
  6
DASHED
 10
-0.662868
 20
2.272834
  0
VERTEX
  8
EBENE_1
 62
    39
  6
DASHED
 10
-0.671435
 20
2.287513
  0
VERTEX
  8
EBENE_1
 62
    39
  6
DASHED
 10
-0.681089
 20
2.303908
  0
VERTEX
  8
EBENE_1
 62
    39
  6
DASHED
 10
-0.691681
 20
2.321744
  0
VERTEX
  8
EBENE_1
 62
    39
  6
DASHED
 10
-0.703061
 20
2.340746
  0
VERTEX
  8
EBENE_1
 62
    39
  6
DASHED
 10
-0.715081
 20
2.360640
  0
VERTEX
  8
EBENE_1
 62
    39
  6
DASHED
 10
-0.727590
 20
2.381151
  0
VERTEX
  8
EBENE_1
 62
    39
  6
DASHED
 10
-0.740438
 20
2.402003
  0
VERTEX
  8
EBENE_1
 62
    39
  6
DASHED
 10
-0.753477
 20
2.422922
  0
VERTEX
  8
EBENE_1
 62
    39
  6
DASHED
 10
-0.766556
 20
2.443633
  0
VERTEX
  8
EBENE_1
 62
    39
  6
DASHED
 10
-0.779527
 20
2.463862
  0
VERTEX
  8
EBENE_1
 62
    39
  6
DASHED
 10
-0.792238
 20
2.483332
  0
VERTEX
  8
EBENE_1
 62
    39
  6
DASHED
 10
-0.804541
 20
2.501771
  0
VERTEX
  8
EBENE_1
 62
    39
  6
DASHED
 10
-0.816286
 20
2.518901
  0
VERTEX
  8
EBENE_1
 62
    39
  6
DASHED
 10
-0.827324
 20
2.534449
  0
VERTEX
  8
EBENE_1
 62
    39
  6
DASHED
 10
-0.837504
 20
2.548140
  0
VERTEX
  8
EBENE_1
 62
    39
  6
DASHED
 10
-0.846678
 20
2.559699
  0
VERTEX
  8
EBENE_1
 62
    39
  6
DASHED
 10
-0.854695
 20
2.568851
  0
VERTEX
  8
EBENE_1
 62
    39
  6
DASHED
 10
-0.861406
 20
2.575321
  0
VERTEX
  8
EBENE_1
 62
    39
  6
DASHED
 10
-0.866661
 20
2.578835
  0
SEQEND
  8
0
  0
POLYLINE
  8
EBENE_1
 62
    39
  6
DASHED
 66
     1
 40
0.003000
 41
0.003000
  0
VERTEX
  8
EBENE_1
 62
    39
  6
DASHED
 10
-0.866661
 20
2.578835
  0
VERTEX
  8
EBENE_1
 62
    39
  6
DASHED
 10
-0.868689
 20
2.577480
  0
SEQEND
  8
0
  0
POLYLINE
  8
EBENE_1
 62
    39
  6
DASHED
 66
     1
 40
0.003000
 41
0.003000
  0
VERTEX
  8
EBENE_1
 62
    39
  6
DASHED
 10
-0.868689
 20
2.577480
  0
VERTEX
  8
EBENE_1
 62
    39
  6
DASHED
 10
-0.885372
 20
2.582864
  0
VERTEX
  8
EBENE_1
 62
    39
  6
DASHED
 10
-0.901706
 20
2.587361
  0
VERTEX
  8
EBENE_1
 62
    39
  6
DASHED
 10
-0.917655
 20
2.590807
  0
VERTEX
  8
EBENE_1
 62
    39
  6
DASHED
 10
-0.933180
 20
2.593034
  0
VERTEX
  8
EBENE_1
 62
    39
  6
DASHED
 10
-0.948246
 20
2.593876
  0
VERTEX
  8
EBENE_1
 62
    39
  6
DASHED
 10
-0.962816
 20
2.593168
  0
VERTEX
  8
EBENE_1
 62
    39
  6
DASHED
 10
-0.976852
 20
2.590744
  0
VERTEX
  8
EBENE_1
 62
    39
  6
DASHED
 10
-0.990318
 20
2.586436
  0
VERTEX
  8
EBENE_1
 62
    39
  6
DASHED
 10
-1.003176
 20
2.580080
  0
VERTEX
  8
EBENE_1
 62
    39
  6
DASHED
 10
-1.015391
 20
2.571509
  0
VERTEX
  8
EBENE_1
 62
    39
  6
DASHED
 10
-1.026924
 20
2.560556
  0
VERTEX
  8
EBENE_1
 62
    39
  6
DASHED
 10
-1.037739
 20
2.547056
  0
VERTEX
  8
EBENE_1
 62
    39
  6
DASHED
 10
-1.047799
 20
2.530843
  0
SEQEND
  8
0
  0
POLYLINE
  8
EBENE_1
 62
    39
  6
DASHED
 66
     1
 40
0.003000
 41
0.003000
  0
VERTEX
  8
EBENE_1
 62
    39
  6
DASHED
 10
-1.048476
 20
2.535575
  0
VERTEX
  8
EBENE_1
 62
    39
  6
DASHED
 10
-1.176217
 20
2.186142
  0
VERTEX
  8
EBENE_1
 62
    39
  6
DASHED
 10
-0.734185
 20
2.180732
  0
SEQEND
  8
0
  0
POLYLINE
  8
EBENE_1
 62
    39
  6
DASHED
 66
     1
 40
0.003000
 41
0.003000
  0
VERTEX
  8
EBENE_1
 62
    39
  6
DASHED
 10
-0.734185
 20
2.180732
  0
VERTEX
  8
EBENE_1
 62
    39
  6
DASHED
 10
-0.705661
 20
2.187427
  0
VERTEX
  8
EBENE_1
 62
    39
  6
DASHED
 10
-0.684646
 20
2.198007
  0
VERTEX
  8
EBENE_1
 62
    39
  6
DASHED
 10
-0.669639
 20
2.210388
  0
VERTEX
  8
EBENE_1
 62
    39
  6
DASHED
 10
-0.659138
 20
2.222488
  0
VERTEX
  8
EBENE_1
 62
    39
  6
DASHED
 10
-0.651640
 20
2.232223
  0
VERTEX
  8
EBENE_1
 62
    39
  6
DASHED
 10
-0.645646
 20
2.237508
  0
SEQEND
  8
0
  0
POLYLINE
  8
EBENE_1
 62
    39
  6
DASHED
 66
     1
 40
0.003000
 41
0.003000
  0
VERTEX
  8
EBENE_1
 62
    39
  6
DASHED
 10
-0.645646
 20
2.237508
  0
VERTEX
  8
EBENE_1
 62
    39
  6
DASHED
 10
-0.646417
 20
2.239310
  0
VERTEX
  8
EBENE_1
 62
    39
  6
DASHED
 10
-0.648808
 20
2.243936
  0
VERTEX
  8
EBENE_1
 62
    39
  6
DASHED
 10
-0.652696
 20
2.251149
  0
VERTEX
  8
EBENE_1
 62
    39
  6
DASHED
 10
-0.657961
 20
2.260712
  0
VERTEX
  8
EBENE_1
 62
    39
  6
DASHED
 10
-0.664483
 20
2.272389
  0
VERTEX
  8
EBENE_1
 62
    39
  6
DASHED
 10
-0.672139
 20
2.285945
  0
VERTEX
  8
EBENE_1
 62
    39
  6
DASHED
 10
-0.680810
 20
2.301143
  0
VERTEX
  8
EBENE_1
 62
    39
  6
DASHED
 10
-0.690375
 20
2.317746
  0
VERTEX
  8
EBENE_1
 62
    39
  6
DASHED
 10
-0.700711
 20
2.335519
  0
VERTEX
  8
EBENE_1
 62
    39
  6
DASHED
 10
-0.711700
 20
2.354225
  0
VERTEX
  8
EBENE_1
 62
    39
  6
DASHED
 10
-0.723219
 20
2.373627
  0
VERTEX
  8
EBENE_1
 62
    39
  6
DASHED
 10
-0.735148
 20
2.393490
  0
VERTEX
  8
EBENE_1
 62
    39
  6
DASHED
 10
-0.747366
 20
2.413577
  0
VERTEX
  8
EBENE_1
 62
    39
  6
DASHED
 10
-0.759751
 20
2.433653
  0
VERTEX
  8
EBENE_1
 62
    39
  6
DASHED
 10
-0.772184
 20
2.453480
  0
VERTEX
  8
EBENE_1
 62
    39
  6
DASHED
 10
-0.784543
 20
2.472822
  0
VERTEX
  8
EBENE_1
 62
    39
  6
DASHED
 10
-0.796708
 20
2.491444
  0
VERTEX
  8
EBENE_1
 62
    39
  6
DASHED
 10
-0.808557
 20
2.509108
  0
VERTEX
  8
EBENE_1
 62
    39
  6
DASHED
 10
-0.819969
 20
2.525579
  0
VERTEX
  8
EBENE_1
 62
    39
  6
DASHED
 10
-0.830824
 20
2.540621
  0
VERTEX
  8
EBENE_1
 62
    39
  6
DASHED
 10
-0.841000
 20
2.553997
  0
VERTEX
  8
EBENE_1
 62
    39
  6
DASHED
 10
-0.850377
 20
2.565470
  0
VERTEX
  8
EBENE_1
 62
    39
  6
DASHED
 10
-0.858835
 20
2.574806
  0
VERTEX
  8
EBENE_1
 62
    39
  6
DASHED
 10
-0.866251
 20
2.581766
  0
VERTEX
  8
EBENE_1
 62
    39
  6
DASHED
 10
-0.872505
 20
2.586116
  0
VERTEX
  8
EBENE_1
 62
    39
  6
DASHED
 10
-0.877476
 20
2.587618
  0
SEQEND
  8
0
  0
POLYLINE
  8
EBENE_1
 62
    39
  6
DASHED
 66
     1
 40
0.003000
 41
0.003000
  0
VERTEX
  8
EBENE_1
 62
    39
  6
DASHED
 10
-0.877476
 20
2.587618
  0
VERTEX
  8
EBENE_1
 62
    39
  6
DASHED
 10
-0.874772
 20
2.586268
  0
SEQEND
  8
0
  0
POLYLINE
  8
EBENE_1
 62
    39
  6
DASHED
 66
     1
 40
0.003000
 41
0.003000
  0
VERTEX
  8
EBENE_1
 62
    39
  6
DASHED
 10
-0.874772
 20
2.586268
  0
VERTEX
  8
EBENE_1
 62
    39
  6
DASHED
 10
-0.892466
 20
2.592125
  0
VERTEX
  8
EBENE_1
 62
    39
  6
DASHED
 10
-0.909699
 20
2.596735
  0
VERTEX
  8
EBENE_1
 62
    39
  6
DASHED
 10
-0.926435
 20
2.599923
  0
VERTEX
  8
EBENE_1
 62
    39
  6
DASHED
 10
-0.942636
 20
2.601514
  0
VERTEX
  8
EBENE_1
 62
    39
  6
DASHED
 10
-0.958265
 20
2.601329
  0
VERTEX
  8
EBENE_1
 62
    39
  6
DASHED
 10
-0.973283
 20
2.599195
  0
VERTEX
  8
EBENE_1
 62
    39
  6
DASHED
 10
-0.987653
 20
2.594934
  0
VERTEX
  8
EBENE_1
 62
    39
  6
DASHED
 10
-1.001339
 20
2.588371
  0
VERTEX
  8
EBENE_1
 62
    39
  6
DASHED
 10
-1.014301
 20
2.579329
  0
VERTEX
  8
EBENE_1
 62
    39
  6
DASHED
 10
-1.026503
 20
2.567634
  0
VERTEX
  8
EBENE_1
 62
    39
  6
DASHED
 10
-1.037907
 20
2.553107
  0
VERTEX
  8
EBENE_1
 62
    39
  6
DASHED
 10
-1.048476
 20
2.535575
  0
SEQEND
  8
0
  0
POLYLINE
  8
EBENE_1
 62
    39
  6
DASHED
 66
     1
 40
0.003000
 41
0.003000
  0
VERTEX
  8
EBENE_1
 62
    39
  6
DASHED
 10
-1.004543
 20
2.567343
  0
VERTEX
  8
EBENE_1
 62
    39
  6
DASHED
 10
-1.007421
 20
2.565690
  0
VERTEX
  8
EBENE_1
 62
    39
  6
DASHED
 10
-1.009097
 20
2.562686
  0
VERTEX
  8
EBENE_1
 62
    39
  6
DASHED
 10
-1.009272
 20
2.559232
  0
SEQEND
  8
0
  0
POLYLINE
  8
EBENE_1
 62
    39
  6
DASHED
 66
     1
 40
0.003000
 41
0.003000
  0
VERTEX
  8
EBENE_1
 62
    39
  6
DASHED
 10
-1.009272
 20
2.559232
  0
VERTEX
  8
EBENE_1
 62
    39
  6
DASHED
 10
-1.007295
 20
2.556202
  0
VERTEX
  8
EBENE_1
 62
    39
  6
DASHED
 10
-1.004268
 20
2.554375
  0
VERTEX
  8
EBENE_1
 62
    39
  6
DASHED
 10
-1.000488
 20
2.554500
  0
SEQEND
  8
0
  0
POLYLINE
  8
EBENE_1
 62
    39
  6
DASHED
 66
     1
 40
0.003000
 41
0.003000
  0
VERTEX
  8
EBENE_1
 62
    39
  6
DASHED
 10
-1.000488
 20
2.554500
  0
VERTEX
  8
EBENE_1
 62
    39
  6
DASHED
 10
-0.997608
 20
2.556153
  0
VERTEX
  8
EBENE_1
 62
    39
  6
DASHED
 10
-0.995930
 20
2.559157
  0
VERTEX
  8
EBENE_1
 62
    39
  6
DASHED
 10
-0.995756
 20
2.562610
  0
SEQEND
  8
0
  0
POLYLINE
  8
EBENE_1
 62
    39
  6
DASHED
 66
     1
 40
0.003000
 41
0.003000
  0
VERTEX
  8
EBENE_1
 62
    39
  6
DASHED
 10
-0.995756
 20
2.562610
  0
VERTEX
  8
EBENE_1
 62
    39
  6
DASHED
 10
-0.997733
 20
2.565640
  0
VERTEX
  8
EBENE_1
 62
    39
  6
DASHED
 10
-1.000763
 20
2.567467
  0
VERTEX
  8
EBENE_1
 62
    39
  6
DASHED
 10
-1.004543
 20
2.567343
  0
SEQEND
  8
0
  0
POLYLINE
  8
EBENE_1
 62
    39
  6
DASHED
 66
     1
 40
0.003000
 41
0.003000
  0
VERTEX
  8
EBENE_1
 62
    39
  6
DASHED
 10
-1.039689
 20
2.507189
  0
VERTEX
  8
EBENE_1
 62
    39
  6
DASHED
 10
-1.042567
 20
2.505536
  0
VERTEX
  8
EBENE_1
 62
    39
  6
DASHED
 10
-1.044243
 20
2.502532
  0
VERTEX
  8
EBENE_1
 62
    39
  6
DASHED
 10
-1.044417
 20
2.499079
  0
SEQEND
  8
0
  0
POLYLINE
  8
EBENE_1
 62
    39
  6
DASHED
 66
     1
 40
0.003000
 41
0.003000
  0
VERTEX
  8
EBENE_1
 62
    39
  6
DASHED
 10
-1.044417
 20
2.499079
  0
VERTEX
  8
EBENE_1
 62
    39
  6
DASHED
 10
-1.042767
 20
2.496198
  0
VERTEX
  8
EBENE_1
 62
    39
  6
DASHED
 10
-1.039764
 20
2.494521
  0
VERTEX
  8
EBENE_1
 62
    39
  6
DASHED
 10
-1.036311
 20
2.494346
  0
SEQEND
  8
0
  0
POLYLINE
  8
EBENE_1
 62
    39
  6
DASHED
 66
     1
 40
0.003000
 41
0.003000
  0
VERTEX
  8
EBENE_1
 62
    39
  6
DASHED
 10
-1.036311
 20
2.494346
  0
VERTEX
  8
EBENE_1
 62
    39
  6
DASHED
 10
-1.032979
 20
2.496299
  0
VERTEX
  8
EBENE_1
 62
    39
  6
DASHED
 10
-1.031302
 20
2.499153
  0
VERTEX
  8
EBENE_1
 62
    39
  6
DASHED
 10
-1.031579
 20
2.502457
  0
SEQEND
  8
0
  0
POLYLINE
  8
EBENE_1
 62
    39
  6
DASHED
 66
     1
 40
0.003000
 41
0.003000
  0
VERTEX
  8
EBENE_1
 62
    39
  6
DASHED
 10
-1.031579
 20
2.502457
  0
VERTEX
  8
EBENE_1
 62
    39
  6
DASHED
 10
-1.033230
 20
2.505786
  0
VERTEX
  8
EBENE_1
 62
    39
  6
DASHED
 10
-1.036235
 20
2.507463
  0
VERTEX
  8
EBENE_1
 62
    39
  6
DASHED
 10
-1.039689
 20
2.507189
  0
SEQEND
  8
0
  0
POLYLINE
  8
EBENE_1
 62
    39
  6
DASHED
 66
     1
 40
0.003000
 41
0.003000
  0
VERTEX
  8
EBENE_1
 62
    39
  6
DASHED
 10
-0.859902
 20
2.546390
  0
VERTEX
  8
EBENE_1
 62
    39
  6
DASHED
 10
-0.863231
 20
2.544438
  0
VERTEX
  8
EBENE_1
 62
    39
  6
DASHED
 10
-0.864908
 20
2.541583
  0
VERTEX
  8
EBENE_1
 62
    39
  6
DASHED
 10
-0.864634
 20
2.538280
  0
SEQEND
  8
0
  0
POLYLINE
  8
EBENE_1
 62
    39
  6
DASHED
 66
     1
 40
0.003000
 41
0.003000
  0
VERTEX
  8
EBENE_1
 62
    39
  6
DASHED
 10
-0.864634
 20
2.538280
  0
VERTEX
  8
EBENE_1
 62
    39
  6
DASHED
 10
-0.862981
 20
2.534950
  0
VERTEX
  8
EBENE_1
 62
    39
  6
DASHED
 10
-0.859977
 20
2.533273
  0
VERTEX
  8
EBENE_1
 62
    39
  6
DASHED
 10
-0.856524
 20
2.533547
  0
SEQEND
  8
0
  0
POLYLINE
  8
EBENE_1
 62
    39
  6
DASHED
 66
     1
 40
0.003000
 41
0.003000
  0
VERTEX
  8
EBENE_1
 62
    39
  6
DASHED
 10
-0.856524
 20
2.533547
  0
VERTEX
  8
EBENE_1
 62
    39
  6
DASHED
 10
-0.853645
 20
2.535200
  0
VERTEX
  8
EBENE_1
 62
    39
  6
DASHED
 10
-0.851967
 20
2.538204
  0
VERTEX
  8
EBENE_1
 62
    39
  6
DASHED
 10
-0.851791
 20
2.541657
  0
SEQEND
  8
0
  0
POLYLINE
  8
EBENE_1
 62
    39
  6
DASHED
 66
     1
 40
0.003000
 41
0.003000
  0
VERTEX
  8
EBENE_1
 62
    39
  6
DASHED
 10
-0.851791
 20
2.541657
  0
VERTEX
  8
EBENE_1
 62
    39
  6
DASHED
 10
-0.853444
 20
2.544538
  0
VERTEX
  8
EBENE_1
 62
    39
  6
DASHED
 10
-0.856448
 20
2.546215
  0
VERTEX
  8
EBENE_1
 62
    39
  6
DASHED
 10
-0.859902
 20
2.546390
  0
SEQEND
  8
0
  0
POLYLINE
  8
EBENE_1
 62
    39
  6
DASHED
 66
     1
 40
0.003000
 41
0.003000
 70
     1
  0
VERTEX
  8
EBENE_1
 62
    39
  6
DASHED
 10
1.297886
 20
1.847795
  0
VERTEX
  8
EBENE_1
 62
    39
  6
DASHED
 10
1.297886
 20
2.086980
  0
VERTEX
  8
EBENE_1
 62
    39
  6
DASHED
 10
-1.565177
 20
2.086980
  0
VERTEX
  8
EBENE_1
 62
    39
  6
DASHED
 10
-1.565177
 20
1.847795
  0
SEQEND
  8
0
  0
TEXT
  8
EBENE_1
 62
    39
 10
-1.565177
 20
1.883106
 40
0.186962
  1
Traue  Eingebunderner Fuss 
 41
1.000000
  7
SN0
 71
     0
 72
     5
 11
1.366896
 21
1.883106
  0
ENDSEC
  0
EOF
