  0
SECTION
  2
HEADER
  9
$ACADVER
  1
AC1006
  9
$EXTMIN
 10
-1.996000
 20
-0.469201
  9
$EXTMAX
 10
1.342390
 20
1.502937
  9
$LTSCALE
 40
0.000394
  9
$PDMODE
 70
    35
  9
$PDSIZE
 40
0.000315
  0
ENDSEC
  0
SECTION
  2
TABLES
  0
TABLE
  2
LTYPE
 70
     9
  0
LTYPE
  2
CONTINUOUS
 70
    64
  3
Solid line
 72
    65
 73
     0
 40
0.000000
  0
LTYPE
  2
DASHED
 70
    64
  3
__ __ __ __ __ __ __ __ __ __ __ __ __ __ __
 72
    65
 73
     2
 40
0.000003
 49
0.000002
 49
-0.000001
  0
LTYPE
  2
HIDDEN
 70
    64
  3
 _ _ _ _ _ _ _ _ _ _ _ _ _ _ _ _ _ _ _ _ _ _
 72
    65
 73
     2
 40
0.000001
 49
0.000001
 49
-0.000000
  0
LTYPE
  2
CENTER
 70
    64
  3
____ _ ____ _ ____ _ ____ _ ____ _ ____ _ ____
 72
    65
 73
     4
 40
0.000008
 49
0.000005
 49
-0.000001
 49
0.000001
 49
-0.000001
  0
LTYPE
  2
PHANTOM
 70
    64
  3
_____ _ _ _____ _ _ _____ _ _ _____ _ _ ____
 72
    65
 73
     6
 40
0.000010
 49
0.000005
 49
-0.000001
 49
0.000001
 49
-0.000001
 49
0.000001
 49
-0.000001
  0
LTYPE
  2
DOT
 70
    64
  3
...............................................
 72
    65
 73
     2
 40
0.000001
 49
0.000000
 49
-0.000001
  0
LTYPE
  2
DASHDOT
 70
    64
  3
__ . __ . __ . __ . __ . __ . __ . __ . __ . __
 72
    65
 73
     4
 40
0.000004
 49
0.000002
 49
-0.000001
 49
0.000000
 49
-0.000001
  0
LTYPE
  2
BORDER
 70
    64
  3
__ __ . __ __ . __ __ . __ __ . __ __ . __ __
 72
    65
 73
     6
 40
0.000007
 49
0.000002
 49
-0.000001
 49
0.000002
 49
-0.000001
 49
0.000000
 49
-0.000001
  0
LTYPE
  2
DIVIDE
 70
    64
  3
__ . . __ . . __ . . __ . . __ . . __ . . __
 72
    65
 73
     6
 40
0.000005
 49
0.000002
 49
-0.000001
 49
0.000000
 49
-0.000001
 49
0.000000
 49
-0.000001
  0
LTYPE
  2
DOTDOT
 70
    64
  3
 . .  . .  . .  . .  . .  . . 
 72
    65
 73
     5
 40
0.000002
 49
-0.000001
 49
0.000000
 49
-0.000001
 49
0.000000
 49
-0.000001
  0
ENDTAB
  0
TABLE
  2
STYLE
 70
     2
  0
STYLE
 70
     0
  2
SN0
 40
0.000000
 41
0.000004
 50
0.000000
 71
     0
 42
0.000000
  3
SCRIPTS
  0
STYLE
 70
    68
  2
SV0
 40
0.000000
 41
0.000004
 50
0.000000
 71
     0
 42
0.000000
  3
SCRIPTS
  0
ENDTAB
  0
TABLE
  2
LAYER
 70
     3
  0
LAYER
  2
FOREGROUND
 70
    64
 62
     7
  6
CONTINUOUS
  0
LAYER
  2
BACKGROUND
 70
    65
 62
    -7
  6
CONTINUOUS
  0
LAYER
  2
EBENE_1
 70
    64
 62
     7
  6
CONTINUOUS
  0
ENDTAB
  0
ENDSEC
  0
SECTION
  2
ENTITIES
  0
POLYLINE
  8
EBENE_1
 62
    39
  6
CONTINUOUS
 66
     1
 40
0.010000
 41
0.010000
 70
     1
  0
VERTEX
  8
EBENE_1
 62
    39
  6
CONTINUOUS
 10
-1.879177
 20
0.172760
  0
VERTEX
  8
EBENE_1
 62
    39
  6
CONTINUOUS
 10
-1.877877
 20
0.159497
  0
VERTEX
  8
EBENE_1
 62
    39
  6
CONTINUOUS
 10
-1.875673
 20
0.145381
  0
VERTEX
  8
EBENE_1
 62
    39
  6
CONTINUOUS
 10
-1.872548
 20
0.130504
  0
VERTEX
  8
EBENE_1
 62
    39
  6
CONTINUOUS
 10
-1.868487
 20
0.114957
  0
VERTEX
  8
EBENE_1
 62
    39
  6
CONTINUOUS
 10
-1.863471
 20
0.098830
  0
VERTEX
  8
EBENE_1
 62
    39
  6
CONTINUOUS
 10
-1.857485
 20
0.082215
  0
VERTEX
  8
EBENE_1
 62
    39
  6
CONTINUOUS
 10
-1.850513
 20
0.065202
  0
VERTEX
  8
EBENE_1
 62
    39
  6
CONTINUOUS
 10
-1.842537
 20
0.047883
  0
VERTEX
  8
EBENE_1
 62
    39
  6
CONTINUOUS
 10
-1.833541
 20
0.030349
  0
VERTEX
  8
EBENE_1
 62
    39
  6
CONTINUOUS
 10
-1.823509
 20
0.012691
  0
VERTEX
  8
EBENE_1
 62
    39
  6
CONTINUOUS
 10
-1.812423
 20
-0.005000
  0
VERTEX
  8
EBENE_1
 62
    39
  6
CONTINUOUS
 10
-1.800269
 20
-0.022634
  0
VERTEX
  8
EBENE_1
 62
    39
  6
CONTINUOUS
 10
-1.787028
 20
-0.040118
  0
VERTEX
  8
EBENE_1
 62
    39
  6
CONTINUOUS
 10
-1.772684
 20
-0.057362
  0
VERTEX
  8
EBENE_1
 62
    39
  6
CONTINUOUS
 10
-1.757221
 20
-0.074275
  0
VERTEX
  8
EBENE_1
 62
    39
  6
CONTINUOUS
 10
-1.740622
 20
-0.090766
  0
VERTEX
  8
EBENE_1
 62
    39
  6
CONTINUOUS
 10
-1.722872
 20
-0.106744
  0
VERTEX
  8
EBENE_1
 62
    39
  6
CONTINUOUS
 10
-1.703952
 20
-0.122117
  0
VERTEX
  8
EBENE_1
 62
    39
  6
CONTINUOUS
 10
-1.683846
 20
-0.136795
  0
VERTEX
  8
EBENE_1
 62
    39
  6
CONTINUOUS
 10
-1.683846
 20
-0.136795
  0
VERTEX
  8
EBENE_1
 62
    39
  6
CONTINUOUS
 10
-1.250602
 20
-0.128685
  0
VERTEX
  8
EBENE_1
 62
    39
  6
CONTINUOUS
 10
-1.258713
 20
0.494484
  0
VERTEX
  8
EBENE_1
 62
    39
  6
CONTINUOUS
 10
-1.882559
 20
0.485697
  0
SEQEND
  8
0
  0
POLYLINE
  8
EBENE_1
 62
    39
  6
CONTINUOUS
 66
     1
 40
0.010000
 41
0.010000
 70
     1
  0
VERTEX
  8
EBENE_1
 62
    39
  6
CONTINUOUS
 10
-1.872421
 20
0.176138
  0
VERTEX
  8
EBENE_1
 62
    39
  6
CONTINUOUS
 10
-1.871034
 20
0.162231
  0
VERTEX
  8
EBENE_1
 62
    39
  6
CONTINUOUS
 10
-1.868664
 20
0.147391
  0
VERTEX
  8
EBENE_1
 62
    39
  6
CONTINUOUS
 10
-1.865289
 20
0.131724
  0
VERTEX
  8
EBENE_1
 62
    39
  6
CONTINUOUS
 10
-1.860890
 20
0.115335
  0
VERTEX
  8
EBENE_1
 62
    39
  6
CONTINUOUS
 10
-1.855447
 20
0.098330
  0
VERTEX
  8
EBENE_1
 62
    39
  6
CONTINUOUS
 10
-1.848939
 20
0.080814
  0
VERTEX
  8
EBENE_1
 62
    39
  6
CONTINUOUS
 10
-1.841347
 20
0.062894
  0
VERTEX
  8
EBENE_1
 62
    39
  6
CONTINUOUS
 10
-1.832649
 20
0.044674
  0
VERTEX
  8
EBENE_1
 62
    39
  6
CONTINUOUS
 10
-1.822827
 20
0.026262
  0
VERTEX
  8
EBENE_1
 62
    39
  6
CONTINUOUS
 10
-1.811859
 20
0.007762
  0
VERTEX
  8
EBENE_1
 62
    39
  6
CONTINUOUS
 10
-1.799726
 20
-0.010721
  0
VERTEX
  8
EBENE_1
 62
    39
  6
CONTINUOUS
 10
-1.786407
 20
-0.029079
  0
VERTEX
  8
EBENE_1
 62
    39
  6
CONTINUOUS
 10
-1.771883
 20
-0.047208
  0
VERTEX
  8
EBENE_1
 62
    39
  6
CONTINUOUS
 10
-1.756132
 20
-0.065002
  0
VERTEX
  8
EBENE_1
 62
    39
  6
CONTINUOUS
 10
-1.739136
 20
-0.082355
  0
VERTEX
  8
EBENE_1
 62
    39
  6
CONTINUOUS
 10
-1.720873
 20
-0.099162
  0
VERTEX
  8
EBENE_1
 62
    39
  6
CONTINUOUS
 10
-1.701324
 20
-0.115316
  0
VERTEX
  8
EBENE_1
 62
    39
  6
CONTINUOUS
 10
-1.680469
 20
-0.130713
  0
VERTEX
  8
EBENE_1
 62
    39
  6
CONTINUOUS
 10
-1.680469
 20
-0.130713
  0
VERTEX
  8
EBENE_1
 62
    39
  6
CONTINUOUS
 10
-1.254657
 20
-0.122602
  0
VERTEX
  8
EBENE_1
 62
    39
  6
CONTINUOUS
 10
-1.262768
 20
0.494484
  0
VERTEX
  8
EBENE_1
 62
    39
  6
CONTINUOUS
 10
-1.875799
 20
0.486374
  0
SEQEND
  8
0
  0
POLYLINE
  8
EBENE_1
 62
    39
  6
CONTINUOUS
 66
     1
 40
0.010000
 41
0.010000
  0
VERTEX
  8
EBENE_1
 62
    39
  6
CONTINUOUS
 10
-1.308055
 20
0.280902
  0
VERTEX
  8
EBENE_1
 62
    39
  6
CONTINUOUS
 10
-1.306100
 20
0.280552
  0
VERTEX
  8
EBENE_1
 62
    39
  6
CONTINUOUS
 10
-1.304597
 20
0.278549
  0
VERTEX
  8
EBENE_1
 62
    39
  6
CONTINUOUS
 10
-1.303996
 20
0.275496
  0
SEQEND
  8
0
  0
POLYLINE
  8
EBENE_1
 62
    39
  6
CONTINUOUS
 66
     1
 40
0.010000
 41
0.010000
  0
VERTEX
  8
EBENE_1
 62
    39
  6
CONTINUOUS
 10
-1.303996
 20
0.275496
  0
VERTEX
  8
EBENE_1
 62
    39
  6
CONTINUOUS
 10
-1.304597
 20
0.272416
  0
VERTEX
  8
EBENE_1
 62
    39
  6
CONTINUOUS
 10
-1.306100
 20
0.270239
  0
VERTEX
  8
EBENE_1
 62
    39
  6
CONTINUOUS
 10
-1.308055
 20
0.269413
  0
SEQEND
  8
0
  0
POLYLINE
  8
EBENE_1
 62
    39
  6
CONTINUOUS
 66
     1
 40
0.010000
 41
0.010000
  0
VERTEX
  8
EBENE_1
 62
    39
  6
CONTINUOUS
 10
-1.308055
 20
0.269413
  0
VERTEX
  8
EBENE_1
 62
    39
  6
CONTINUOUS
 10
-1.310481
 20
0.270239
  0
VERTEX
  8
EBENE_1
 62
    39
  6
CONTINUOUS
 10
-1.312158
 20
0.272416
  0
VERTEX
  8
EBENE_1
 62
    39
  6
CONTINUOUS
 10
-1.312783
 20
0.275496
  0
SEQEND
  8
0
  0
POLYLINE
  8
EBENE_1
 62
    39
  6
CONTINUOUS
 66
     1
 40
0.010000
 41
0.010000
  0
VERTEX
  8
EBENE_1
 62
    39
  6
CONTINUOUS
 10
-1.312783
 20
0.275496
  0
VERTEX
  8
EBENE_1
 62
    39
  6
CONTINUOUS
 10
-1.312158
 20
0.278100
  0
VERTEX
  8
EBENE_1
 62
    39
  6
CONTINUOUS
 10
-1.310481
 20
0.280101
  0
VERTEX
  8
EBENE_1
 62
    39
  6
CONTINUOUS
 10
-1.308055
 20
0.280902
  0
SEQEND
  8
0
  0
POLYLINE
  8
EBENE_1
 62
    39
  6
CONTINUOUS
 66
     1
 40
0.010000
 41
0.010000
  0
VERTEX
  8
EBENE_1
 62
    39
  6
CONTINUOUS
 10
-1.304673
 20
0.176138
  0
VERTEX
  8
EBENE_1
 62
    39
  6
CONTINUOUS
 10
-1.302721
 20
0.175312
  0
VERTEX
  8
EBENE_1
 62
    39
  6
CONTINUOUS
 10
-1.301219
 20
0.173135
  0
VERTEX
  8
EBENE_1
 62
    39
  6
CONTINUOUS
 10
-1.300618
 20
0.170055
  0
SEQEND
  8
0
  0
POLYLINE
  8
EBENE_1
 62
    39
  6
CONTINUOUS
 66
     1
 40
0.010000
 41
0.010000
  0
VERTEX
  8
EBENE_1
 62
    39
  6
CONTINUOUS
 10
-1.300618
 20
0.170055
  0
VERTEX
  8
EBENE_1
 62
    39
  6
CONTINUOUS
 10
-1.301219
 20
0.166977
  0
VERTEX
  8
EBENE_1
 62
    39
  6
CONTINUOUS
 10
-1.302721
 20
0.164799
  0
VERTEX
  8
EBENE_1
 62
    39
  6
CONTINUOUS
 10
-1.304673
 20
0.163972
  0
SEQEND
  8
0
  0
POLYLINE
  8
EBENE_1
 62
    39
  6
CONTINUOUS
 66
     1
 40
0.010000
 41
0.010000
  0
VERTEX
  8
EBENE_1
 62
    39
  6
CONTINUOUS
 10
-1.304673
 20
0.163972
  0
VERTEX
  8
EBENE_1
 62
    39
  6
CONTINUOUS
 10
-1.307102
 20
0.164799
  0
VERTEX
  8
EBENE_1
 62
    39
  6
CONTINUOUS
 10
-1.308780
 20
0.166977
  0
VERTEX
  8
EBENE_1
 62
    39
  6
CONTINUOUS
 10
-1.309406
 20
0.170055
  0
SEQEND
  8
0
  0
POLYLINE
  8
EBENE_1
 62
    39
  6
CONTINUOUS
 66
     1
 40
0.010000
 41
0.010000
  0
VERTEX
  8
EBENE_1
 62
    39
  6
CONTINUOUS
 10
-1.309406
 20
0.170055
  0
VERTEX
  8
EBENE_1
 62
    39
  6
CONTINUOUS
 10
-1.308780
 20
0.173135
  0
VERTEX
  8
EBENE_1
 62
    39
  6
CONTINUOUS
 10
-1.307102
 20
0.175312
  0
VERTEX
  8
EBENE_1
 62
    39
  6
CONTINUOUS
 10
-1.304673
 20
0.176138
  0
SEQEND
  8
0
  0
POLYLINE
  8
EBENE_1
 62
    39
  6
CONTINUOUS
 66
     1
 40
0.010000
 41
0.010000
  0
VERTEX
  8
EBENE_1
 62
    39
  6
CONTINUOUS
 10
-1.508791
 20
0.465421
  0
VERTEX
  8
EBENE_1
 62
    39
  6
CONTINUOUS
 10
-1.506362
 20
0.464770
  0
VERTEX
  8
EBENE_1
 62
    39
  6
CONTINUOUS
 10
-1.504685
 20
0.462917
  0
VERTEX
  8
EBENE_1
 62
    39
  6
CONTINUOUS
 10
-1.504059
 20
0.460012
  0
SEQEND
  8
0
  0
POLYLINE
  8
EBENE_1
 62
    39
  6
CONTINUOUS
 66
     1
 40
0.010000
 41
0.010000
  0
VERTEX
  8
EBENE_1
 62
    39
  6
CONTINUOUS
 10
-1.504059
 20
0.460012
  0
VERTEX
  8
EBENE_1
 62
    39
  6
CONTINUOUS
 10
-1.504685
 20
0.456934
  0
VERTEX
  8
EBENE_1
 62
    39
  6
CONTINUOUS
 10
-1.506362
 20
0.454755
  0
VERTEX
  8
EBENE_1
 62
    39
  6
CONTINUOUS
 10
-1.508791
 20
0.453929
  0
SEQEND
  8
0
  0
POLYLINE
  8
EBENE_1
 62
    39
  6
CONTINUOUS
 66
     1
 40
0.010000
 41
0.010000
  0
VERTEX
  8
EBENE_1
 62
    39
  6
CONTINUOUS
 10
-1.508791
 20
0.453929
  0
VERTEX
  8
EBENE_1
 62
    39
  6
CONTINUOUS
 10
-1.510744
 20
0.454755
  0
VERTEX
  8
EBENE_1
 62
    39
  6
CONTINUOUS
 10
-1.512246
 20
0.456934
  0
VERTEX
  8
EBENE_1
 62
    39
  6
CONTINUOUS
 10
-1.512846
 20
0.460012
  0
SEQEND
  8
0
  0
POLYLINE
  8
EBENE_1
 62
    39
  6
CONTINUOUS
 66
     1
 40
0.010000
 41
0.010000
  0
VERTEX
  8
EBENE_1
 62
    39
  6
CONTINUOUS
 10
-1.512846
 20
0.460012
  0
VERTEX
  8
EBENE_1
 62
    39
  6
CONTINUOUS
 10
-1.512396
 20
0.462616
  0
VERTEX
  8
EBENE_1
 62
    39
  6
CONTINUOUS
 10
-1.511045
 20
0.464620
  0
VERTEX
  8
EBENE_1
 62
    39
  6
CONTINUOUS
 10
-1.508791
 20
0.465421
  0
SEQEND
  8
0
  0
POLYLINE
  8
EBENE_1
 62
    39
  6
CONTINUOUS
 66
     1
 40
0.010000
 41
0.010000
  0
VERTEX
  8
EBENE_1
 62
    39
  6
CONTINUOUS
 10
-1.630453
 20
0.462039
  0
VERTEX
  8
EBENE_1
 62
    39
  6
CONTINUOUS
 10
-1.628024
 20
0.461213
  0
VERTEX
  8
EBENE_1
 62
    39
  6
CONTINUOUS
 10
-1.626346
 20
0.459035
  0
VERTEX
  8
EBENE_1
 62
    39
  6
CONTINUOUS
 10
-1.625720
 20
0.455957
  0
SEQEND
  8
0
  0
POLYLINE
  8
EBENE_1
 62
    39
  6
CONTINUOUS
 66
     1
 40
0.010000
 41
0.010000
  0
VERTEX
  8
EBENE_1
 62
    39
  6
CONTINUOUS
 10
-1.625720
 20
0.455957
  0
VERTEX
  8
EBENE_1
 62
    39
  6
CONTINUOUS
 10
-1.626321
 20
0.453353
  0
VERTEX
  8
EBENE_1
 62
    39
  6
CONTINUOUS
 10
-1.627823
 20
0.451352
  0
VERTEX
  8
EBENE_1
 62
    39
  6
CONTINUOUS
 10
-1.629776
 20
0.450551
  0
SEQEND
  8
0
  0
POLYLINE
  8
EBENE_1
 62
    39
  6
CONTINUOUS
 66
     1
 40
0.010000
 41
0.010000
  0
VERTEX
  8
EBENE_1
 62
    39
  6
CONTINUOUS
 10
-1.629776
 20
0.450551
  0
VERTEX
  8
EBENE_1
 62
    39
  6
CONTINUOUS
 10
-1.632205
 20
0.451202
  0
VERTEX
  8
EBENE_1
 62
    39
  6
CONTINUOUS
 10
-1.633882
 20
0.453054
  0
VERTEX
  8
EBENE_1
 62
    39
  6
CONTINUOUS
 10
-1.634508
 20
0.455957
  0
SEQEND
  8
0
  0
POLYLINE
  8
EBENE_1
 62
    39
  6
CONTINUOUS
 66
     1
 40
0.010000
 41
0.010000
  0
VERTEX
  8
EBENE_1
 62
    39
  6
CONTINUOUS
 10
-1.634508
 20
0.455957
  0
VERTEX
  8
EBENE_1
 62
    39
  6
CONTINUOUS
 10
-1.633907
 20
0.459035
  0
VERTEX
  8
EBENE_1
 62
    39
  6
CONTINUOUS
 10
-1.632405
 20
0.461213
  0
VERTEX
  8
EBENE_1
 62
    39
  6
CONTINUOUS
 10
-1.630453
 20
0.462039
  0
SEQEND
  8
0
  0
POLYLINE
  8
EBENE_1
 62
    39
  6
CONTINUOUS
 66
     1
 40
0.010000
 41
0.010000
 70
     1
  0
VERTEX
  8
EBENE_1
 62
    39
  6
CONTINUOUS
 10
-1.447287
 20
0.172760
  0
VERTEX
  8
EBENE_1
 62
    39
  6
CONTINUOUS
 10
-1.446088
 20
0.159497
  0
VERTEX
  8
EBENE_1
 62
    39
  6
CONTINUOUS
 10
-1.443974
 20
0.145381
  0
VERTEX
  8
EBENE_1
 62
    39
  6
CONTINUOUS
 10
-1.440930
 20
0.130504
  0
VERTEX
  8
EBENE_1
 62
    39
  6
CONTINUOUS
 10
-1.436939
 20
0.114957
  0
VERTEX
  8
EBENE_1
 62
    39
  6
CONTINUOUS
 10
-1.431985
 20
0.098830
  0
VERTEX
  8
EBENE_1
 62
    39
  6
CONTINUOUS
 10
-1.426053
 20
0.082215
  0
VERTEX
  8
EBENE_1
 62
    39
  6
CONTINUOUS
 10
-1.419127
 20
0.065202
  0
VERTEX
  8
EBENE_1
 62
    39
  6
CONTINUOUS
 10
-1.411190
 20
0.047883
  0
VERTEX
  8
EBENE_1
 62
    39
  6
CONTINUOUS
 10
-1.402226
 20
0.030349
  0
VERTEX
  8
EBENE_1
 62
    39
  6
CONTINUOUS
 10
-1.392221
 20
0.012691
  0
VERTEX
  8
EBENE_1
 62
    39
  6
CONTINUOUS
 10
-1.381157
 20
-0.005000
  0
VERTEX
  8
EBENE_1
 62
    39
  6
CONTINUOUS
 10
-1.369018
 20
-0.022634
  0
VERTEX
  8
EBENE_1
 62
    39
  6
CONTINUOUS
 10
-1.355790
 20
-0.040118
  0
VERTEX
  8
EBENE_1
 62
    39
  6
CONTINUOUS
 10
-1.341455
 20
-0.057362
  0
VERTEX
  8
EBENE_1
 62
    39
  6
CONTINUOUS
 10
-1.325998
 20
-0.074275
  0
VERTEX
  8
EBENE_1
 62
    39
  6
CONTINUOUS
 10
-1.309403
 20
-0.090766
  0
VERTEX
  8
EBENE_1
 62
    39
  6
CONTINUOUS
 10
-1.291654
 20
-0.106744
  0
VERTEX
  8
EBENE_1
 62
    39
  6
CONTINUOUS
 10
-1.272735
 20
-0.122117
  0
VERTEX
  8
EBENE_1
 62
    39
  6
CONTINUOUS
 10
-1.252630
 20
-0.136795
  0
VERTEX
  8
EBENE_1
 62
    39
  6
CONTINUOUS
 10
-1.252630
 20
-0.136795
  0
VERTEX
  8
EBENE_1
 62
    39
  6
CONTINUOUS
 10
-0.818709
 20
-0.128685
  0
VERTEX
  8
EBENE_1
 62
    39
  6
CONTINUOUS
 10
-0.827496
 20
0.494484
  0
VERTEX
  8
EBENE_1
 62
    39
  6
CONTINUOUS
 10
-1.451343
 20
0.485697
  0
SEQEND
  8
0
  0
POLYLINE
  8
EBENE_1
 62
    39
  6
CONTINUOUS
 66
     1
 40
0.010000
 41
0.010000
 70
     1
  0
VERTEX
  8
EBENE_1
 62
    39
  6
CONTINUOUS
 10
-1.440528
 20
0.176138
  0
VERTEX
  8
EBENE_1
 62
    39
  6
CONTINUOUS
 10
-1.439241
 20
0.162231
  0
VERTEX
  8
EBENE_1
 62
    39
  6
CONTINUOUS
 10
-1.436948
 20
0.147391
  0
VERTEX
  8
EBENE_1
 62
    39
  6
CONTINUOUS
 10
-1.433631
 20
0.131724
  0
VERTEX
  8
EBENE_1
 62
    39
  6
CONTINUOUS
 10
-1.429270
 20
0.115335
  0
VERTEX
  8
EBENE_1
 62
    39
  6
CONTINUOUS
 10
-1.423848
 20
0.098330
  0
VERTEX
  8
EBENE_1
 62
    39
  6
CONTINUOUS
 10
-1.417346
 20
0.080814
  0
VERTEX
  8
EBENE_1
 62
    39
  6
CONTINUOUS
 10
-1.409748
 20
0.062894
  0
VERTEX
  8
EBENE_1
 62
    39
  6
CONTINUOUS
 10
-1.401034
 20
0.044674
  0
VERTEX
  8
EBENE_1
 62
    39
  6
CONTINUOUS
 10
-1.391187
 20
0.026262
  0
VERTEX
  8
EBENE_1
 62
    39
  6
CONTINUOUS
 10
-1.380188
 20
0.007762
  0
VERTEX
  8
EBENE_1
 62
    39
  6
CONTINUOUS
 10
-1.368020
 20
-0.010721
  0
VERTEX
  8
EBENE_1
 62
    39
  6
CONTINUOUS
 10
-1.354664
 20
-0.029079
  0
VERTEX
  8
EBENE_1
 62
    39
  6
CONTINUOUS
 10
-1.340102
 20
-0.047208
  0
VERTEX
  8
EBENE_1
 62
    39
  6
CONTINUOUS
 10
-1.324317
 20
-0.065002
  0
VERTEX
  8
EBENE_1
 62
    39
  6
CONTINUOUS
 10
-1.307289
 20
-0.082355
  0
VERTEX
  8
EBENE_1
 62
    39
  6
CONTINUOUS
 10
-1.289002
 20
-0.099162
  0
VERTEX
  8
EBENE_1
 62
    39
  6
CONTINUOUS
 10
-1.269436
 20
-0.115316
  0
VERTEX
  8
EBENE_1
 62
    39
  6
CONTINUOUS
 10
-1.248575
 20
-0.130713
  0
VERTEX
  8
EBENE_1
 62
    39
  6
CONTINUOUS
 10
-1.248575
 20
-0.130713
  0
VERTEX
  8
EBENE_1
 62
    39
  6
CONTINUOUS
 10
-0.822768
 20
-0.122602
  0
VERTEX
  8
EBENE_1
 62
    39
  6
CONTINUOUS
 10
-0.831551
 20
0.494484
  0
VERTEX
  8
EBENE_1
 62
    39
  6
CONTINUOUS
 10
-1.444583
 20
0.486374
  0
SEQEND
  8
0
  0
POLYLINE
  8
EBENE_1
 62
    39
  6
CONTINUOUS
 66
     1
 40
0.010000
 41
0.010000
  0
VERTEX
  8
EBENE_1
 62
    39
  6
CONTINUOUS
 10
-0.876839
 20
0.280902
  0
VERTEX
  8
EBENE_1
 62
    39
  6
CONTINUOUS
 10
-0.874858
 20
0.280552
  0
VERTEX
  8
EBENE_1
 62
    39
  6
CONTINUOUS
 10
-0.873181
 20
0.278549
  0
VERTEX
  8
EBENE_1
 62
    39
  6
CONTINUOUS
 10
-0.872106
 20
0.275496
  0
SEQEND
  8
0
  0
POLYLINE
  8
EBENE_1
 62
    39
  6
CONTINUOUS
 66
     1
 40
0.010000
 41
0.010000
  0
VERTEX
  8
EBENE_1
 62
    39
  6
CONTINUOUS
 10
-0.872106
 20
0.275496
  0
VERTEX
  8
EBENE_1
 62
    39
  6
CONTINUOUS
 10
-0.872732
 20
0.272416
  0
VERTEX
  8
EBENE_1
 62
    39
  6
CONTINUOUS
 10
-0.874410
 20
0.270239
  0
VERTEX
  8
EBENE_1
 62
    39
  6
CONTINUOUS
 10
-0.876839
 20
0.269413
  0
SEQEND
  8
0
  0
POLYLINE
  8
EBENE_1
 62
    39
  6
CONTINUOUS
 66
     1
 40
0.010000
 41
0.010000
  0
VERTEX
  8
EBENE_1
 62
    39
  6
CONTINUOUS
 10
-0.876839
 20
0.269413
  0
VERTEX
  8
EBENE_1
 62
    39
  6
CONTINUOUS
 10
-0.878816
 20
0.270239
  0
VERTEX
  8
EBENE_1
 62
    39
  6
CONTINUOUS
 10
-0.880492
 20
0.272416
  0
VERTEX
  8
EBENE_1
 62
    39
  6
CONTINUOUS
 10
-0.881567
 20
0.275496
  0
SEQEND
  8
0
  0
POLYLINE
  8
EBENE_1
 62
    39
  6
CONTINUOUS
 66
     1
 40
0.010000
 41
0.010000
  0
VERTEX
  8
EBENE_1
 62
    39
  6
CONTINUOUS
 10
-0.881567
 20
0.275496
  0
VERTEX
  8
EBENE_1
 62
    39
  6
CONTINUOUS
 10
-0.880941
 20
0.278100
  0
VERTEX
  8
EBENE_1
 62
    39
  6
CONTINUOUS
 10
-0.879265
 20
0.280101
  0
VERTEX
  8
EBENE_1
 62
    39
  6
CONTINUOUS
 10
-0.876839
 20
0.280902
  0
SEQEND
  8
0
  0
POLYLINE
  8
EBENE_1
 62
    39
  6
CONTINUOUS
 66
     1
 40
0.010000
 41
0.010000
  0
VERTEX
  8
EBENE_1
 62
    39
  6
CONTINUOUS
 10
-0.873457
 20
0.176138
  0
VERTEX
  8
EBENE_1
 62
    39
  6
CONTINUOUS
 10
-0.871479
 20
0.175312
  0
VERTEX
  8
EBENE_1
 62
    39
  6
CONTINUOUS
 10
-0.869802
 20
0.173135
  0
VERTEX
  8
EBENE_1
 62
    39
  6
CONTINUOUS
 10
-0.868724
 20
0.170055
  0
SEQEND
  8
0
  0
POLYLINE
  8
EBENE_1
 62
    39
  6
CONTINUOUS
 66
     1
 40
0.010000
 41
0.010000
  0
VERTEX
  8
EBENE_1
 62
    39
  6
CONTINUOUS
 10
-0.868724
 20
0.170055
  0
VERTEX
  8
EBENE_1
 62
    39
  6
CONTINUOUS
 10
-0.869350
 20
0.166977
  0
VERTEX
  8
EBENE_1
 62
    39
  6
CONTINUOUS
 10
-0.871028
 20
0.164799
  0
VERTEX
  8
EBENE_1
 62
    39
  6
CONTINUOUS
 10
-0.873457
 20
0.163972
  0
SEQEND
  8
0
  0
POLYLINE
  8
EBENE_1
 62
    39
  6
CONTINUOUS
 66
     1
 40
0.010000
 41
0.010000
  0
VERTEX
  8
EBENE_1
 62
    39
  6
CONTINUOUS
 10
-0.873457
 20
0.163972
  0
VERTEX
  8
EBENE_1
 62
    39
  6
CONTINUOUS
 10
-0.875434
 20
0.164799
  0
VERTEX
  8
EBENE_1
 62
    39
  6
CONTINUOUS
 10
-0.877112
 20
0.166977
  0
VERTEX
  8
EBENE_1
 62
    39
  6
CONTINUOUS
 10
-0.878189
 20
0.170055
  0
SEQEND
  8
0
  0
POLYLINE
  8
EBENE_1
 62
    39
  6
CONTINUOUS
 66
     1
 40
0.010000
 41
0.010000
  0
VERTEX
  8
EBENE_1
 62
    39
  6
CONTINUOUS
 10
-0.878189
 20
0.170055
  0
VERTEX
  8
EBENE_1
 62
    39
  6
CONTINUOUS
 10
-0.877563
 20
0.173135
  0
VERTEX
  8
EBENE_1
 62
    39
  6
CONTINUOUS
 10
-0.875886
 20
0.175312
  0
VERTEX
  8
EBENE_1
 62
    39
  6
CONTINUOUS
 10
-0.873457
 20
0.176138
  0
SEQEND
  8
0
  0
POLYLINE
  8
EBENE_1
 62
    39
  6
CONTINUOUS
 66
     1
 40
0.010000
 41
0.010000
  0
VERTEX
  8
EBENE_1
 62
    39
  6
CONTINUOUS
 10
-1.077575
 20
0.465421
  0
VERTEX
  8
EBENE_1
 62
    39
  6
CONTINUOUS
 10
-1.075149
 20
0.464770
  0
VERTEX
  8
EBENE_1
 62
    39
  6
CONTINUOUS
 10
-1.073472
 20
0.462917
  0
VERTEX
  8
EBENE_1
 62
    39
  6
CONTINUOUS
 10
-1.072846
 20
0.460012
  0
SEQEND
  8
0
  0
POLYLINE
  8
EBENE_1
 62
    39
  6
CONTINUOUS
 66
     1
 40
0.010000
 41
0.010000
  0
VERTEX
  8
EBENE_1
 62
    39
  6
CONTINUOUS
 10
-1.072846
 20
0.460012
  0
VERTEX
  8
EBENE_1
 62
    39
  6
CONTINUOUS
 10
-1.073447
 20
0.456934
  0
VERTEX
  8
EBENE_1
 62
    39
  6
CONTINUOUS
 10
-1.074948
 20
0.454755
  0
VERTEX
  8
EBENE_1
 62
    39
  6
CONTINUOUS
 10
-1.076898
 20
0.453929
  0
SEQEND
  8
0
  0
POLYLINE
  8
EBENE_1
 62
    39
  6
CONTINUOUS
 66
     1
 40
0.010000
 41
0.010000
  0
VERTEX
  8
EBENE_1
 62
    39
  6
CONTINUOUS
 10
-1.076898
 20
0.453929
  0
VERTEX
  8
EBENE_1
 62
    39
  6
CONTINUOUS
 10
-1.079327
 20
0.454755
  0
VERTEX
  8
EBENE_1
 62
    39
  6
CONTINUOUS
 10
-1.081004
 20
0.456934
  0
VERTEX
  8
EBENE_1
 62
    39
  6
CONTINUOUS
 10
-1.081630
 20
0.460012
  0
SEQEND
  8
0
  0
POLYLINE
  8
EBENE_1
 62
    39
  6
CONTINUOUS
 66
     1
 40
0.010000
 41
0.010000
  0
VERTEX
  8
EBENE_1
 62
    39
  6
CONTINUOUS
 10
-1.081630
 20
0.460012
  0
VERTEX
  8
EBENE_1
 62
    39
  6
CONTINUOUS
 10
-1.081029
 20
0.462616
  0
VERTEX
  8
EBENE_1
 62
    39
  6
CONTINUOUS
 10
-1.079527
 20
0.464620
  0
VERTEX
  8
EBENE_1
 62
    39
  6
CONTINUOUS
 10
-1.077575
 20
0.465421
  0
SEQEND
  8
0
  0
POLYLINE
  8
EBENE_1
 62
    39
  6
CONTINUOUS
 66
     1
 40
0.010000
 41
0.010000
  0
VERTEX
  8
EBENE_1
 62
    39
  6
CONTINUOUS
 10
-1.198559
 20
0.462039
  0
VERTEX
  8
EBENE_1
 62
    39
  6
CONTINUOUS
 10
-1.196607
 20
0.461213
  0
VERTEX
  8
EBENE_1
 62
    39
  6
CONTINUOUS
 10
-1.195105
 20
0.459035
  0
VERTEX
  8
EBENE_1
 62
    39
  6
CONTINUOUS
 10
-1.194504
 20
0.455957
  0
SEQEND
  8
0
  0
POLYLINE
  8
EBENE_1
 62
    39
  6
CONTINUOUS
 66
     1
 40
0.010000
 41
0.010000
  0
VERTEX
  8
EBENE_1
 62
    39
  6
CONTINUOUS
 10
-1.194504
 20
0.455957
  0
VERTEX
  8
EBENE_1
 62
    39
  6
CONTINUOUS
 10
-1.195105
 20
0.453353
  0
VERTEX
  8
EBENE_1
 62
    39
  6
CONTINUOUS
 10
-1.196607
 20
0.451352
  0
VERTEX
  8
EBENE_1
 62
    39
  6
CONTINUOUS
 10
-1.198559
 20
0.450551
  0
SEQEND
  8
0
  0
POLYLINE
  8
EBENE_1
 62
    39
  6
CONTINUOUS
 66
     1
 40
0.010000
 41
0.010000
  0
VERTEX
  8
EBENE_1
 62
    39
  6
CONTINUOUS
 10
-1.198559
 20
0.450551
  0
VERTEX
  8
EBENE_1
 62
    39
  6
CONTINUOUS
 10
-1.200988
 20
0.451202
  0
VERTEX
  8
EBENE_1
 62
    39
  6
CONTINUOUS
 10
-1.202666
 20
0.453054
  0
VERTEX
  8
EBENE_1
 62
    39
  6
CONTINUOUS
 10
-1.203291
 20
0.455957
  0
SEQEND
  8
0
  0
POLYLINE
  8
EBENE_1
 62
    39
  6
CONTINUOUS
 66
     1
 40
0.010000
 41
0.010000
  0
VERTEX
  8
EBENE_1
 62
    39
  6
CONTINUOUS
 10
-1.203291
 20
0.455957
  0
VERTEX
  8
EBENE_1
 62
    39
  6
CONTINUOUS
 10
-1.202666
 20
0.459035
  0
VERTEX
  8
EBENE_1
 62
    39
  6
CONTINUOUS
 10
-1.200988
 20
0.461213
  0
VERTEX
  8
EBENE_1
 62
    39
  6
CONTINUOUS
 10
-1.198559
 20
0.462039
  0
SEQEND
  8
0
  0
POLYLINE
  8
EBENE_1
 62
    39
  6
CONTINUOUS
 66
     1
 40
0.010000
 41
0.010000
 70
     1
  0
VERTEX
  8
EBENE_1
 62
    39
  6
CONTINUOUS
 10
-1.016071
 20
0.172760
  0
VERTEX
  8
EBENE_1
 62
    39
  6
CONTINUOUS
 10
-1.014866
 20
0.159497
  0
VERTEX
  8
EBENE_1
 62
    39
  6
CONTINUOUS
 10
-1.012737
 20
0.145381
  0
VERTEX
  8
EBENE_1
 62
    39
  6
CONTINUOUS
 10
-1.009668
 20
0.130504
  0
VERTEX
  8
EBENE_1
 62
    39
  6
CONTINUOUS
 10
-1.005645
 20
0.114957
  0
VERTEX
  8
EBENE_1
 62
    39
  6
CONTINUOUS
 10
-1.000653
 20
0.098830
  0
VERTEX
  8
EBENE_1
 62
    39
  6
CONTINUOUS
 10
-0.994678
 20
0.082215
  0
VERTEX
  8
EBENE_1
 62
    39
  6
CONTINUOUS
 10
-0.987703
 20
0.065202
  0
VERTEX
  8
EBENE_1
 62
    39
  6
CONTINUOUS
 10
-0.979715
 20
0.047883
  0
VERTEX
  8
EBENE_1
 62
    39
  6
CONTINUOUS
 10
-0.970699
 20
0.030349
  0
VERTEX
  8
EBENE_1
 62
    39
  6
CONTINUOUS
 10
-0.960640
 20
0.012691
  0
VERTEX
  8
EBENE_1
 62
    39
  6
CONTINUOUS
 10
-0.949524
 20
-0.005000
  0
VERTEX
  8
EBENE_1
 62
    39
  6
CONTINUOUS
 10
-0.937334
 20
-0.022634
  0
VERTEX
  8
EBENE_1
 62
    39
  6
CONTINUOUS
 10
-0.924058
 20
-0.040118
  0
VERTEX
  8
EBENE_1
 62
    39
  6
CONTINUOUS
 10
-0.909679
 20
-0.057362
  0
VERTEX
  8
EBENE_1
 62
    39
  6
CONTINUOUS
 10
-0.894184
 20
-0.074275
  0
VERTEX
  8
EBENE_1
 62
    39
  6
CONTINUOUS
 10
-0.877556
 20
-0.090766
  0
VERTEX
  8
EBENE_1
 62
    39
  6
CONTINUOUS
 10
-0.859782
 20
-0.106744
  0
VERTEX
  8
EBENE_1
 62
    39
  6
CONTINUOUS
 10
-0.840847
 20
-0.122117
  0
VERTEX
  8
EBENE_1
 62
    39
  6
CONTINUOUS
 10
-0.820736
 20
-0.136795
  0
VERTEX
  8
EBENE_1
 62
    39
  6
CONTINUOUS
 10
-0.820736
 20
-0.136795
  0
VERTEX
  8
EBENE_1
 62
    39
  6
CONTINUOUS
 10
-0.387492
 20
-0.128685
  0
VERTEX
  8
EBENE_1
 62
    39
  6
CONTINUOUS
 10
-0.396280
 20
0.494484
  0
VERTEX
  8
EBENE_1
 62
    39
  6
CONTINUOUS
 10
-1.019449
 20
0.485697
  0
SEQEND
  8
0
  0
POLYLINE
  8
EBENE_1
 62
    39
  6
CONTINUOUS
 66
     1
 40
0.010000
 41
0.010000
 70
     1
  0
VERTEX
  8
EBENE_1
 62
    39
  6
CONTINUOUS
 10
-1.009311
 20
0.176138
  0
VERTEX
  8
EBENE_1
 62
    39
  6
CONTINUOUS
 10
-1.008025
 20
0.162231
  0
VERTEX
  8
EBENE_1
 62
    39
  6
CONTINUOUS
 10
-1.005732
 20
0.147391
  0
VERTEX
  8
EBENE_1
 62
    39
  6
CONTINUOUS
 10
-1.002414
 20
0.131724
  0
VERTEX
  8
EBENE_1
 62
    39
  6
CONTINUOUS
 10
-0.998053
 20
0.115335
  0
VERTEX
  8
EBENE_1
 62
    39
  6
CONTINUOUS
 10
-0.992631
 20
0.098330
  0
VERTEX
  8
EBENE_1
 62
    39
  6
CONTINUOUS
 10
-0.986130
 20
0.080814
  0
VERTEX
  8
EBENE_1
 62
    39
  6
CONTINUOUS
 10
-0.978531
 20
0.062894
  0
VERTEX
  8
EBENE_1
 62
    39
  6
CONTINUOUS
 10
-0.969818
 20
0.044674
  0
VERTEX
  8
EBENE_1
 62
    39
  6
CONTINUOUS
 10
-0.959970
 20
0.026262
  0
VERTEX
  8
EBENE_1
 62
    39
  6
CONTINUOUS
 10
-0.948972
 20
0.007762
  0
VERTEX
  8
EBENE_1
 62
    39
  6
CONTINUOUS
 10
-0.936803
 20
-0.010721
  0
VERTEX
  8
EBENE_1
 62
    39
  6
CONTINUOUS
 10
-0.923448
 20
-0.029079
  0
VERTEX
  8
EBENE_1
 62
    39
  6
CONTINUOUS
 10
-0.908886
 20
-0.047208
  0
VERTEX
  8
EBENE_1
 62
    39
  6
CONTINUOUS
 10
-0.893100
 20
-0.065002
  0
VERTEX
  8
EBENE_1
 62
    39
  6
CONTINUOUS
 10
-0.876073
 20
-0.082355
  0
VERTEX
  8
EBENE_1
 62
    39
  6
CONTINUOUS
 10
-0.857785
 20
-0.099162
  0
VERTEX
  8
EBENE_1
 62
    39
  6
CONTINUOUS
 10
-0.838220
 20
-0.115316
  0
VERTEX
  8
EBENE_1
 62
    39
  6
CONTINUOUS
 10
-0.817358
 20
-0.130713
  0
VERTEX
  8
EBENE_1
 62
    39
  6
CONTINUOUS
 10
-0.817358
 20
-0.130713
  0
VERTEX
  8
EBENE_1
 62
    39
  6
CONTINUOUS
 10
-0.391547
 20
-0.122602
  0
VERTEX
  8
EBENE_1
 62
    39
  6
CONTINUOUS
 10
-0.399661
 20
0.494484
  0
VERTEX
  8
EBENE_1
 62
    39
  6
CONTINUOUS
 10
-1.012689
 20
0.486374
  0
SEQEND
  8
0
  0
POLYLINE
  8
EBENE_1
 62
    39
  6
CONTINUOUS
 66
     1
 40
0.010000
 41
0.010000
  0
VERTEX
  8
EBENE_1
 62
    39
  6
CONTINUOUS
 10
-0.445618
 20
0.280902
  0
VERTEX
  8
EBENE_1
 62
    39
  6
CONTINUOUS
 10
-0.443192
 20
0.280552
  0
VERTEX
  8
EBENE_1
 62
    39
  6
CONTINUOUS
 10
-0.441515
 20
0.278549
  0
VERTEX
  8
EBENE_1
 62
    39
  6
CONTINUOUS
 10
-0.440890
 20
0.275496
  0
SEQEND
  8
0
  0
POLYLINE
  8
EBENE_1
 62
    39
  6
CONTINUOUS
 66
     1
 40
0.010000
 41
0.010000
  0
VERTEX
  8
EBENE_1
 62
    39
  6
CONTINUOUS
 10
-0.440890
 20
0.275496
  0
VERTEX
  8
EBENE_1
 62
    39
  6
CONTINUOUS
 10
-0.441515
 20
0.272416
  0
VERTEX
  8
EBENE_1
 62
    39
  6
CONTINUOUS
 10
-0.443192
 20
0.270239
  0
VERTEX
  8
EBENE_1
 62
    39
  6
CONTINUOUS
 10
-0.445618
 20
0.269413
  0
SEQEND
  8
0
  0
POLYLINE
  8
EBENE_1
 62
    39
  6
CONTINUOUS
 66
     1
 40
0.010000
 41
0.010000
  0
VERTEX
  8
EBENE_1
 62
    39
  6
CONTINUOUS
 10
-0.445618
 20
0.269413
  0
VERTEX
  8
EBENE_1
 62
    39
  6
CONTINUOUS
 10
-0.447573
 20
0.270239
  0
VERTEX
  8
EBENE_1
 62
    39
  6
CONTINUOUS
 10
-0.449076
 20
0.272416
  0
VERTEX
  8
EBENE_1
 62
    39
  6
CONTINUOUS
 10
-0.449677
 20
0.275496
  0
SEQEND
  8
0
  0
POLYLINE
  8
EBENE_1
 62
    39
  6
CONTINUOUS
 66
     1
 40
0.010000
 41
0.010000
  0
VERTEX
  8
EBENE_1
 62
    39
  6
CONTINUOUS
 10
-0.449677
 20
0.275496
  0
VERTEX
  8
EBENE_1
 62
    39
  6
CONTINUOUS
 10
-0.449076
 20
0.278100
  0
VERTEX
  8
EBENE_1
 62
    39
  6
CONTINUOUS
 10
-0.447573
 20
0.280101
  0
VERTEX
  8
EBENE_1
 62
    39
  6
CONTINUOUS
 10
-0.445618
 20
0.280902
  0
SEQEND
  8
0
  0
POLYLINE
  8
EBENE_1
 62
    39
  6
CONTINUOUS
 66
     1
 40
0.010000
 41
0.010000
  0
VERTEX
  8
EBENE_1
 62
    39
  6
CONTINUOUS
 10
-0.442240
 20
0.176138
  0
VERTEX
  8
EBENE_1
 62
    39
  6
CONTINUOUS
 10
-0.439811
 20
0.175312
  0
VERTEX
  8
EBENE_1
 62
    39
  6
CONTINUOUS
 10
-0.438134
 20
0.173135
  0
VERTEX
  8
EBENE_1
 62
    39
  6
CONTINUOUS
 10
-0.437508
 20
0.170055
  0
SEQEND
  8
0
  0
POLYLINE
  8
EBENE_1
 62
    39
  6
CONTINUOUS
 66
     1
 40
0.010000
 41
0.010000
  0
VERTEX
  8
EBENE_1
 62
    39
  6
CONTINUOUS
 10
-0.437508
 20
0.170055
  0
VERTEX
  8
EBENE_1
 62
    39
  6
CONTINUOUS
 10
-0.438134
 20
0.166977
  0
VERTEX
  8
EBENE_1
 62
    39
  6
CONTINUOUS
 10
-0.439811
 20
0.164799
  0
VERTEX
  8
EBENE_1
 62
    39
  6
CONTINUOUS
 10
-0.442240
 20
0.163972
  0
SEQEND
  8
0
  0
POLYLINE
  8
EBENE_1
 62
    39
  6
CONTINUOUS
 66
     1
 40
0.010000
 41
0.010000
  0
VERTEX
  8
EBENE_1
 62
    39
  6
CONTINUOUS
 10
-0.442240
 20
0.163972
  0
VERTEX
  8
EBENE_1
 62
    39
  6
CONTINUOUS
 10
-0.444193
 20
0.164799
  0
VERTEX
  8
EBENE_1
 62
    39
  6
CONTINUOUS
 10
-0.445695
 20
0.166977
  0
VERTEX
  8
EBENE_1
 62
    39
  6
CONTINUOUS
 10
-0.446295
 20
0.170055
  0
SEQEND
  8
0
  0
POLYLINE
  8
EBENE_1
 62
    39
  6
CONTINUOUS
 66
     1
 40
0.010000
 41
0.010000
  0
VERTEX
  8
EBENE_1
 62
    39
  6
CONTINUOUS
 10
-0.446295
 20
0.170055
  0
VERTEX
  8
EBENE_1
 62
    39
  6
CONTINUOUS
 10
-0.445695
 20
0.173135
  0
VERTEX
  8
EBENE_1
 62
    39
  6
CONTINUOUS
 10
-0.444193
 20
0.175312
  0
VERTEX
  8
EBENE_1
 62
    39
  6
CONTINUOUS
 10
-0.442240
 20
0.176138
  0
SEQEND
  8
0
  0
POLYLINE
  8
EBENE_1
 62
    39
  6
CONTINUOUS
 66
     1
 40
0.010000
 41
0.010000
  0
VERTEX
  8
EBENE_1
 62
    39
  6
CONTINUOUS
 10
-0.645681
 20
0.465421
  0
VERTEX
  8
EBENE_1
 62
    39
  6
CONTINUOUS
 10
-0.643731
 20
0.464770
  0
VERTEX
  8
EBENE_1
 62
    39
  6
CONTINUOUS
 10
-0.642231
 20
0.462917
  0
VERTEX
  8
EBENE_1
 62
    39
  6
CONTINUOUS
 10
-0.641630
 20
0.460012
  0
SEQEND
  8
0
  0
POLYLINE
  8
EBENE_1
 62
    39
  6
CONTINUOUS
 66
     1
 40
0.010000
 41
0.010000
  0
VERTEX
  8
EBENE_1
 62
    39
  6
CONTINUOUS
 10
-0.641630
 20
0.460012
  0
VERTEX
  8
EBENE_1
 62
    39
  6
CONTINUOUS
 10
-0.642231
 20
0.456934
  0
VERTEX
  8
EBENE_1
 62
    39
  6
CONTINUOUS
 10
-0.643731
 20
0.454755
  0
VERTEX
  8
EBENE_1
 62
    39
  6
CONTINUOUS
 10
-0.645681
 20
0.453929
  0
SEQEND
  8
0
  0
POLYLINE
  8
EBENE_1
 62
    39
  6
CONTINUOUS
 66
     1
 40
0.010000
 41
0.010000
  0
VERTEX
  8
EBENE_1
 62
    39
  6
CONTINUOUS
 10
-0.645681
 20
0.453929
  0
VERTEX
  8
EBENE_1
 62
    39
  6
CONTINUOUS
 10
-0.648110
 20
0.454755
  0
VERTEX
  8
EBENE_1
 62
    39
  6
CONTINUOUS
 10
-0.649788
 20
0.456934
  0
VERTEX
  8
EBENE_1
 62
    39
  6
CONTINUOUS
 10
-0.650413
 20
0.460012
  0
SEQEND
  8
0
  0
POLYLINE
  8
EBENE_1
 62
    39
  6
CONTINUOUS
 66
     1
 40
0.010000
 41
0.010000
  0
VERTEX
  8
EBENE_1
 62
    39
  6
CONTINUOUS
 10
-0.650413
 20
0.460012
  0
VERTEX
  8
EBENE_1
 62
    39
  6
CONTINUOUS
 10
-0.649788
 20
0.462616
  0
VERTEX
  8
EBENE_1
 62
    39
  6
CONTINUOUS
 10
-0.648110
 20
0.464620
  0
VERTEX
  8
EBENE_1
 62
    39
  6
CONTINUOUS
 10
-0.645681
 20
0.465421
  0
SEQEND
  8
0
  0
POLYLINE
  8
EBENE_1
 62
    39
  6
CONTINUOUS
 66
     1
 40
0.010000
 41
0.010000
  0
VERTEX
  8
EBENE_1
 62
    39
  6
CONTINUOUS
 10
-0.767343
 20
0.462039
  0
VERTEX
  8
EBENE_1
 62
    39
  6
CONTINUOUS
 10
-0.765365
 20
0.461213
  0
VERTEX
  8
EBENE_1
 62
    39
  6
CONTINUOUS
 10
-0.763688
 20
0.459035
  0
VERTEX
  8
EBENE_1
 62
    39
  6
CONTINUOUS
 10
-0.762610
 20
0.455957
  0
SEQEND
  8
0
  0
POLYLINE
  8
EBENE_1
 62
    39
  6
CONTINUOUS
 66
     1
 40
0.010000
 41
0.010000
  0
VERTEX
  8
EBENE_1
 62
    39
  6
CONTINUOUS
 10
-0.762610
 20
0.455957
  0
VERTEX
  8
EBENE_1
 62
    39
  6
CONTINUOUS
 10
-0.763236
 20
0.453353
  0
VERTEX
  8
EBENE_1
 62
    39
  6
CONTINUOUS
 10
-0.764914
 20
0.451352
  0
VERTEX
  8
EBENE_1
 62
    39
  6
CONTINUOUS
 10
-0.767343
 20
0.450551
  0
SEQEND
  8
0
  0
POLYLINE
  8
EBENE_1
 62
    39
  6
CONTINUOUS
 66
     1
 40
0.010000
 41
0.010000
  0
VERTEX
  8
EBENE_1
 62
    39
  6
CONTINUOUS
 10
-0.767343
 20
0.450551
  0
VERTEX
  8
EBENE_1
 62
    39
  6
CONTINUOUS
 10
-0.769320
 20
0.451202
  0
VERTEX
  8
EBENE_1
 62
    39
  6
CONTINUOUS
 10
-0.770998
 20
0.453054
  0
VERTEX
  8
EBENE_1
 62
    39
  6
CONTINUOUS
 10
-0.772075
 20
0.455957
  0
SEQEND
  8
0
  0
POLYLINE
  8
EBENE_1
 62
    39
  6
CONTINUOUS
 66
     1
 40
0.010000
 41
0.010000
  0
VERTEX
  8
EBENE_1
 62
    39
  6
CONTINUOUS
 10
-0.772075
 20
0.455957
  0
VERTEX
  8
EBENE_1
 62
    39
  6
CONTINUOUS
 10
-0.771449
 20
0.459035
  0
VERTEX
  8
EBENE_1
 62
    39
  6
CONTINUOUS
 10
-0.769772
 20
0.461213
  0
VERTEX
  8
EBENE_1
 62
    39
  6
CONTINUOUS
 10
-0.767343
 20
0.462039
  0
SEQEND
  8
0
  0
POLYLINE
  8
EBENE_1
 62
    39
  6
CONTINUOUS
 66
     1
 40
0.010000
 41
0.010000
 70
     1
  0
VERTEX
  8
EBENE_1
 62
    39
  6
CONTINUOUS
 10
-0.584854
 20
0.172760
  0
VERTEX
  8
EBENE_1
 62
    39
  6
CONTINUOUS
 10
-0.583554
 20
0.159497
  0
VERTEX
  8
EBENE_1
 62
    39
  6
CONTINUOUS
 10
-0.581349
 20
0.145381
  0
VERTEX
  8
EBENE_1
 62
    39
  6
CONTINUOUS
 10
-0.578224
 20
0.130504
  0
VERTEX
  8
EBENE_1
 62
    39
  6
CONTINUOUS
 10
-0.574162
 20
0.114957
  0
VERTEX
  8
EBENE_1
 62
    39
  6
CONTINUOUS
 10
-0.569146
 20
0.098830
  0
VERTEX
  8
EBENE_1
 62
    39
  6
CONTINUOUS
 10
-0.563160
 20
0.082215
  0
VERTEX
  8
EBENE_1
 62
    39
  6
CONTINUOUS
 10
-0.556187
 20
0.065202
  0
VERTEX
  8
EBENE_1
 62
    39
  6
CONTINUOUS
 10
-0.548211
 20
0.047883
  0
VERTEX
  8
EBENE_1
 62
    39
  6
CONTINUOUS
 10
-0.539215
 20
0.030349
  0
VERTEX
  8
EBENE_1
 62
    39
  6
CONTINUOUS
 10
-0.529182
 20
0.012691
  0
VERTEX
  8
EBENE_1
 62
    39
  6
CONTINUOUS
 10
-0.518097
 20
-0.005000
  0
VERTEX
  8
EBENE_1
 62
    39
  6
CONTINUOUS
 10
-0.505942
 20
-0.022634
  0
VERTEX
  8
EBENE_1
 62
    39
  6
CONTINUOUS
 10
-0.492701
 20
-0.040118
  0
VERTEX
  8
EBENE_1
 62
    39
  6
CONTINUOUS
 10
-0.478357
 20
-0.057362
  0
VERTEX
  8
EBENE_1
 62
    39
  6
CONTINUOUS
 10
-0.462894
 20
-0.074275
  0
VERTEX
  8
EBENE_1
 62
    39
  6
CONTINUOUS
 10
-0.446296
 20
-0.090766
  0
VERTEX
  8
EBENE_1
 62
    39
  6
CONTINUOUS
 10
-0.428545
 20
-0.106744
  0
VERTEX
  8
EBENE_1
 62
    39
  6
CONTINUOUS
 10
-0.409625
 20
-0.122117
  0
VERTEX
  8
EBENE_1
 62
    39
  6
CONTINUOUS
 10
-0.389520
 20
-0.136795
  0
VERTEX
  8
EBENE_1
 62
    39
  6
CONTINUOUS
 10
-0.389520
 20
-0.136795
  0
VERTEX
  8
EBENE_1
 62
    39
  6
CONTINUOUS
 10
0.043043
 20
-0.128685
  0
VERTEX
  8
EBENE_1
 62
    39
  6
CONTINUOUS
 10
0.034933
 20
0.494484
  0
VERTEX
  8
EBENE_1
 62
    39
  6
CONTINUOUS
 10
-0.588232
 20
0.485697
  0
SEQEND
  8
0
  0
POLYLINE
  8
EBENE_1
 62
    39
  6
CONTINUOUS
 66
     1
 40
0.010000
 41
0.010000
 70
     1
  0
VERTEX
  8
EBENE_1
 62
    39
  6
CONTINUOUS
 10
-0.578094
 20
0.176138
  0
VERTEX
  8
EBENE_1
 62
    39
  6
CONTINUOUS
 10
-0.576708
 20
0.162231
  0
VERTEX
  8
EBENE_1
 62
    39
  6
CONTINUOUS
 10
-0.574337
 20
0.147391
  0
VERTEX
  8
EBENE_1
 62
    39
  6
CONTINUOUS
 10
-0.570962
 20
0.131724
  0
VERTEX
  8
EBENE_1
 62
    39
  6
CONTINUOUS
 10
-0.566563
 20
0.115335
  0
VERTEX
  8
EBENE_1
 62
    39
  6
CONTINUOUS
 10
-0.561120
 20
0.098330
  0
VERTEX
  8
EBENE_1
 62
    39
  6
CONTINUOUS
 10
-0.554612
 20
0.080814
  0
VERTEX
  8
EBENE_1
 62
    39
  6
CONTINUOUS
 10
-0.547020
 20
0.062894
  0
VERTEX
  8
EBENE_1
 62
    39
  6
CONTINUOUS
 10
-0.538322
 20
0.044674
  0
VERTEX
  8
EBENE_1
 62
    39
  6
CONTINUOUS
 10
-0.528500
 20
0.026262
  0
VERTEX
  8
EBENE_1
 62
    39
  6
CONTINUOUS
 10
-0.517532
 20
0.007762
  0
VERTEX
  8
EBENE_1
 62
    39
  6
CONTINUOUS
 10
-0.505399
 20
-0.010721
  0
VERTEX
  8
EBENE_1
 62
    39
  6
CONTINUOUS
 10
-0.492080
 20
-0.029079
  0
VERTEX
  8
EBENE_1
 62
    39
  6
CONTINUOUS
 10
-0.477556
 20
-0.047208
  0
VERTEX
  8
EBENE_1
 62
    39
  6
CONTINUOUS
 10
-0.461806
 20
-0.065002
  0
VERTEX
  8
EBENE_1
 62
    39
  6
CONTINUOUS
 10
-0.444809
 20
-0.082355
  0
VERTEX
  8
EBENE_1
 62
    39
  6
CONTINUOUS
 10
-0.426547
 20
-0.099162
  0
VERTEX
  8
EBENE_1
 62
    39
  6
CONTINUOUS
 10
-0.406997
 20
-0.115316
  0
VERTEX
  8
EBENE_1
 62
    39
  6
CONTINUOUS
 10
-0.386142
 20
-0.130713
  0
VERTEX
  8
EBENE_1
 62
    39
  6
CONTINUOUS
 10
-0.386142
 20
-0.130713
  0
VERTEX
  8
EBENE_1
 62
    39
  6
CONTINUOUS
 10
0.038988
 20
-0.122602
  0
VERTEX
  8
EBENE_1
 62
    39
  6
CONTINUOUS
 10
0.030878
 20
0.494484
  0
VERTEX
  8
EBENE_1
 62
    39
  6
CONTINUOUS
 10
-0.581472
 20
0.486374
  0
SEQEND
  8
0
  0
POLYLINE
  8
EBENE_1
 62
    39
  6
CONTINUOUS
 66
     1
 40
0.010000
 41
0.010000
  0
VERTEX
  8
EBENE_1
 62
    39
  6
CONTINUOUS
 10
-0.015083
 20
0.280902
  0
VERTEX
  8
EBENE_1
 62
    39
  6
CONTINUOUS
 10
-0.012654
 20
0.280552
  0
VERTEX
  8
EBENE_1
 62
    39
  6
CONTINUOUS
 10
-0.010976
 20
0.278549
  0
VERTEX
  8
EBENE_1
 62
    39
  6
CONTINUOUS
 10
-0.010350
 20
0.275496
  0
SEQEND
  8
0
  0
POLYLINE
  8
EBENE_1
 62
    39
  6
CONTINUOUS
 66
     1
 40
0.010000
 41
0.010000
  0
VERTEX
  8
EBENE_1
 62
    39
  6
CONTINUOUS
 10
-0.010350
 20
0.275496
  0
VERTEX
  8
EBENE_1
 62
    39
  6
CONTINUOUS
 10
-0.010951
 20
0.272416
  0
VERTEX
  8
EBENE_1
 62
    39
  6
CONTINUOUS
 10
-0.012453
 20
0.270239
  0
VERTEX
  8
EBENE_1
 62
    39
  6
CONTINUOUS
 10
-0.014406
 20
0.269413
  0
SEQEND
  8
0
  0
POLYLINE
  8
EBENE_1
 62
    39
  6
CONTINUOUS
 66
     1
 40
0.010000
 41
0.010000
  0
VERTEX
  8
EBENE_1
 62
    39
  6
CONTINUOUS
 10
-0.014406
 20
0.269413
  0
VERTEX
  8
EBENE_1
 62
    39
  6
CONTINUOUS
 10
-0.016834
 20
0.270239
  0
VERTEX
  8
EBENE_1
 62
    39
  6
CONTINUOUS
 10
-0.018512
 20
0.272416
  0
VERTEX
  8
EBENE_1
 62
    39
  6
CONTINUOUS
 10
-0.019138
 20
0.275496
  0
SEQEND
  8
0
  0
POLYLINE
  8
EBENE_1
 62
    39
  6
CONTINUOUS
 66
     1
 40
0.010000
 41
0.010000
  0
VERTEX
  8
EBENE_1
 62
    39
  6
CONTINUOUS
 10
-0.019138
 20
0.275496
  0
VERTEX
  8
EBENE_1
 62
    39
  6
CONTINUOUS
 10
-0.018537
 20
0.278100
  0
VERTEX
  8
EBENE_1
 62
    39
  6
CONTINUOUS
 10
-0.017035
 20
0.280101
  0
VERTEX
  8
EBENE_1
 62
    39
  6
CONTINUOUS
 10
-0.015083
 20
0.280902
  0
SEQEND
  8
0
  0
POLYLINE
  8
EBENE_1
 62
    39
  6
CONTINUOUS
 66
     1
 40
0.010000
 41
0.010000
  0
VERTEX
  8
EBENE_1
 62
    39
  6
CONTINUOUS
 10
-0.011705
 20
0.176138
  0
VERTEX
  8
EBENE_1
 62
    39
  6
CONTINUOUS
 10
-0.009276
 20
0.175312
  0
VERTEX
  8
EBENE_1
 62
    39
  6
CONTINUOUS
 10
-0.007598
 20
0.173135
  0
VERTEX
  8
EBENE_1
 62
    39
  6
CONTINUOUS
 10
-0.006972
 20
0.170055
  0
SEQEND
  8
0
  0
POLYLINE
  8
EBENE_1
 62
    39
  6
CONTINUOUS
 66
     1
 40
0.010000
 41
0.010000
  0
VERTEX
  8
EBENE_1
 62
    39
  6
CONTINUOUS
 10
-0.006972
 20
0.170055
  0
VERTEX
  8
EBENE_1
 62
    39
  6
CONTINUOUS
 10
-0.007573
 20
0.166977
  0
VERTEX
  8
EBENE_1
 62
    39
  6
CONTINUOUS
 10
-0.009075
 20
0.164799
  0
VERTEX
  8
EBENE_1
 62
    39
  6
CONTINUOUS
 10
-0.011028
 20
0.163972
  0
SEQEND
  8
0
  0
POLYLINE
  8
EBENE_1
 62
    39
  6
CONTINUOUS
 66
     1
 40
0.010000
 41
0.010000
  0
VERTEX
  8
EBENE_1
 62
    39
  6
CONTINUOUS
 10
-0.011028
 20
0.163972
  0
VERTEX
  8
EBENE_1
 62
    39
  6
CONTINUOUS
 10
-0.013457
 20
0.164799
  0
VERTEX
  8
EBENE_1
 62
    39
  6
CONTINUOUS
 10
-0.015134
 20
0.166977
  0
VERTEX
  8
EBENE_1
 62
    39
  6
CONTINUOUS
 10
-0.015760
 20
0.170055
  0
SEQEND
  8
0
  0
POLYLINE
  8
EBENE_1
 62
    39
  6
CONTINUOUS
 66
     1
 40
0.010000
 41
0.010000
  0
VERTEX
  8
EBENE_1
 62
    39
  6
CONTINUOUS
 10
-0.015760
 20
0.170055
  0
VERTEX
  8
EBENE_1
 62
    39
  6
CONTINUOUS
 10
-0.015159
 20
0.173135
  0
VERTEX
  8
EBENE_1
 62
    39
  6
CONTINUOUS
 10
-0.013657
 20
0.175312
  0
VERTEX
  8
EBENE_1
 62
    39
  6
CONTINUOUS
 10
-0.011705
 20
0.176138
  0
SEQEND
  8
0
  0
POLYLINE
  8
EBENE_1
 62
    39
  6
CONTINUOUS
 66
     1
 40
0.010000
 41
0.010000
  0
VERTEX
  8
EBENE_1
 62
    39
  6
CONTINUOUS
 10
-0.214469
 20
0.465421
  0
VERTEX
  8
EBENE_1
 62
    39
  6
CONTINUOUS
 10
-0.212494
 20
0.464770
  0
VERTEX
  8
EBENE_1
 62
    39
  6
CONTINUOUS
 10
-0.210817
 20
0.462917
  0
VERTEX
  8
EBENE_1
 62
    39
  6
CONTINUOUS
 10
-0.209740
 20
0.460012
  0
SEQEND
  8
0
  0
POLYLINE
  8
EBENE_1
 62
    39
  6
CONTINUOUS
 66
     1
 40
0.010000
 41
0.010000
  0
VERTEX
  8
EBENE_1
 62
    39
  6
CONTINUOUS
 10
-0.209740
 20
0.460012
  0
VERTEX
  8
EBENE_1
 62
    39
  6
CONTINUOUS
 10
-0.210366
 20
0.456934
  0
VERTEX
  8
EBENE_1
 62
    39
  6
CONTINUOUS
 10
-0.212042
 20
0.454755
  0
VERTEX
  8
EBENE_1
 62
    39
  6
CONTINUOUS
 10
-0.214469
 20
0.453929
  0
SEQEND
  8
0
  0
POLYLINE
  8
EBENE_1
 62
    39
  6
CONTINUOUS
 66
     1
 40
0.010000
 41
0.010000
  0
VERTEX
  8
EBENE_1
 62
    39
  6
CONTINUOUS
 10
-0.214469
 20
0.453929
  0
VERTEX
  8
EBENE_1
 62
    39
  6
CONTINUOUS
 10
-0.216446
 20
0.454755
  0
VERTEX
  8
EBENE_1
 62
    39
  6
CONTINUOUS
 10
-0.218124
 20
0.456934
  0
VERTEX
  8
EBENE_1
 62
    39
  6
CONTINUOUS
 10
-0.219201
 20
0.460012
  0
SEQEND
  8
0
  0
POLYLINE
  8
EBENE_1
 62
    39
  6
CONTINUOUS
 66
     1
 40
0.010000
 41
0.010000
  0
VERTEX
  8
EBENE_1
 62
    39
  6
CONTINUOUS
 10
-0.219201
 20
0.460012
  0
VERTEX
  8
EBENE_1
 62
    39
  6
CONTINUOUS
 10
-0.218575
 20
0.462616
  0
VERTEX
  8
EBENE_1
 62
    39
  6
CONTINUOUS
 10
-0.216897
 20
0.464620
  0
VERTEX
  8
EBENE_1
 62
    39
  6
CONTINUOUS
 10
-0.214469
 20
0.465421
  0
SEQEND
  8
0
  0
POLYLINE
  8
EBENE_1
 62
    39
  6
CONTINUOUS
 66
     1
 40
0.010000
 41
0.010000
  0
VERTEX
  8
EBENE_1
 62
    39
  6
CONTINUOUS
 10
-0.336126
 20
0.462039
  0
VERTEX
  8
EBENE_1
 62
    39
  6
CONTINUOUS
 10
-0.333697
 20
0.461213
  0
VERTEX
  8
EBENE_1
 62
    39
  6
CONTINUOUS
 10
-0.332020
 20
0.459035
  0
VERTEX
  8
EBENE_1
 62
    39
  6
CONTINUOUS
 10
-0.331394
 20
0.455957
  0
SEQEND
  8
0
  0
POLYLINE
  8
EBENE_1
 62
    39
  6
CONTINUOUS
 66
     1
 40
0.010000
 41
0.010000
  0
VERTEX
  8
EBENE_1
 62
    39
  6
CONTINUOUS
 10
-0.331394
 20
0.455957
  0
VERTEX
  8
EBENE_1
 62
    39
  6
CONTINUOUS
 10
-0.332020
 20
0.453353
  0
VERTEX
  8
EBENE_1
 62
    39
  6
CONTINUOUS
 10
-0.333697
 20
0.451352
  0
VERTEX
  8
EBENE_1
 62
    39
  6
CONTINUOUS
 10
-0.336126
 20
0.450551
  0
SEQEND
  8
0
  0
POLYLINE
  8
EBENE_1
 62
    39
  6
CONTINUOUS
 66
     1
 40
0.010000
 41
0.010000
  0
VERTEX
  8
EBENE_1
 62
    39
  6
CONTINUOUS
 10
-0.336126
 20
0.450551
  0
VERTEX
  8
EBENE_1
 62
    39
  6
CONTINUOUS
 10
-0.338078
 20
0.451202
  0
VERTEX
  8
EBENE_1
 62
    39
  6
CONTINUOUS
 10
-0.339580
 20
0.453054
  0
VERTEX
  8
EBENE_1
 62
    39
  6
CONTINUOUS
 10
-0.340181
 20
0.455957
  0
SEQEND
  8
0
  0
POLYLINE
  8
EBENE_1
 62
    39
  6
CONTINUOUS
 66
     1
 40
0.010000
 41
0.010000
  0
VERTEX
  8
EBENE_1
 62
    39
  6
CONTINUOUS
 10
-0.340181
 20
0.455957
  0
VERTEX
  8
EBENE_1
 62
    39
  6
CONTINUOUS
 10
-0.339580
 20
0.459035
  0
VERTEX
  8
EBENE_1
 62
    39
  6
CONTINUOUS
 10
-0.338078
 20
0.461213
  0
VERTEX
  8
EBENE_1
 62
    39
  6
CONTINUOUS
 10
-0.336126
 20
0.462039
  0
SEQEND
  8
0
  0
POLYLINE
  8
EBENE_1
 62
    39
  6
CONTINUOUS
 66
     1
 40
0.010000
 41
0.010000
 70
     1
  0
VERTEX
  8
EBENE_1
 62
    39
  6
CONTINUOUS
 10
-0.153642
 20
0.172760
  0
VERTEX
  8
EBENE_1
 62
    39
  6
CONTINUOUS
 10
-0.152341
 20
0.159497
  0
VERTEX
  8
EBENE_1
 62
    39
  6
CONTINUOUS
 10
-0.150137
 20
0.145381
  0
VERTEX
  8
EBENE_1
 62
    39
  6
CONTINUOUS
 10
-0.147014
 20
0.130504
  0
VERTEX
  8
EBENE_1
 62
    39
  6
CONTINUOUS
 10
-0.142956
 20
0.114957
  0
VERTEX
  8
EBENE_1
 62
    39
  6
CONTINUOUS
 10
-0.137946
 20
0.098830
  0
VERTEX
  8
EBENE_1
 62
    39
  6
CONTINUOUS
 10
-0.131969
 20
0.082215
  0
VERTEX
  8
EBENE_1
 62
    39
  6
CONTINUOUS
 10
-0.125008
 20
0.065202
  0
VERTEX
  8
EBENE_1
 62
    39
  6
CONTINUOUS
 10
-0.117049
 20
0.047883
  0
VERTEX
  8
EBENE_1
 62
    39
  6
CONTINUOUS
 10
-0.108074
 20
0.030349
  0
VERTEX
  8
EBENE_1
 62
    39
  6
CONTINUOUS
 10
-0.098069
 20
0.012691
  0
VERTEX
  8
EBENE_1
 62
    39
  6
CONTINUOUS
 10
-0.087016
 20
-0.005000
  0
VERTEX
  8
EBENE_1
 62
    39
  6
CONTINUOUS
 10
-0.074900
 20
-0.022634
  0
VERTEX
  8
EBENE_1
 62
    39
  6
CONTINUOUS
 10
-0.061705
 20
-0.040118
  0
VERTEX
  8
EBENE_1
 62
    39
  6
CONTINUOUS
 10
-0.047416
 20
-0.057362
  0
VERTEX
  8
EBENE_1
 62
    39
  6
CONTINUOUS
 10
-0.032015
 20
-0.074275
  0
VERTEX
  8
EBENE_1
 62
    39
  6
CONTINUOUS
 10
-0.015488
 20
-0.090766
  0
VERTEX
  8
EBENE_1
 62
    39
  6
CONTINUOUS
 10
0.002183
 20
-0.106744
  0
VERTEX
  8
EBENE_1
 62
    39
  6
CONTINUOUS
 10
0.021012
 20
-0.122117
  0
VERTEX
  8
EBENE_1
 62
    39
  6
CONTINUOUS
 10
0.041016
 20
-0.136795
  0
VERTEX
  8
EBENE_1
 62
    39
  6
CONTINUOUS
 10
0.041016
 20
-0.136795
  0
VERTEX
  8
EBENE_1
 62
    39
  6
CONTINUOUS
 10
0.474260
 20
-0.128685
  0
VERTEX
  8
EBENE_1
 62
    39
  6
CONTINUOUS
 10
0.466150
 20
0.494484
  0
VERTEX
  8
EBENE_1
 62
    39
  6
CONTINUOUS
 10
-0.157020
 20
0.485697
  0
SEQEND
  8
0
  0
POLYLINE
  8
EBENE_1
 62
    39
  6
CONTINUOUS
 66
     1
 40
0.010000
 41
0.010000
 70
     1
  0
VERTEX
  8
EBENE_1
 62
    39
  6
CONTINUOUS
 10
-0.146205
 20
0.176138
  0
VERTEX
  8
EBENE_1
 62
    39
  6
CONTINUOUS
 10
-0.144919
 20
0.162231
  0
VERTEX
  8
EBENE_1
 62
    39
  6
CONTINUOUS
 10
-0.142628
 20
0.147391
  0
VERTEX
  8
EBENE_1
 62
    39
  6
CONTINUOUS
 10
-0.139314
 20
0.131724
  0
VERTEX
  8
EBENE_1
 62
    39
  6
CONTINUOUS
 10
-0.134962
 20
0.115335
  0
VERTEX
  8
EBENE_1
 62
    39
  6
CONTINUOUS
 10
-0.129554
 20
0.098330
  0
VERTEX
  8
EBENE_1
 62
    39
  6
CONTINUOUS
 10
-0.123074
 20
0.080814
  0
VERTEX
  8
EBENE_1
 62
    39
  6
CONTINUOUS
 10
-0.115505
 20
0.062894
  0
VERTEX
  8
EBENE_1
 62
    39
  6
CONTINUOUS
 10
-0.106830
 20
0.044674
  0
VERTEX
  8
EBENE_1
 62
    39
  6
CONTINUOUS
 10
-0.097033
 20
0.026262
  0
VERTEX
  8
EBENE_1
 62
    39
  6
CONTINUOUS
 10
-0.086098
 20
0.007762
  0
VERTEX
  8
EBENE_1
 62
    39
  6
CONTINUOUS
 10
-0.074006
 20
-0.010721
  0
VERTEX
  8
EBENE_1
 62
    39
  6
CONTINUOUS
 10
-0.060742
 20
-0.029079
  0
VERTEX
  8
EBENE_1
 62
    39
  6
CONTINUOUS
 10
-0.046290
 20
-0.047208
  0
VERTEX
  8
EBENE_1
 62
    39
  6
CONTINUOUS
 10
-0.030631
 20
-0.065002
  0
VERTEX
  8
EBENE_1
 62
    39
  6
CONTINUOUS
 10
-0.013750
 20
-0.082355
  0
VERTEX
  8
EBENE_1
 62
    39
  6
CONTINUOUS
 10
0.004370
 20
-0.099162
  0
VERTEX
  8
EBENE_1
 62
    39
  6
CONTINUOUS
 10
0.023745
 20
-0.115316
  0
VERTEX
  8
EBENE_1
 62
    39
  6
CONTINUOUS
 10
0.044394
 20
-0.130713
  0
VERTEX
  8
EBENE_1
 62
    39
  6
CONTINUOUS
 10
0.044394
 20
-0.130713
  0
VERTEX
  8
EBENE_1
 62
    39
  6
CONTINUOUS
 10
0.470882
 20
-0.122602
  0
VERTEX
  8
EBENE_1
 62
    39
  6
CONTINUOUS
 10
0.462094
 20
0.494484
  0
VERTEX
  8
EBENE_1
 62
    39
  6
CONTINUOUS
 10
-0.150260
 20
0.486374
  0
SEQEND
  8
0
  0
POLYLINE
  8
EBENE_1
 62
    39
  6
CONTINUOUS
 66
     1
 40
0.010000
 41
0.010000
  0
VERTEX
  8
EBENE_1
 62
    39
  6
CONTINUOUS
 10
0.416811
 20
0.280902
  0
VERTEX
  8
EBENE_1
 62
    39
  6
CONTINUOUS
 10
0.418762
 20
0.280552
  0
VERTEX
  8
EBENE_1
 62
    39
  6
CONTINUOUS
 10
0.420262
 20
0.278549
  0
VERTEX
  8
EBENE_1
 62
    39
  6
CONTINUOUS
 10
0.420862
 20
0.275496
  0
SEQEND
  8
0
  0
POLYLINE
  8
EBENE_1
 62
    39
  6
CONTINUOUS
 66
     1
 40
0.010000
 41
0.010000
  0
VERTEX
  8
EBENE_1
 62
    39
  6
CONTINUOUS
 10
0.420862
 20
0.275496
  0
VERTEX
  8
EBENE_1
 62
    39
  6
CONTINUOUS
 10
0.420412
 20
0.272416
  0
VERTEX
  8
EBENE_1
 62
    39
  6
CONTINUOUS
 10
0.419062
 20
0.270239
  0
VERTEX
  8
EBENE_1
 62
    39
  6
CONTINUOUS
 10
0.416811
 20
0.269413
  0
SEQEND
  8
0
  0
POLYLINE
  8
EBENE_1
 62
    39
  6
CONTINUOUS
 66
     1
 40
0.010000
 41
0.010000
  0
VERTEX
  8
EBENE_1
 62
    39
  6
CONTINUOUS
 10
0.416811
 20
0.269413
  0
VERTEX
  8
EBENE_1
 62
    39
  6
CONTINUOUS
 10
0.414382
 20
0.270239
  0
VERTEX
  8
EBENE_1
 62
    39
  6
CONTINUOUS
 10
0.412705
 20
0.272416
  0
VERTEX
  8
EBENE_1
 62
    39
  6
CONTINUOUS
 10
0.412079
 20
0.275496
  0
SEQEND
  8
0
  0
POLYLINE
  8
EBENE_1
 62
    39
  6
CONTINUOUS
 66
     1
 40
0.010000
 41
0.010000
  0
VERTEX
  8
EBENE_1
 62
    39
  6
CONTINUOUS
 10
0.412079
 20
0.275496
  0
VERTEX
  8
EBENE_1
 62
    39
  6
CONTINUOUS
 10
0.412705
 20
0.278100
  0
VERTEX
  8
EBENE_1
 62
    39
  6
CONTINUOUS
 10
0.414382
 20
0.280101
  0
VERTEX
  8
EBENE_1
 62
    39
  6
CONTINUOUS
 10
0.416811
 20
0.280902
  0
SEQEND
  8
0
  0
POLYLINE
  8
EBENE_1
 62
    39
  6
CONTINUOUS
 66
     1
 40
0.010000
 41
0.010000
  0
VERTEX
  8
EBENE_1
 62
    39
  6
CONTINUOUS
 10
0.420189
 20
0.176138
  0
VERTEX
  8
EBENE_1
 62
    39
  6
CONTINUOUS
 10
0.422141
 20
0.175312
  0
VERTEX
  8
EBENE_1
 62
    39
  6
CONTINUOUS
 10
0.423643
 20
0.173135
  0
VERTEX
  8
EBENE_1
 62
    39
  6
CONTINUOUS
 10
0.424244
 20
0.170055
  0
SEQEND
  8
0
  0
POLYLINE
  8
EBENE_1
 62
    39
  6
CONTINUOUS
 66
     1
 40
0.010000
 41
0.010000
  0
VERTEX
  8
EBENE_1
 62
    39
  6
CONTINUOUS
 10
0.424244
 20
0.170055
  0
VERTEX
  8
EBENE_1
 62
    39
  6
CONTINUOUS
 10
0.423793
 20
0.166977
  0
VERTEX
  8
EBENE_1
 62
    39
  6
CONTINUOUS
 10
0.422441
 20
0.164799
  0
VERTEX
  8
EBENE_1
 62
    39
  6
CONTINUOUS
 10
0.420189
 20
0.163972
  0
SEQEND
  8
0
  0
POLYLINE
  8
EBENE_1
 62
    39
  6
CONTINUOUS
 66
     1
 40
0.010000
 41
0.010000
  0
VERTEX
  8
EBENE_1
 62
    39
  6
CONTINUOUS
 10
0.420189
 20
0.163972
  0
VERTEX
  8
EBENE_1
 62
    39
  6
CONTINUOUS
 10
0.417760
 20
0.164799
  0
VERTEX
  8
EBENE_1
 62
    39
  6
CONTINUOUS
 10
0.416083
 20
0.166977
  0
VERTEX
  8
EBENE_1
 62
    39
  6
CONTINUOUS
 10
0.415457
 20
0.170055
  0
SEQEND
  8
0
  0
POLYLINE
  8
EBENE_1
 62
    39
  6
CONTINUOUS
 66
     1
 40
0.010000
 41
0.010000
  0
VERTEX
  8
EBENE_1
 62
    39
  6
CONTINUOUS
 10
0.415457
 20
0.170055
  0
VERTEX
  8
EBENE_1
 62
    39
  6
CONTINUOUS
 10
0.416083
 20
0.173135
  0
VERTEX
  8
EBENE_1
 62
    39
  6
CONTINUOUS
 10
0.417760
 20
0.175312
  0
VERTEX
  8
EBENE_1
 62
    39
  6
CONTINUOUS
 10
0.420189
 20
0.176138
  0
SEQEND
  8
0
  0
POLYLINE
  8
EBENE_1
 62
    39
  6
CONTINUOUS
 66
     1
 40
0.010000
 41
0.010000
  0
VERTEX
  8
EBENE_1
 62
    39
  6
CONTINUOUS
 10
0.216071
 20
0.465421
  0
VERTEX
  8
EBENE_1
 62
    39
  6
CONTINUOUS
 10
0.218497
 20
0.464770
  0
VERTEX
  8
EBENE_1
 62
    39
  6
CONTINUOUS
 10
0.220174
 20
0.462917
  0
VERTEX
  8
EBENE_1
 62
    39
  6
CONTINUOUS
 10
0.220799
 20
0.460012
  0
SEQEND
  8
0
  0
POLYLINE
  8
EBENE_1
 62
    39
  6
CONTINUOUS
 66
     1
 40
0.010000
 41
0.010000
  0
VERTEX
  8
EBENE_1
 62
    39
  6
CONTINUOUS
 10
0.220799
 20
0.460012
  0
VERTEX
  8
EBENE_1
 62
    39
  6
CONTINUOUS
 10
0.220174
 20
0.456934
  0
VERTEX
  8
EBENE_1
 62
    39
  6
CONTINUOUS
 10
0.218497
 20
0.454755
  0
VERTEX
  8
EBENE_1
 62
    39
  6
CONTINUOUS
 10
0.216071
 20
0.453929
  0
SEQEND
  8
0
  0
POLYLINE
  8
EBENE_1
 62
    39
  6
CONTINUOUS
 66
     1
 40
0.010000
 41
0.010000
  0
VERTEX
  8
EBENE_1
 62
    39
  6
CONTINUOUS
 10
0.216071
 20
0.453929
  0
VERTEX
  8
EBENE_1
 62
    39
  6
CONTINUOUS
 10
0.214118
 20
0.454755
  0
VERTEX
  8
EBENE_1
 62
    39
  6
CONTINUOUS
 10
0.212617
 20
0.456934
  0
VERTEX
  8
EBENE_1
 62
    39
  6
CONTINUOUS
 10
0.212016
 20
0.460012
  0
SEQEND
  8
0
  0
POLYLINE
  8
EBENE_1
 62
    39
  6
CONTINUOUS
 66
     1
 40
0.010000
 41
0.010000
  0
VERTEX
  8
EBENE_1
 62
    39
  6
CONTINUOUS
 10
0.212016
 20
0.460012
  0
VERTEX
  8
EBENE_1
 62
    39
  6
CONTINUOUS
 10
0.212617
 20
0.462616
  0
VERTEX
  8
EBENE_1
 62
    39
  6
CONTINUOUS
 10
0.214118
 20
0.464620
  0
VERTEX
  8
EBENE_1
 62
    39
  6
CONTINUOUS
 10
0.216071
 20
0.465421
  0
SEQEND
  8
0
  0
POLYLINE
  8
EBENE_1
 62
    39
  6
CONTINUOUS
 66
     1
 40
0.010000
 41
0.010000
  0
VERTEX
  8
EBENE_1
 62
    39
  6
CONTINUOUS
 10
0.094409
 20
0.462039
  0
VERTEX
  8
EBENE_1
 62
    39
  6
CONTINUOUS
 10
0.096838
 20
0.461213
  0
VERTEX
  8
EBENE_1
 62
    39
  6
CONTINUOUS
 10
0.098516
 20
0.459035
  0
VERTEX
  8
EBENE_1
 62
    39
  6
CONTINUOUS
 10
0.099142
 20
0.455957
  0
SEQEND
  8
0
  0
POLYLINE
  8
EBENE_1
 62
    39
  6
CONTINUOUS
 66
     1
 40
0.010000
 41
0.010000
  0
VERTEX
  8
EBENE_1
 62
    39
  6
CONTINUOUS
 10
0.099142
 20
0.455957
  0
VERTEX
  8
EBENE_1
 62
    39
  6
CONTINUOUS
 10
0.098541
 20
0.453353
  0
VERTEX
  8
EBENE_1
 62
    39
  6
CONTINUOUS
 10
0.097039
 20
0.451352
  0
VERTEX
  8
EBENE_1
 62
    39
  6
CONTINUOUS
 10
0.095087
 20
0.450551
  0
SEQEND
  8
0
  0
POLYLINE
  8
EBENE_1
 62
    39
  6
CONTINUOUS
 66
     1
 40
0.010000
 41
0.010000
  0
VERTEX
  8
EBENE_1
 62
    39
  6
CONTINUOUS
 10
0.095087
 20
0.450551
  0
VERTEX
  8
EBENE_1
 62
    39
  6
CONTINUOUS
 10
0.092658
 20
0.451202
  0
VERTEX
  8
EBENE_1
 62
    39
  6
CONTINUOUS
 10
0.090980
 20
0.453054
  0
VERTEX
  8
EBENE_1
 62
    39
  6
CONTINUOUS
 10
0.090354
 20
0.455957
  0
SEQEND
  8
0
  0
POLYLINE
  8
EBENE_1
 62
    39
  6
CONTINUOUS
 66
     1
 40
0.010000
 41
0.010000
  0
VERTEX
  8
EBENE_1
 62
    39
  6
CONTINUOUS
 10
0.090354
 20
0.455957
  0
VERTEX
  8
EBENE_1
 62
    39
  6
CONTINUOUS
 10
0.090955
 20
0.459035
  0
VERTEX
  8
EBENE_1
 62
    39
  6
CONTINUOUS
 10
0.092457
 20
0.461213
  0
VERTEX
  8
EBENE_1
 62
    39
  6
CONTINUOUS
 10
0.094409
 20
0.462039
  0
SEQEND
  8
0
  0
POLYLINE
  8
EBENE_1
 62
    39
  6
CONTINUOUS
 66
     1
 40
0.010000
 41
0.010000
 70
     1
  0
VERTEX
  8
EBENE_1
 62
    39
  6
CONTINUOUS
 10
0.277575
 20
0.172760
  0
VERTEX
  8
EBENE_1
 62
    39
  6
CONTINUOUS
 10
0.278774
 20
0.159497
  0
VERTEX
  8
EBENE_1
 62
    39
  6
CONTINUOUS
 10
0.280889
 20
0.145381
  0
VERTEX
  8
EBENE_1
 62
    39
  6
CONTINUOUS
 10
0.283935
 20
0.130504
  0
VERTEX
  8
EBENE_1
 62
    39
  6
CONTINUOUS
 10
0.287930
 20
0.114957
  0
VERTEX
  8
EBENE_1
 62
    39
  6
CONTINUOUS
 10
0.292889
 20
0.098830
  0
VERTEX
  8
EBENE_1
 62
    39
  6
CONTINUOUS
 10
0.298830
 20
0.082215
  0
VERTEX
  8
EBENE_1
 62
    39
  6
CONTINUOUS
 10
0.305769
 20
0.065202
  0
VERTEX
  8
EBENE_1
 62
    39
  6
CONTINUOUS
 10
0.313723
 20
0.047883
  0
VERTEX
  8
EBENE_1
 62
    39
  6
CONTINUOUS
 10
0.322708
 20
0.030349
  0
VERTEX
  8
EBENE_1
 62
    39
  6
CONTINUOUS
 10
0.332740
 20
0.012691
  0
VERTEX
  8
EBENE_1
 62
    39
  6
CONTINUOUS
 10
0.343837
 20
-0.005000
  0
VERTEX
  8
EBENE_1
 62
    39
  6
CONTINUOUS
 10
0.356014
 20
-0.022634
  0
VERTEX
  8
EBENE_1
 62
    39
  6
CONTINUOUS
 10
0.369289
 20
-0.040118
  0
VERTEX
  8
EBENE_1
 62
    39
  6
CONTINUOUS
 10
0.383678
 20
-0.057362
  0
VERTEX
  8
EBENE_1
 62
    39
  6
CONTINUOUS
 10
0.399197
 20
-0.074275
  0
VERTEX
  8
EBENE_1
 62
    39
  6
CONTINUOUS
 10
0.415863
 20
-0.090766
  0
VERTEX
  8
EBENE_1
 62
    39
  6
CONTINUOUS
 10
0.433693
 20
-0.106744
  0
VERTEX
  8
EBENE_1
 62
    39
  6
CONTINUOUS
 10
0.452703
 20
-0.122117
  0
VERTEX
  8
EBENE_1
 62
    39
  6
CONTINUOUS
 10
0.472909
 20
-0.136795
  0
VERTEX
  8
EBENE_1
 62
    39
  6
CONTINUOUS
 10
0.472909
 20
-0.136795
  0
VERTEX
  8
EBENE_1
 62
    39
  6
CONTINUOUS
 10
0.906154
 20
-0.128685
  0
VERTEX
  8
EBENE_1
 62
    39
  6
CONTINUOUS
 10
0.897366
 20
0.494484
  0
VERTEX
  8
EBENE_1
 62
    39
  6
CONTINUOUS
 10
0.273520
 20
0.485697
  0
SEQEND
  8
0
  0
POLYLINE
  8
EBENE_1
 62
    39
  6
CONTINUOUS
 66
     1
 40
0.010000
 41
0.010000
 70
     1
  0
VERTEX
  8
EBENE_1
 62
    39
  6
CONTINUOUS
 10
0.284335
 20
0.176138
  0
VERTEX
  8
EBENE_1
 62
    39
  6
CONTINUOUS
 10
0.285621
 20
0.162231
  0
VERTEX
  8
EBENE_1
 62
    39
  6
CONTINUOUS
 10
0.287914
 20
0.147391
  0
VERTEX
  8
EBENE_1
 62
    39
  6
CONTINUOUS
 10
0.291232
 20
0.131724
  0
VERTEX
  8
EBENE_1
 62
    39
  6
CONTINUOUS
 10
0.295593
 20
0.115335
  0
VERTEX
  8
EBENE_1
 62
    39
  6
CONTINUOUS
 10
0.301015
 20
0.098330
  0
VERTEX
  8
EBENE_1
 62
    39
  6
CONTINUOUS
 10
0.307516
 20
0.080814
  0
VERTEX
  8
EBENE_1
 62
    39
  6
CONTINUOUS
 10
0.315114
 20
0.062894
  0
VERTEX
  8
EBENE_1
 62
    39
  6
CONTINUOUS
 10
0.323828
 20
0.044674
  0
VERTEX
  8
EBENE_1
 62
    39
  6
CONTINUOUS
 10
0.333675
 20
0.026262
  0
VERTEX
  8
EBENE_1
 62
    39
  6
CONTINUOUS
 10
0.344674
 20
0.007762
  0
VERTEX
  8
EBENE_1
 62
    39
  6
CONTINUOUS
 10
0.356842
 20
-0.010721
  0
VERTEX
  8
EBENE_1
 62
    39
  6
CONTINUOUS
 10
0.370198
 20
-0.029079
  0
VERTEX
  8
EBENE_1
 62
    39
  6
CONTINUOUS
 10
0.384760
 20
-0.047208
  0
VERTEX
  8
EBENE_1
 62
    39
  6
CONTINUOUS
 10
0.400545
 20
-0.065002
  0
VERTEX
  8
EBENE_1
 62
    39
  6
CONTINUOUS
 10
0.417573
 20
-0.082355
  0
VERTEX
  8
EBENE_1
 62
    39
  6
CONTINUOUS
 10
0.435860
 20
-0.099162
  0
VERTEX
  8
EBENE_1
 62
    39
  6
CONTINUOUS
 10
0.455426
 20
-0.115316
  0
VERTEX
  8
EBENE_1
 62
    39
  6
CONTINUOUS
 10
0.476287
 20
-0.130713
  0
VERTEX
  8
EBENE_1
 62
    39
  6
CONTINUOUS
 10
0.476287
 20
-0.130713
  0
VERTEX
  8
EBENE_1
 62
    39
  6
CONTINUOUS
 10
0.902098
 20
-0.122602
  0
VERTEX
  8
EBENE_1
 62
    39
  6
CONTINUOUS
 10
0.893984
 20
0.494484
  0
VERTEX
  8
EBENE_1
 62
    39
  6
CONTINUOUS
 10
0.280957
 20
0.486374
  0
SEQEND
  8
0
  0
POLYLINE
  8
EBENE_1
 62
    39
  6
CONTINUOUS
 66
     1
 40
0.010000
 41
0.010000
  0
VERTEX
  8
EBENE_1
 62
    39
  6
CONTINUOUS
 10
0.848028
 20
0.280902
  0
VERTEX
  8
EBENE_1
 62
    39
  6
CONTINUOUS
 10
0.850454
 20
0.280552
  0
VERTEX
  8
EBENE_1
 62
    39
  6
CONTINUOUS
 10
0.852130
 20
0.278549
  0
VERTEX
  8
EBENE_1
 62
    39
  6
CONTINUOUS
 10
0.852756
 20
0.275496
  0
SEQEND
  8
0
  0
POLYLINE
  8
EBENE_1
 62
    39
  6
CONTINUOUS
 66
     1
 40
0.010000
 41
0.010000
  0
VERTEX
  8
EBENE_1
 62
    39
  6
CONTINUOUS
 10
0.852756
 20
0.275496
  0
VERTEX
  8
EBENE_1
 62
    39
  6
CONTINUOUS
 10
0.852130
 20
0.272416
  0
VERTEX
  8
EBENE_1
 62
    39
  6
CONTINUOUS
 10
0.850454
 20
0.270239
  0
VERTEX
  8
EBENE_1
 62
    39
  6
CONTINUOUS
 10
0.848028
 20
0.269413
  0
SEQEND
  8
0
  0
POLYLINE
  8
EBENE_1
 62
    39
  6
CONTINUOUS
 66
     1
 40
0.010000
 41
0.010000
  0
VERTEX
  8
EBENE_1
 62
    39
  6
CONTINUOUS
 10
0.848028
 20
0.269413
  0
VERTEX
  8
EBENE_1
 62
    39
  6
CONTINUOUS
 10
0.846075
 20
0.270239
  0
VERTEX
  8
EBENE_1
 62
    39
  6
CONTINUOUS
 10
0.844573
 20
0.272416
  0
VERTEX
  8
EBENE_1
 62
    39
  6
CONTINUOUS
 10
0.843972
 20
0.275496
  0
SEQEND
  8
0
  0
POLYLINE
  8
EBENE_1
 62
    39
  6
CONTINUOUS
 66
     1
 40
0.010000
 41
0.010000
  0
VERTEX
  8
EBENE_1
 62
    39
  6
CONTINUOUS
 10
0.843972
 20
0.275496
  0
VERTEX
  8
EBENE_1
 62
    39
  6
CONTINUOUS
 10
0.844423
 20
0.278100
  0
VERTEX
  8
EBENE_1
 62
    39
  6
CONTINUOUS
 10
0.845774
 20
0.280101
  0
VERTEX
  8
EBENE_1
 62
    39
  6
CONTINUOUS
 10
0.848028
 20
0.280902
  0
SEQEND
  8
0
  0
POLYLINE
  8
EBENE_1
 62
    39
  6
CONTINUOUS
 66
     1
 40
0.010000
 41
0.010000
  0
VERTEX
  8
EBENE_1
 62
    39
  6
CONTINUOUS
 10
0.851406
 20
0.176138
  0
VERTEX
  8
EBENE_1
 62
    39
  6
CONTINUOUS
 10
0.853832
 20
0.175312
  0
VERTEX
  8
EBENE_1
 62
    39
  6
CONTINUOUS
 10
0.855508
 20
0.173135
  0
VERTEX
  8
EBENE_1
 62
    39
  6
CONTINUOUS
 10
0.856134
 20
0.170055
  0
SEQEND
  8
0
  0
POLYLINE
  8
EBENE_1
 62
    39
  6
CONTINUOUS
 66
     1
 40
0.010000
 41
0.010000
  0
VERTEX
  8
EBENE_1
 62
    39
  6
CONTINUOUS
 10
0.856134
 20
0.170055
  0
VERTEX
  8
EBENE_1
 62
    39
  6
CONTINUOUS
 10
0.855508
 20
0.166977
  0
VERTEX
  8
EBENE_1
 62
    39
  6
CONTINUOUS
 10
0.853832
 20
0.164799
  0
VERTEX
  8
EBENE_1
 62
    39
  6
CONTINUOUS
 10
0.851406
 20
0.163972
  0
SEQEND
  8
0
  0
POLYLINE
  8
EBENE_1
 62
    39
  6
CONTINUOUS
 66
     1
 40
0.010000
 41
0.010000
  0
VERTEX
  8
EBENE_1
 62
    39
  6
CONTINUOUS
 10
0.851406
 20
0.163972
  0
VERTEX
  8
EBENE_1
 62
    39
  6
CONTINUOUS
 10
0.849453
 20
0.164799
  0
VERTEX
  8
EBENE_1
 62
    39
  6
CONTINUOUS
 10
0.847951
 20
0.166977
  0
VERTEX
  8
EBENE_1
 62
    39
  6
CONTINUOUS
 10
0.847350
 20
0.170055
  0
SEQEND
  8
0
  0
POLYLINE
  8
EBENE_1
 62
    39
  6
CONTINUOUS
 66
     1
 40
0.010000
 41
0.010000
  0
VERTEX
  8
EBENE_1
 62
    39
  6
CONTINUOUS
 10
0.847350
 20
0.170055
  0
VERTEX
  8
EBENE_1
 62
    39
  6
CONTINUOUS
 10
0.847801
 20
0.173135
  0
VERTEX
  8
EBENE_1
 62
    39
  6
CONTINUOUS
 10
0.849152
 20
0.175312
  0
VERTEX
  8
EBENE_1
 62
    39
  6
CONTINUOUS
 10
0.851406
 20
0.176138
  0
SEQEND
  8
0
  0
POLYLINE
  8
EBENE_1
 62
    39
  6
CONTINUOUS
 66
     1
 40
0.010000
 41
0.010000
  0
VERTEX
  8
EBENE_1
 62
    39
  6
CONTINUOUS
 10
0.647287
 20
0.465421
  0
VERTEX
  8
EBENE_1
 62
    39
  6
CONTINUOUS
 10
0.649715
 20
0.464770
  0
VERTEX
  8
EBENE_1
 62
    39
  6
CONTINUOUS
 10
0.651393
 20
0.462917
  0
VERTEX
  8
EBENE_1
 62
    39
  6
CONTINUOUS
 10
0.652020
 20
0.460012
  0
SEQEND
  8
0
  0
POLYLINE
  8
EBENE_1
 62
    39
  6
CONTINUOUS
 66
     1
 40
0.010000
 41
0.010000
  0
VERTEX
  8
EBENE_1
 62
    39
  6
CONTINUOUS
 10
0.652020
 20
0.460012
  0
VERTEX
  8
EBENE_1
 62
    39
  6
CONTINUOUS
 10
0.651418
 20
0.456934
  0
VERTEX
  8
EBENE_1
 62
    39
  6
CONTINUOUS
 10
0.649914
 20
0.454755
  0
VERTEX
  8
EBENE_1
 62
    39
  6
CONTINUOUS
 10
0.647961
 20
0.453929
  0
SEQEND
  8
0
  0
POLYLINE
  8
EBENE_1
 62
    39
  6
CONTINUOUS
 66
     1
 40
0.010000
 41
0.010000
  0
VERTEX
  8
EBENE_1
 62
    39
  6
CONTINUOUS
 10
0.647961
 20
0.453929
  0
VERTEX
  8
EBENE_1
 62
    39
  6
CONTINUOUS
 10
0.645534
 20
0.454755
  0
VERTEX
  8
EBENE_1
 62
    39
  6
CONTINUOUS
 10
0.643858
 20
0.456934
  0
VERTEX
  8
EBENE_1
 62
    39
  6
CONTINUOUS
 10
0.643232
 20
0.460012
  0
SEQEND
  8
0
  0
POLYLINE
  8
EBENE_1
 62
    39
  6
CONTINUOUS
 66
     1
 40
0.010000
 41
0.010000
  0
VERTEX
  8
EBENE_1
 62
    39
  6
CONTINUOUS
 10
0.643232
 20
0.460012
  0
VERTEX
  8
EBENE_1
 62
    39
  6
CONTINUOUS
 10
0.643833
 20
0.462616
  0
VERTEX
  8
EBENE_1
 62
    39
  6
CONTINUOUS
 10
0.645335
 20
0.464620
  0
VERTEX
  8
EBENE_1
 62
    39
  6
CONTINUOUS
 10
0.647287
 20
0.465421
  0
SEQEND
  8
0
  0
POLYLINE
  8
EBENE_1
 62
    39
  6
CONTINUOUS
 66
     1
 40
0.010000
 41
0.010000
  0
VERTEX
  8
EBENE_1
 62
    39
  6
CONTINUOUS
 10
0.526303
 20
0.462039
  0
VERTEX
  8
EBENE_1
 62
    39
  6
CONTINUOUS
 10
0.528256
 20
0.461213
  0
VERTEX
  8
EBENE_1
 62
    39
  6
CONTINUOUS
 10
0.529758
 20
0.459035
  0
VERTEX
  8
EBENE_1
 62
    39
  6
CONTINUOUS
 10
0.530358
 20
0.455957
  0
SEQEND
  8
0
  0
POLYLINE
  8
EBENE_1
 62
    39
  6
CONTINUOUS
 66
     1
 40
0.010000
 41
0.010000
  0
VERTEX
  8
EBENE_1
 62
    39
  6
CONTINUOUS
 10
0.530358
 20
0.455957
  0
VERTEX
  8
EBENE_1
 62
    39
  6
CONTINUOUS
 10
0.529908
 20
0.453353
  0
VERTEX
  8
EBENE_1
 62
    39
  6
CONTINUOUS
 10
0.528557
 20
0.451352
  0
VERTEX
  8
EBENE_1
 62
    39
  6
CONTINUOUS
 10
0.526303
 20
0.450551
  0
SEQEND
  8
0
  0
POLYLINE
  8
EBENE_1
 62
    39
  6
CONTINUOUS
 66
     1
 40
0.010000
 41
0.010000
  0
VERTEX
  8
EBENE_1
 62
    39
  6
CONTINUOUS
 10
0.526303
 20
0.450551
  0
VERTEX
  8
EBENE_1
 62
    39
  6
CONTINUOUS
 10
0.523874
 20
0.451202
  0
VERTEX
  8
EBENE_1
 62
    39
  6
CONTINUOUS
 10
0.522197
 20
0.453054
  0
VERTEX
  8
EBENE_1
 62
    39
  6
CONTINUOUS
 10
0.521571
 20
0.455957
  0
SEQEND
  8
0
  0
POLYLINE
  8
EBENE_1
 62
    39
  6
CONTINUOUS
 66
     1
 40
0.010000
 41
0.010000
  0
VERTEX
  8
EBENE_1
 62
    39
  6
CONTINUOUS
 10
0.521571
 20
0.455957
  0
VERTEX
  8
EBENE_1
 62
    39
  6
CONTINUOUS
 10
0.522197
 20
0.459035
  0
VERTEX
  8
EBENE_1
 62
    39
  6
CONTINUOUS
 10
0.523874
 20
0.461213
  0
VERTEX
  8
EBENE_1
 62
    39
  6
CONTINUOUS
 10
0.526303
 20
0.462039
  0
SEQEND
  8
0
  0
POLYLINE
  8
EBENE_1
 62
    39
  6
CONTINUOUS
 66
     1
 40
0.010000
 41
0.010000
 70
     1
  0
VERTEX
  8
EBENE_1
 62
    39
  6
CONTINUOUS
 10
0.708791
 20
0.172760
  0
VERTEX
  8
EBENE_1
 62
    39
  6
CONTINUOUS
 10
0.710092
 20
0.159497
  0
VERTEX
  8
EBENE_1
 62
    39
  6
CONTINUOUS
 10
0.712297
 20
0.145381
  0
VERTEX
  8
EBENE_1
 62
    39
  6
CONTINUOUS
 10
0.715422
 20
0.130504
  0
VERTEX
  8
EBENE_1
 62
    39
  6
CONTINUOUS
 10
0.719484
 20
0.114957
  0
VERTEX
  8
EBENE_1
 62
    39
  6
CONTINUOUS
 10
0.724500
 20
0.098830
  0
VERTEX
  8
EBENE_1
 62
    39
  6
CONTINUOUS
 10
0.730486
 20
0.082215
  0
VERTEX
  8
EBENE_1
 62
    39
  6
CONTINUOUS
 10
0.737459
 20
0.065202
  0
VERTEX
  8
EBENE_1
 62
    39
  6
CONTINUOUS
 10
0.745435
 20
0.047883
  0
VERTEX
  8
EBENE_1
 62
    39
  6
CONTINUOUS
 10
0.754431
 20
0.030349
  0
VERTEX
  8
EBENE_1
 62
    39
  6
CONTINUOUS
 10
0.764463
 20
0.012691
  0
VERTEX
  8
EBENE_1
 62
    39
  6
CONTINUOUS
 10
0.775549
 20
-0.005000
  0
VERTEX
  8
EBENE_1
 62
    39
  6
CONTINUOUS
 10
0.787704
 20
-0.022634
  0
VERTEX
  8
EBENE_1
 62
    39
  6
CONTINUOUS
 10
0.800945
 20
-0.040118
  0
VERTEX
  8
EBENE_1
 62
    39
  6
CONTINUOUS
 10
0.815288
 20
-0.057362
  0
VERTEX
  8
EBENE_1
 62
    39
  6
CONTINUOUS
 10
0.830751
 20
-0.074275
  0
VERTEX
  8
EBENE_1
 62
    39
  6
CONTINUOUS
 10
0.847350
 20
-0.090766
  0
VERTEX
  8
EBENE_1
 62
    39
  6
CONTINUOUS
 10
0.865101
 20
-0.106744
  0
VERTEX
  8
EBENE_1
 62
    39
  6
CONTINUOUS
 10
0.884021
 20
-0.122117
  0
VERTEX
  8
EBENE_1
 62
    39
  6
CONTINUOUS
 10
0.904126
 20
-0.136795
  0
VERTEX
  8
EBENE_1
 62
    39
  6
CONTINUOUS
 10
0.904126
 20
-0.136795
  0
VERTEX
  8
EBENE_1
 62
    39
  6
CONTINUOUS
 10
1.337370
 20
-0.128685
  0
VERTEX
  8
EBENE_1
 62
    39
  6
CONTINUOUS
 10
1.329260
 20
0.494484
  0
VERTEX
  8
EBENE_1
 62
    39
  6
CONTINUOUS
 10
0.705413
 20
0.485697
  0
SEQEND
  8
0
  0
POLYLINE
  8
EBENE_1
 62
    39
  6
CONTINUOUS
 66
     1
 40
0.010000
 41
0.010000
 70
     1
  0
VERTEX
  8
EBENE_1
 62
    39
  6
CONTINUOUS
 10
0.715551
 20
0.176138
  0
VERTEX
  8
EBENE_1
 62
    39
  6
CONTINUOUS
 10
0.716937
 20
0.162231
  0
VERTEX
  8
EBENE_1
 62
    39
  6
CONTINUOUS
 10
0.719308
 20
0.147391
  0
VERTEX
  8
EBENE_1
 62
    39
  6
CONTINUOUS
 10
0.722682
 20
0.131724
  0
VERTEX
  8
EBENE_1
 62
    39
  6
CONTINUOUS
 10
0.727081
 20
0.115335
  0
VERTEX
  8
EBENE_1
 62
    39
  6
CONTINUOUS
 10
0.732524
 20
0.098330
  0
VERTEX
  8
EBENE_1
 62
    39
  6
CONTINUOUS
 10
0.739031
 20
0.080814
  0
VERTEX
  8
EBENE_1
 62
    39
  6
CONTINUOUS
 10
0.746624
 20
0.062894
  0
VERTEX
  8
EBENE_1
 62
    39
  6
CONTINUOUS
 10
0.755322
 20
0.044674
  0
VERTEX
  8
EBENE_1
 62
    39
  6
CONTINUOUS
 10
0.765144
 20
0.026262
  0
VERTEX
  8
EBENE_1
 62
    39
  6
CONTINUOUS
 10
0.776112
 20
0.007762
  0
VERTEX
  8
EBENE_1
 62
    39
  6
CONTINUOUS
 10
0.788245
 20
-0.010721
  0
VERTEX
  8
EBENE_1
 62
    39
  6
CONTINUOUS
 10
0.801564
 20
-0.029079
  0
VERTEX
  8
EBENE_1
 62
    39
  6
CONTINUOUS
 10
0.816089
 20
-0.047208
  0
VERTEX
  8
EBENE_1
 62
    39
  6
CONTINUOUS
 10
0.831840
 20
-0.065002
  0
VERTEX
  8
EBENE_1
 62
    39
  6
CONTINUOUS
 10
0.848836
 20
-0.082355
  0
VERTEX
  8
EBENE_1
 62
    39
  6
CONTINUOUS
 10
0.867099
 20
-0.099162
  0
VERTEX
  8
EBENE_1
 62
    39
  6
CONTINUOUS
 10
0.886648
 20
-0.115316
  0
VERTEX
  8
EBENE_1
 62
    39
  6
CONTINUOUS
 10
0.907504
 20
-0.130713
  0
VERTEX
  8
EBENE_1
 62
    39
  6
CONTINUOUS
 10
0.907504
 20
-0.130713
  0
VERTEX
  8
EBENE_1
 62
    39
  6
CONTINUOUS
 10
1.333315
 20
-0.122602
  0
VERTEX
  8
EBENE_1
 62
    39
  6
CONTINUOUS
 10
1.325201
 20
0.494484
  0
VERTEX
  8
EBENE_1
 62
    39
  6
CONTINUOUS
 10
0.712173
 20
0.486374
  0
SEQEND
  8
0
  0
POLYLINE
  8
EBENE_1
 62
    39
  6
CONTINUOUS
 66
     1
 40
0.010000
 41
0.010000
  0
VERTEX
  8
EBENE_1
 62
    39
  6
CONTINUOUS
 10
1.279244
 20
0.280902
  0
VERTEX
  8
EBENE_1
 62
    39
  6
CONTINUOUS
 10
1.281670
 20
0.280552
  0
VERTEX
  8
EBENE_1
 62
    39
  6
CONTINUOUS
 10
1.283347
 20
0.278549
  0
VERTEX
  8
EBENE_1
 62
    39
  6
CONTINUOUS
 10
1.283972
 20
0.275496
  0
SEQEND
  8
0
  0
POLYLINE
  8
EBENE_1
 62
    39
  6
CONTINUOUS
 66
     1
 40
0.010000
 41
0.010000
  0
VERTEX
  8
EBENE_1
 62
    39
  6
CONTINUOUS
 10
1.283972
 20
0.275496
  0
VERTEX
  8
EBENE_1
 62
    39
  6
CONTINUOUS
 10
1.283372
 20
0.272416
  0
VERTEX
  8
EBENE_1
 62
    39
  6
CONTINUOUS
 10
1.281870
 20
0.270239
  0
VERTEX
  8
EBENE_1
 62
    39
  6
CONTINUOUS
 10
1.279917
 20
0.269413
  0
SEQEND
  8
0
  0
POLYLINE
  8
EBENE_1
 62
    39
  6
CONTINUOUS
 66
     1
 40
0.010000
 41
0.010000
  0
VERTEX
  8
EBENE_1
 62
    39
  6
CONTINUOUS
 10
1.279917
 20
0.269413
  0
VERTEX
  8
EBENE_1
 62
    39
  6
CONTINUOUS
 10
1.277491
 20
0.270239
  0
VERTEX
  8
EBENE_1
 62
    39
  6
CONTINUOUS
 10
1.275815
 20
0.272416
  0
VERTEX
  8
EBENE_1
 62
    39
  6
CONTINUOUS
 10
1.275189
 20
0.275496
  0
SEQEND
  8
0
  0
POLYLINE
  8
EBENE_1
 62
    39
  6
CONTINUOUS
 66
     1
 40
0.010000
 41
0.010000
  0
VERTEX
  8
EBENE_1
 62
    39
  6
CONTINUOUS
 10
1.275189
 20
0.275496
  0
VERTEX
  8
EBENE_1
 62
    39
  6
CONTINUOUS
 10
1.275790
 20
0.278100
  0
VERTEX
  8
EBENE_1
 62
    39
  6
CONTINUOUS
 10
1.277292
 20
0.280101
  0
VERTEX
  8
EBENE_1
 62
    39
  6
CONTINUOUS
 10
1.279244
 20
0.280902
  0
SEQEND
  8
0
  0
POLYLINE
  8
EBENE_1
 62
    39
  6
CONTINUOUS
 66
     1
 40
0.010000
 41
0.010000
  0
VERTEX
  8
EBENE_1
 62
    39
  6
CONTINUOUS
 10
1.282622
 20
0.176138
  0
VERTEX
  8
EBENE_1
 62
    39
  6
CONTINUOUS
 10
1.285049
 20
0.175312
  0
VERTEX
  8
EBENE_1
 62
    39
  6
CONTINUOUS
 10
1.286728
 20
0.173135
  0
VERTEX
  8
EBENE_1
 62
    39
  6
CONTINUOUS
 10
1.287354
 20
0.170055
  0
SEQEND
  8
0
  0
POLYLINE
  8
EBENE_1
 62
    39
  6
CONTINUOUS
 66
     1
 40
0.010000
 41
0.010000
  0
VERTEX
  8
EBENE_1
 62
    39
  6
CONTINUOUS
 10
1.287354
 20
0.170055
  0
VERTEX
  8
EBENE_1
 62
    39
  6
CONTINUOUS
 10
1.286753
 20
0.166977
  0
VERTEX
  8
EBENE_1
 62
    39
  6
CONTINUOUS
 10
1.285249
 20
0.164799
  0
VERTEX
  8
EBENE_1
 62
    39
  6
CONTINUOUS
 10
1.283295
 20
0.163972
  0
SEQEND
  8
0
  0
POLYLINE
  8
EBENE_1
 62
    39
  6
CONTINUOUS
 66
     1
 40
0.010000
 41
0.010000
  0
VERTEX
  8
EBENE_1
 62
    39
  6
CONTINUOUS
 10
1.283295
 20
0.163972
  0
VERTEX
  8
EBENE_1
 62
    39
  6
CONTINUOUS
 10
1.280869
 20
0.164799
  0
VERTEX
  8
EBENE_1
 62
    39
  6
CONTINUOUS
 10
1.279193
 20
0.166977
  0
VERTEX
  8
EBENE_1
 62
    39
  6
CONTINUOUS
 10
1.278567
 20
0.170055
  0
SEQEND
  8
0
  0
POLYLINE
  8
EBENE_1
 62
    39
  6
CONTINUOUS
 66
     1
 40
0.010000
 41
0.010000
  0
VERTEX
  8
EBENE_1
 62
    39
  6
CONTINUOUS
 10
1.278567
 20
0.170055
  0
VERTEX
  8
EBENE_1
 62
    39
  6
CONTINUOUS
 10
1.279168
 20
0.173135
  0
VERTEX
  8
EBENE_1
 62
    39
  6
CONTINUOUS
 10
1.280670
 20
0.175312
  0
VERTEX
  8
EBENE_1
 62
    39
  6
CONTINUOUS
 10
1.282622
 20
0.176138
  0
SEQEND
  8
0
  0
POLYLINE
  8
EBENE_1
 62
    39
  6
CONTINUOUS
 66
     1
 40
0.010000
 41
0.010000
  0
VERTEX
  8
EBENE_1
 62
    39
  6
CONTINUOUS
 10
1.079177
 20
0.465421
  0
VERTEX
  8
EBENE_1
 62
    39
  6
CONTINUOUS
 10
1.081131
 20
0.464770
  0
VERTEX
  8
EBENE_1
 62
    39
  6
CONTINUOUS
 10
1.082634
 20
0.462917
  0
VERTEX
  8
EBENE_1
 62
    39
  6
CONTINUOUS
 10
1.083236
 20
0.460012
  0
SEQEND
  8
0
  0
POLYLINE
  8
EBENE_1
 62
    39
  6
CONTINUOUS
 66
     1
 40
0.010000
 41
0.010000
  0
VERTEX
  8
EBENE_1
 62
    39
  6
CONTINUOUS
 10
1.083236
 20
0.460012
  0
VERTEX
  8
EBENE_1
 62
    39
  6
CONTINUOUS
 10
1.082785
 20
0.456934
  0
VERTEX
  8
EBENE_1
 62
    39
  6
CONTINUOUS
 10
1.081432
 20
0.454755
  0
VERTEX
  8
EBENE_1
 62
    39
  6
CONTINUOUS
 10
1.079177
 20
0.453929
  0
SEQEND
  8
0
  0
POLYLINE
  8
EBENE_1
 62
    39
  6
CONTINUOUS
 66
     1
 40
0.010000
 41
0.010000
  0
VERTEX
  8
EBENE_1
 62
    39
  6
CONTINUOUS
 10
1.079177
 20
0.453929
  0
VERTEX
  8
EBENE_1
 62
    39
  6
CONTINUOUS
 10
1.076751
 20
0.454755
  0
VERTEX
  8
EBENE_1
 62
    39
  6
CONTINUOUS
 10
1.075075
 20
0.456934
  0
VERTEX
  8
EBENE_1
 62
    39
  6
CONTINUOUS
 10
1.074449
 20
0.460012
  0
SEQEND
  8
0
  0
POLYLINE
  8
EBENE_1
 62
    39
  6
CONTINUOUS
 66
     1
 40
0.010000
 41
0.010000
  0
VERTEX
  8
EBENE_1
 62
    39
  6
CONTINUOUS
 10
1.074449
 20
0.460012
  0
VERTEX
  8
EBENE_1
 62
    39
  6
CONTINUOUS
 10
1.075075
 20
0.462616
  0
VERTEX
  8
EBENE_1
 62
    39
  6
CONTINUOUS
 10
1.076751
 20
0.464620
  0
VERTEX
  8
EBENE_1
 62
    39
  6
CONTINUOUS
 10
1.079177
 20
0.465421
  0
SEQEND
  8
0
  0
POLYLINE
  8
EBENE_1
 62
    39
  6
CONTINUOUS
 66
     1
 40
0.010000
 41
0.010000
  0
VERTEX
  8
EBENE_1
 62
    39
  6
CONTINUOUS
 10
0.957520
 20
0.462039
  0
VERTEX
  8
EBENE_1
 62
    39
  6
CONTINUOUS
 10
0.959949
 20
0.461213
  0
VERTEX
  8
EBENE_1
 62
    39
  6
CONTINUOUS
 10
0.961626
 20
0.459035
  0
VERTEX
  8
EBENE_1
 62
    39
  6
CONTINUOUS
 10
0.962252
 20
0.455957
  0
SEQEND
  8
0
  0
POLYLINE
  8
EBENE_1
 62
    39
  6
CONTINUOUS
 66
     1
 40
0.010000
 41
0.010000
  0
VERTEX
  8
EBENE_1
 62
    39
  6
CONTINUOUS
 10
0.962252
 20
0.455957
  0
VERTEX
  8
EBENE_1
 62
    39
  6
CONTINUOUS
 10
0.961626
 20
0.453353
  0
VERTEX
  8
EBENE_1
 62
    39
  6
CONTINUOUS
 10
0.959949
 20
0.451352
  0
VERTEX
  8
EBENE_1
 62
    39
  6
CONTINUOUS
 10
0.957520
 20
0.450551
  0
SEQEND
  8
0
  0
POLYLINE
  8
EBENE_1
 62
    39
  6
CONTINUOUS
 66
     1
 40
0.010000
 41
0.010000
  0
VERTEX
  8
EBENE_1
 62
    39
  6
CONTINUOUS
 10
0.957520
 20
0.450551
  0
VERTEX
  8
EBENE_1
 62
    39
  6
CONTINUOUS
 10
0.955567
 20
0.451202
  0
VERTEX
  8
EBENE_1
 62
    39
  6
CONTINUOUS
 10
0.954065
 20
0.453054
  0
VERTEX
  8
EBENE_1
 62
    39
  6
CONTINUOUS
 10
0.953465
 20
0.455957
  0
SEQEND
  8
0
  0
POLYLINE
  8
EBENE_1
 62
    39
  6
CONTINUOUS
 66
     1
 40
0.010000
 41
0.010000
  0
VERTEX
  8
EBENE_1
 62
    39
  6
CONTINUOUS
 10
0.953465
 20
0.455957
  0
VERTEX
  8
EBENE_1
 62
    39
  6
CONTINUOUS
 10
0.953915
 20
0.459035
  0
VERTEX
  8
EBENE_1
 62
    39
  6
CONTINUOUS
 10
0.955266
 20
0.461213
  0
VERTEX
  8
EBENE_1
 62
    39
  6
CONTINUOUS
 10
0.957520
 20
0.462039
  0
SEQEND
  8
0
  0
POLYLINE
  8
EBENE_1
 62
    39
  6
CONTINUOUS
 66
     1
 40
0.010000
 41
0.010000
  0
VERTEX
  8
EBENE_1
 62
    39
  6
CONTINUOUS
 10
-0.239476
 20
0.497862
  0
VERTEX
  8
EBENE_1
 62
    39
  6
CONTINUOUS
 10
-0.237324
 20
0.497688
  0
VERTEX
  8
EBENE_1
 62
    39
  6
CONTINUOUS
 10
-0.235323
 20
0.496010
  0
VERTEX
  8
EBENE_1
 62
    39
  6
CONTINUOUS
 10
-0.234071
 20
0.493130
  0
SEQEND
  8
0
  0
POLYLINE
  8
EBENE_1
 62
    39
  6
CONTINUOUS
 66
     1
 40
0.010000
 41
0.010000
  0
VERTEX
  8
EBENE_1
 62
    39
  6
CONTINUOUS
 10
-0.234071
 20
0.493130
  0
VERTEX
  8
EBENE_1
 62
    39
  6
CONTINUOUS
 10
-0.233870
 20
0.490326
  0
VERTEX
  8
EBENE_1
 62
    39
  6
CONTINUOUS
 10
-0.234722
 20
0.487824
  0
VERTEX
  8
EBENE_1
 62
    39
  6
CONTINUOUS
 10
-0.236776
 20
0.486374
  0
SEQEND
  8
0
  0
POLYLINE
  8
EBENE_1
 62
    39
  6
CONTINUOUS
 66
     1
 40
0.010000
 41
0.010000
  0
VERTEX
  8
EBENE_1
 62
    39
  6
CONTINUOUS
 10
-0.236776
 20
0.486374
  0
VERTEX
  8
EBENE_1
 62
    39
  6
CONTINUOUS
 10
-0.238953
 20
0.486548
  0
VERTEX
  8
EBENE_1
 62
    39
  6
CONTINUOUS
 10
-0.241130
 20
0.488225
  0
VERTEX
  8
EBENE_1
 62
    39
  6
CONTINUOUS
 10
-0.242858
 20
0.491102
  0
SEQEND
  8
0
  0
POLYLINE
  8
EBENE_1
 62
    39
  6
CONTINUOUS
 66
     1
 40
0.010000
 41
0.010000
  0
VERTEX
  8
EBENE_1
 62
    39
  6
CONTINUOUS
 10
-0.242858
 20
0.491102
  0
VERTEX
  8
EBENE_1
 62
    39
  6
CONTINUOUS
 10
-0.242883
 20
0.494207
  0
VERTEX
  8
EBENE_1
 62
    39
  6
CONTINUOUS
 10
-0.241706
 20
0.496560
  0
VERTEX
  8
EBENE_1
 62
    39
  6
CONTINUOUS
 10
-0.239476
 20
0.497862
  0
SEQEND
  8
0
  0
POLYLINE
  8
EBENE_1
 62
    39
  6
CONTINUOUS
 66
     1
 40
0.010000
 41
0.010000
  0
VERTEX
  8
EBENE_1
 62
    39
  6
CONTINUOUS
 10
-0.210417
 20
0.396476
  0
VERTEX
  8
EBENE_1
 62
    39
  6
CONTINUOUS
 10
-0.208264
 20
0.396327
  0
VERTEX
  8
EBENE_1
 62
    39
  6
CONTINUOUS
 10
-0.206261
 20
0.394826
  0
VERTEX
  8
EBENE_1
 62
    39
  6
CONTINUOUS
 10
-0.205008
 20
0.392425
  0
SEQEND
  8
0
  0
POLYLINE
  8
EBENE_1
 62
    39
  6
CONTINUOUS
 66
     1
 40
0.010000
 41
0.010000
  0
VERTEX
  8
EBENE_1
 62
    39
  6
CONTINUOUS
 10
-0.205008
 20
0.392425
  0
VERTEX
  8
EBENE_1
 62
    39
  6
CONTINUOUS
 10
-0.204807
 20
0.389145
  0
VERTEX
  8
EBENE_1
 62
    39
  6
CONTINUOUS
 10
-0.205659
 20
0.386466
  0
VERTEX
  8
EBENE_1
 62
    39
  6
CONTINUOUS
 10
-0.207713
 20
0.384988
  0
SEQEND
  8
0
  0
POLYLINE
  8
EBENE_1
 62
    39
  6
CONTINUOUS
 66
     1
 40
0.010000
 41
0.010000
  0
VERTEX
  8
EBENE_1
 62
    39
  6
CONTINUOUS
 10
-0.207713
 20
0.384988
  0
VERTEX
  8
EBENE_1
 62
    39
  6
CONTINUOUS
 10
-0.209866
 20
0.385313
  0
VERTEX
  8
EBENE_1
 62
    39
  6
CONTINUOUS
 10
-0.211868
 20
0.387141
  0
VERTEX
  8
EBENE_1
 62
    39
  6
CONTINUOUS
 10
-0.213118
 20
0.389720
  0
SEQEND
  8
0
  0
POLYLINE
  8
EBENE_1
 62
    39
  6
CONTINUOUS
 66
     1
 40
0.010000
 41
0.010000
  0
VERTEX
  8
EBENE_1
 62
    39
  6
CONTINUOUS
 10
-0.213118
 20
0.389720
  0
VERTEX
  8
EBENE_1
 62
    39
  6
CONTINUOUS
 10
-0.213618
 20
0.392824
  0
VERTEX
  8
EBENE_1
 62
    39
  6
CONTINUOUS
 10
-0.212618
 20
0.395176
  0
VERTEX
  8
EBENE_1
 62
    39
  6
CONTINUOUS
 10
-0.210417
 20
0.396476
  0
SEQEND
  8
0
  0
POLYLINE
  8
EBENE_1
 62
    39
  6
CONTINUOUS
 66
     1
 40
0.010000
 41
0.010000
  0
VERTEX
  8
EBENE_1
 62
    39
  6
CONTINUOUS
 10
-0.479413
 20
0.627634
  0
VERTEX
  8
EBENE_1
 62
    39
  6
CONTINUOUS
 10
-0.477236
 20
0.627457
  0
VERTEX
  8
EBENE_1
 62
    39
  6
CONTINUOUS
 10
-0.475059
 20
0.625779
  0
VERTEX
  8
EBENE_1
 62
    39
  6
CONTINUOUS
 10
-0.473331
 20
0.622902
  0
SEQEND
  8
0
  0
POLYLINE
  8
EBENE_1
 62
    39
  6
CONTINUOUS
 66
     1
 40
0.010000
 41
0.010000
  0
VERTEX
  8
EBENE_1
 62
    39
  6
CONTINUOUS
 10
-0.473331
 20
0.622902
  0
VERTEX
  8
EBENE_1
 62
    39
  6
CONTINUOUS
 10
-0.473282
 20
0.619796
  0
VERTEX
  8
EBENE_1
 62
    39
  6
CONTINUOUS
 10
-0.474283
 20
0.617444
  0
VERTEX
  8
EBENE_1
 62
    39
  6
CONTINUOUS
 10
-0.476035
 20
0.616142
  0
SEQEND
  8
0
  0
POLYLINE
  8
EBENE_1
 62
    39
  6
CONTINUOUS
 66
     1
 40
0.010000
 41
0.010000
  0
VERTEX
  8
EBENE_1
 62
    39
  6
CONTINUOUS
 10
-0.476035
 20
0.616142
  0
VERTEX
  8
EBENE_1
 62
    39
  6
CONTINUOUS
 10
-0.478662
 20
0.616319
  0
VERTEX
  8
EBENE_1
 62
    39
  6
CONTINUOUS
 10
-0.480840
 20
0.617996
  0
VERTEX
  8
EBENE_1
 62
    39
  6
CONTINUOUS
 10
-0.482118
 20
0.620874
  0
SEQEND
  8
0
  0
POLYLINE
  8
EBENE_1
 62
    39
  6
CONTINUOUS
 66
     1
 40
0.010000
 41
0.010000
  0
VERTEX
  8
EBENE_1
 62
    39
  6
CONTINUOUS
 10
-0.482118
 20
0.620874
  0
VERTEX
  8
EBENE_1
 62
    39
  6
CONTINUOUS
 10
-0.482168
 20
0.623678
  0
VERTEX
  8
EBENE_1
 62
    39
  6
CONTINUOUS
 10
-0.481166
 20
0.626181
  0
VERTEX
  8
EBENE_1
 62
    39
  6
CONTINUOUS
 10
-0.479413
 20
0.627634
  0
SEQEND
  8
0
  0
POLYLINE
  8
EBENE_1
 62
    39
  6
CONTINUOUS
 66
     1
 40
0.010000
 41
0.010000
  0
VERTEX
  8
EBENE_1
 62
    39
  6
CONTINUOUS
 10
-0.596343
 20
0.593839
  0
VERTEX
  8
EBENE_1
 62
    39
  6
CONTINUOUS
 10
-0.593864
 20
0.593689
  0
VERTEX
  8
EBENE_1
 62
    39
  6
CONTINUOUS
 10
-0.591836
 20
0.592187
  0
VERTEX
  8
EBENE_1
 62
    39
  6
CONTINUOUS
 10
-0.590260
 20
0.589783
  0
SEQEND
  8
0
  0
POLYLINE
  8
EBENE_1
 62
    39
  6
CONTINUOUS
 66
     1
 40
0.010000
 41
0.010000
  0
VERTEX
  8
EBENE_1
 62
    39
  6
CONTINUOUS
 10
-0.590260
 20
0.589783
  0
VERTEX
  8
EBENE_1
 62
    39
  6
CONTINUOUS
 10
-0.590210
 20
0.586678
  0
VERTEX
  8
EBENE_1
 62
    39
  6
CONTINUOUS
 10
-0.591212
 20
0.584326
  0
VERTEX
  8
EBENE_1
 62
    39
  6
CONTINUOUS
 10
-0.592965
 20
0.583024
  0
SEQEND
  8
0
  0
POLYLINE
  8
EBENE_1
 62
    39
  6
CONTINUOUS
 66
     1
 40
0.010000
 41
0.010000
  0
VERTEX
  8
EBENE_1
 62
    39
  6
CONTINUOUS
 10
-0.592965
 20
0.583024
  0
VERTEX
  8
EBENE_1
 62
    39
  6
CONTINUOUS
 10
-0.595591
 20
0.583173
  0
VERTEX
  8
EBENE_1
 62
    39
  6
CONTINUOUS
 10
-0.597769
 20
0.584675
  0
VERTEX
  8
EBENE_1
 62
    39
  6
CONTINUOUS
 10
-0.599047
 20
0.587079
  0
SEQEND
  8
0
  0
POLYLINE
  8
EBENE_1
 62
    39
  6
CONTINUOUS
 66
     1
 40
0.010000
 41
0.010000
  0
VERTEX
  8
EBENE_1
 62
    39
  6
CONTINUOUS
 10
-0.599047
 20
0.587079
  0
VERTEX
  8
EBENE_1
 62
    39
  6
CONTINUOUS
 10
-0.599098
 20
0.590334
  0
VERTEX
  8
EBENE_1
 62
    39
  6
CONTINUOUS
 10
-0.598095
 20
0.592838
  0
VERTEX
  8
EBENE_1
 62
    39
  6
CONTINUOUS
 10
-0.596343
 20
0.593839
  0
SEQEND
  8
0
  0
SOLID
  8
EBENE_1
  6
CONTINUOUS
 10
-0.793028
 20
0.380256
 11
-0.146205
 21
0.386343
 12
-0.846421
 22
0.555311
 13
-0.244209
 23
0.716850
  0
POLYLINE
  8
EBENE_1
 62
    39
  6
CONTINUOUS
 66
     1
 40
0.010000
 41
0.010000
 70
     1
  0
VERTEX
  8
EBENE_1
 62
    39
  6
CONTINUOUS
 10
-0.793028
 20
0.380256
  0
VERTEX
  8
EBENE_1
 62
    39
  6
CONTINUOUS
 10
-0.146205
 20
0.386343
  0
VERTEX
  8
EBENE_1
 62
    39
  6
CONTINUOUS
 10
-0.244209
 20
0.716850
  0
VERTEX
  8
EBENE_1
 62
    39
  6
CONTINUOUS
 10
-0.846421
 20
0.555311
  0
SEQEND
  8
0
  0
SOLID
  8
EBENE_1
  6
CONTINUOUS
 10
-0.784917
 20
0.387693
 11
-0.156343
 21
0.393098
 12
-0.836961
 22
0.555311
 13
-0.251646
 23
0.709417
  0
POLYLINE
  8
EBENE_1
 62
    39
  6
CONTINUOUS
 66
     1
 40
0.010000
 41
0.010000
 70
     1
  0
VERTEX
  8
EBENE_1
 62
    39
  6
CONTINUOUS
 10
-0.784917
 20
0.387693
  0
VERTEX
  8
EBENE_1
 62
    39
  6
CONTINUOUS
 10
-0.156343
 20
0.393098
  0
VERTEX
  8
EBENE_1
 62
    39
  6
CONTINUOUS
 10
-0.251646
 20
0.709417
  0
VERTEX
  8
EBENE_1
 62
    39
  6
CONTINUOUS
 10
-0.836961
 20
0.555311
  0
SEQEND
  8
0
  0
SOLID
  8
EBENE_1
  6
CONTINUOUS
 10
-0.354374
 20
0.381610
 11
0.291768
 21
0.383638
 12
-0.428047
 22
0.660075
 13
0.174165
 23
0.821614
  0
POLYLINE
  8
EBENE_1
 62
    39
  6
CONTINUOUS
 66
     1
 40
0.010000
 41
0.010000
 70
     1
  0
VERTEX
  8
EBENE_1
 62
    39
  6
CONTINUOUS
 10
-0.354374
 20
0.381610
  0
VERTEX
  8
EBENE_1
 62
    39
  6
CONTINUOUS
 10
0.291768
 20
0.383638
  0
VERTEX
  8
EBENE_1
 62
    39
  6
CONTINUOUS
 10
0.174165
 20
0.821614
  0
VERTEX
  8
EBENE_1
 62
    39
  6
CONTINUOUS
 10
-0.428047
 20
0.660075
  0
SEQEND
  8
0
  0
SOLID
  8
EBENE_1
  6
CONTINUOUS
 10
-0.346264
 20
0.388370
 11
0.282307
 21
0.391071
 12
-0.417909
 22
0.658047
 13
0.167406
 23
0.814177
  0
POLYLINE
  8
EBENE_1
 62
    39
  6
CONTINUOUS
 66
     1
 40
0.010000
 41
0.010000
 70
     1
  0
VERTEX
  8
EBENE_1
 62
    39
  6
CONTINUOUS
 10
-0.346264
 20
0.388370
  0
VERTEX
  8
EBENE_1
 62
    39
  6
CONTINUOUS
 10
0.282307
 20
0.391071
  0
VERTEX
  8
EBENE_1
 62
    39
  6
CONTINUOUS
 10
0.167406
 20
0.814177
  0
VERTEX
  8
EBENE_1
 62
    39
  6
CONTINUOUS
 10
-0.417909
 20
0.658047
  0
SEQEND
  8
0
  0
POLYLINE
  8
EBENE_1
 62
    39
  6
CONTINUOUS
 66
     1
 40
0.010000
 41
0.010000
  0
VERTEX
  8
EBENE_1
 62
    39
  6
CONTINUOUS
 10
0.178220
 20
0.602626
  0
VERTEX
  8
EBENE_1
 62
    39
  6
CONTINUOUS
 10
0.180849
 20
0.602474
  0
VERTEX
  8
EBENE_1
 62
    39
  6
CONTINUOUS
 10
0.183026
 20
0.600972
  0
VERTEX
  8
EBENE_1
 62
    39
  6
CONTINUOUS
 10
0.184303
 20
0.598571
  0
SEQEND
  8
0
  0
POLYLINE
  8
EBENE_1
 62
    39
  6
CONTINUOUS
 66
     1
 40
0.010000
 41
0.010000
  0
VERTEX
  8
EBENE_1
 62
    39
  6
CONTINUOUS
 10
0.184303
 20
0.598571
  0
VERTEX
  8
EBENE_1
 62
    39
  6
CONTINUOUS
 10
0.184353
 20
0.595315
  0
VERTEX
  8
EBENE_1
 62
    39
  6
CONTINUOUS
 10
0.183351
 20
0.592812
  0
VERTEX
  8
EBENE_1
 62
    39
  6
CONTINUOUS
 10
0.181598
 20
0.591811
  0
SEQEND
  8
0
  0
POLYLINE
  8
EBENE_1
 62
    39
  6
CONTINUOUS
 66
     1
 40
0.010000
 41
0.010000
  0
VERTEX
  8
EBENE_1
 62
    39
  6
CONTINUOUS
 10
0.181598
 20
0.591811
  0
VERTEX
  8
EBENE_1
 62
    39
  6
CONTINUOUS
 10
0.179122
 20
0.591960
  0
VERTEX
  8
EBENE_1
 62
    39
  6
CONTINUOUS
 10
0.177094
 20
0.593462
  0
VERTEX
  8
EBENE_1
 62
    39
  6
CONTINUOUS
 10
0.175516
 20
0.595866
  0
SEQEND
  8
0
  0
POLYLINE
  8
EBENE_1
 62
    39
  6
CONTINUOUS
 66
     1
 40
0.010000
 41
0.010000
  0
VERTEX
  8
EBENE_1
 62
    39
  6
CONTINUOUS
 10
0.175516
 20
0.595866
  0
VERTEX
  8
EBENE_1
 62
    39
  6
CONTINUOUS
 10
0.175467
 20
0.598970
  0
VERTEX
  8
EBENE_1
 62
    39
  6
CONTINUOUS
 10
0.176469
 20
0.601323
  0
VERTEX
  8
EBENE_1
 62
    39
  6
CONTINUOUS
 10
0.178220
 20
0.602626
  0
SEQEND
  8
0
  0
POLYLINE
  8
EBENE_1
 62
    39
  6
CONTINUOUS
 66
     1
 40
0.010000
 41
0.010000
  0
VERTEX
  8
EBENE_1
 62
    39
  6
CONTINUOUS
 10
0.207961
 20
0.501917
  0
VERTEX
  8
EBENE_1
 62
    39
  6
CONTINUOUS
 10
0.210114
 20
0.501743
  0
VERTEX
  8
EBENE_1
 62
    39
  6
CONTINUOUS
 10
0.212116
 20
0.500065
  0
VERTEX
  8
EBENE_1
 62
    39
  6
CONTINUOUS
 10
0.213366
 20
0.497185
  0
SEQEND
  8
0
  0
POLYLINE
  8
EBENE_1
 62
    39
  6
CONTINUOUS
 66
     1
 40
0.010000
 41
0.010000
  0
VERTEX
  8
EBENE_1
 62
    39
  6
CONTINUOUS
 10
0.213366
 20
0.497185
  0
VERTEX
  8
EBENE_1
 62
    39
  6
CONTINUOUS
 10
0.213567
 20
0.494082
  0
VERTEX
  8
EBENE_1
 62
    39
  6
CONTINUOUS
 10
0.212716
 20
0.491728
  0
VERTEX
  8
EBENE_1
 62
    39
  6
CONTINUOUS
 10
0.210665
 20
0.490425
  0
SEQEND
  8
0
  0
POLYLINE
  8
EBENE_1
 62
    39
  6
CONTINUOUS
 66
     1
 40
0.010000
 41
0.010000
  0
VERTEX
  8
EBENE_1
 62
    39
  6
CONTINUOUS
 10
0.210665
 20
0.490425
  0
VERTEX
  8
EBENE_1
 62
    39
  6
CONTINUOUS
 10
0.208510
 20
0.490602
  0
VERTEX
  8
EBENE_1
 62
    39
  6
CONTINUOUS
 10
0.206508
 20
0.492280
  0
VERTEX
  8
EBENE_1
 62
    39
  6
CONTINUOUS
 10
0.205256
 20
0.495157
  0
SEQEND
  8
0
  0
POLYLINE
  8
EBENE_1
 62
    39
  6
CONTINUOUS
 66
     1
 40
0.010000
 41
0.010000
  0
VERTEX
  8
EBENE_1
 62
    39
  6
CONTINUOUS
 10
0.205256
 20
0.495157
  0
VERTEX
  8
EBENE_1
 62
    39
  6
CONTINUOUS
 10
0.204756
 20
0.497963
  0
VERTEX
  8
EBENE_1
 62
    39
  6
CONTINUOUS
 10
0.205757
 20
0.500467
  0
VERTEX
  8
EBENE_1
 62
    39
  6
CONTINUOUS
 10
0.207961
 20
0.501917
  0
SEQEND
  8
0
  0
POLYLINE
  8
EBENE_1
 62
    39
  6
CONTINUOUS
 66
     1
 40
0.010000
 41
0.010000
  0
VERTEX
  8
EBENE_1
 62
    39
  6
CONTINUOUS
 10
-0.061043
 20
0.732394
  0
VERTEX
  8
EBENE_1
 62
    39
  6
CONTINUOUS
 10
-0.058890
 20
0.732219
  0
VERTEX
  8
EBENE_1
 62
    39
  6
CONTINUOUS
 10
-0.056888
 20
0.730543
  0
VERTEX
  8
EBENE_1
 62
    39
  6
CONTINUOUS
 10
-0.055638
 20
0.727665
  0
SEQEND
  8
0
  0
POLYLINE
  8
EBENE_1
 62
    39
  6
CONTINUOUS
 66
     1
 40
0.010000
 41
0.010000
  0
VERTEX
  8
EBENE_1
 62
    39
  6
CONTINUOUS
 10
-0.055638
 20
0.727665
  0
VERTEX
  8
EBENE_1
 62
    39
  6
CONTINUOUS
 10
-0.055136
 20
0.724861
  0
VERTEX
  8
EBENE_1
 62
    39
  6
CONTINUOUS
 10
-0.056138
 20
0.722358
  0
VERTEX
  8
EBENE_1
 62
    39
  6
CONTINUOUS
 10
-0.058343
 20
0.720906
  0
SEQEND
  8
0
  0
POLYLINE
  8
EBENE_1
 62
    39
  6
CONTINUOUS
 66
     1
 40
0.010000
 41
0.010000
  0
VERTEX
  8
EBENE_1
 62
    39
  6
CONTINUOUS
 10
-0.058343
 20
0.720906
  0
VERTEX
  8
EBENE_1
 62
    39
  6
CONTINUOUS
 10
-0.060495
 20
0.721080
  0
VERTEX
  8
EBENE_1
 62
    39
  6
CONTINUOUS
 10
-0.062496
 20
0.722757
  0
VERTEX
  8
EBENE_1
 62
    39
  6
CONTINUOUS
 10
-0.063748
 20
0.725638
  0
SEQEND
  8
0
  0
POLYLINE
  8
EBENE_1
 62
    39
  6
CONTINUOUS
 66
     1
 40
0.010000
 41
0.010000
  0
VERTEX
  8
EBENE_1
 62
    39
  6
CONTINUOUS
 10
-0.063748
 20
0.725638
  0
VERTEX
  8
EBENE_1
 62
    39
  6
CONTINUOUS
 10
-0.063949
 20
0.728741
  0
VERTEX
  8
EBENE_1
 62
    39
  6
CONTINUOUS
 10
-0.063097
 20
0.731094
  0
VERTEX
  8
EBENE_1
 62
    39
  6
CONTINUOUS
 10
-0.061043
 20
0.732394
  0
SEQEND
  8
0
  0
POLYLINE
  8
EBENE_1
 62
    39
  6
CONTINUOUS
 66
     1
 40
0.010000
 41
0.010000
  0
VERTEX
  8
EBENE_1
 62
    39
  6
CONTINUOUS
 10
-0.177295
 20
0.699276
  0
VERTEX
  8
EBENE_1
 62
    39
  6
CONTINUOUS
 10
-0.175118
 20
0.699101
  0
VERTEX
  8
EBENE_1
 62
    39
  6
CONTINUOUS
 10
-0.172941
 20
0.697424
  0
VERTEX
  8
EBENE_1
 62
    39
  6
CONTINUOUS
 10
-0.171213
 20
0.694543
  0
SEQEND
  8
0
  0
POLYLINE
  8
EBENE_1
 62
    39
  6
CONTINUOUS
 66
     1
 40
0.010000
 41
0.010000
  0
VERTEX
  8
EBENE_1
 62
    39
  6
CONTINUOUS
 10
-0.171213
 20
0.694543
  0
VERTEX
  8
EBENE_1
 62
    39
  6
CONTINUOUS
 10
-0.171164
 20
0.691441
  0
VERTEX
  8
EBENE_1
 62
    39
  6
CONTINUOUS
 10
-0.172165
 20
0.689089
  0
VERTEX
  8
EBENE_1
 62
    39
  6
CONTINUOUS
 10
-0.173917
 20
0.687787
  0
SEQEND
  8
0
  0
POLYLINE
  8
EBENE_1
 62
    39
  6
CONTINUOUS
 66
     1
 40
0.010000
 41
0.010000
  0
VERTEX
  8
EBENE_1
 62
    39
  6
CONTINUOUS
 10
-0.173917
 20
0.687787
  0
VERTEX
  8
EBENE_1
 62
    39
  6
CONTINUOUS
 10
-0.176546
 20
0.687962
  0
VERTEX
  8
EBENE_1
 62
    39
  6
CONTINUOUS
 10
-0.178723
 20
0.689639
  0
VERTEX
  8
EBENE_1
 62
    39
  6
CONTINUOUS
 10
-0.180000
 20
0.692520
  0
SEQEND
  8
0
  0
POLYLINE
  8
EBENE_1
 62
    39
  6
CONTINUOUS
 66
     1
 40
0.010000
 41
0.010000
  0
VERTEX
  8
EBENE_1
 62
    39
  6
CONTINUOUS
 10
-0.180000
 20
0.692520
  0
VERTEX
  8
EBENE_1
 62
    39
  6
CONTINUOUS
 10
-0.180050
 20
0.695322
  0
VERTEX
  8
EBENE_1
 62
    39
  6
CONTINUOUS
 10
-0.179048
 20
0.697825
  0
VERTEX
  8
EBENE_1
 62
    39
  6
CONTINUOUS
 10
-0.177295
 20
0.699276
  0
SEQEND
  8
0
  0
POLYLINE
  8
EBENE_1
 62
    39
  6
CONTINUOUS
 66
     1
 40
0.010000
 41
0.010000
 70
     1
  0
VERTEX
  8
EBENE_1
 62
    39
  6
CONTINUOUS
 10
0.070752
 20
0.462717
  0
VERTEX
  8
EBENE_1
 62
    39
  6
CONTINUOUS
 10
0.077609
 20
0.415566
  0
VERTEX
  8
EBENE_1
 62
    39
  6
CONTINUOUS
 10
0.084563
 20
0.388693
  0
VERTEX
  8
EBENE_1
 62
    39
  6
CONTINUOUS
 10
0.091874
 20
0.377553
  0
VERTEX
  8
EBENE_1
 62
    39
  6
CONTINUOUS
 10
0.099801
 20
0.377607
  0
VERTEX
  8
EBENE_1
 62
    39
  6
CONTINUOUS
 10
0.108602
 20
0.384311
  0
VERTEX
  8
EBENE_1
 62
    39
  6
CONTINUOUS
 10
0.737854
 20
0.381610
  0
VERTEX
  8
EBENE_1
 62
    39
  6
CONTINUOUS
 10
0.593217
 20
0.927051
  0
VERTEX
  8
EBENE_1
 62
    39
  6
CONTINUOUS
 10
-0.009677
 20
0.765516
  0
SEQEND
  8
0
  0
POLYLINE
  8
EBENE_1
 62
    39
  6
CONTINUOUS
 66
     1
 40
0.010000
 41
0.010000
 70
     1
  0
VERTEX
  8
EBENE_1
 62
    39
  6
CONTINUOUS
 10
0.078866
 20
0.468122
  0
VERTEX
  8
EBENE_1
 62
    39
  6
CONTINUOUS
 10
0.085646
 20
0.422552
  0
VERTEX
  8
EBENE_1
 62
    39
  6
CONTINUOUS
 10
0.092394
 20
0.396511
  0
VERTEX
  8
EBENE_1
 62
    39
  6
CONTINUOUS
 10
0.099402
 20
0.385686
  0
VERTEX
  8
EBENE_1
 62
    39
  6
CONTINUOUS
 10
0.106961
 20
0.385762
  0
VERTEX
  8
EBENE_1
 62
    39
  6
CONTINUOUS
 10
0.115362
 20
0.392425
  0
VERTEX
  8
EBENE_1
 62
    39
  6
CONTINUOUS
 10
0.727717
 20
0.389043
  0
VERTEX
  8
EBENE_1
 62
    39
  6
CONTINUOUS
 10
0.587134
 20
0.918264
  0
VERTEX
  8
EBENE_1
 62
    39
  6
CONTINUOUS
 10
0.000461
 20
0.761461
  0
SEQEND
  8
0
  0
POLYLINE
  8
EBENE_1
 62
    39
  6
CONTINUOUS
 66
     1
 40
0.010000
 41
0.010000
  0
VERTEX
  8
EBENE_1
 62
    39
  6
CONTINUOUS
 10
0.597272
 20
0.708063
  0
VERTEX
  8
EBENE_1
 62
    39
  6
CONTINUOUS
 10
0.599900
 20
0.707889
  0
VERTEX
  8
EBENE_1
 62
    39
  6
CONTINUOUS
 10
0.602077
 20
0.706211
  0
VERTEX
  8
EBENE_1
 62
    39
  6
CONTINUOUS
 10
0.603354
 20
0.703331
  0
SEQEND
  8
0
  0
POLYLINE
  8
EBENE_1
 62
    39
  6
CONTINUOUS
 66
     1
 40
0.010000
 41
0.010000
  0
VERTEX
  8
EBENE_1
 62
    39
  6
CONTINUOUS
 10
0.603354
 20
0.703331
  0
VERTEX
  8
EBENE_1
 62
    39
  6
CONTINUOUS
 10
0.603405
 20
0.700227
  0
VERTEX
  8
EBENE_1
 62
    39
  6
CONTINUOUS
 10
0.602402
 20
0.697874
  0
VERTEX
  8
EBENE_1
 62
    39
  6
CONTINUOUS
 10
0.600650
 20
0.696571
  0
SEQEND
  8
0
  0
POLYLINE
  8
EBENE_1
 62
    39
  6
CONTINUOUS
 66
     1
 40
0.010000
 41
0.010000
  0
VERTEX
  8
EBENE_1
 62
    39
  6
CONTINUOUS
 10
0.600650
 20
0.696571
  0
VERTEX
  8
EBENE_1
 62
    39
  6
CONTINUOUS
 10
0.598172
 20
0.696748
  0
VERTEX
  8
EBENE_1
 62
    39
  6
CONTINUOUS
 10
0.596144
 20
0.698425
  0
VERTEX
  8
EBENE_1
 62
    39
  6
CONTINUOUS
 10
0.594567
 20
0.701303
  0
SEQEND
  8
0
  0
POLYLINE
  8
EBENE_1
 62
    39
  6
CONTINUOUS
 66
     1
 40
0.010000
 41
0.010000
  0
VERTEX
  8
EBENE_1
 62
    39
  6
CONTINUOUS
 10
0.594567
 20
0.701303
  0
VERTEX
  8
EBENE_1
 62
    39
  6
CONTINUOUS
 10
0.594517
 20
0.704108
  0
VERTEX
  8
EBENE_1
 62
    39
  6
CONTINUOUS
 10
0.595519
 20
0.706612
  0
VERTEX
  8
EBENE_1
 62
    39
  6
CONTINUOUS
 10
0.597272
 20
0.708063
  0
SEQEND
  8
0
  0
POLYLINE
  8
EBENE_1
 62
    39
  6
CONTINUOUS
 66
     1
 40
0.010000
 41
0.010000
  0
VERTEX
  8
EBENE_1
 62
    39
  6
CONTINUOUS
 10
0.626335
 20
0.606681
  0
VERTEX
  8
EBENE_1
 62
    39
  6
CONTINUOUS
 10
0.628963
 20
0.606504
  0
VERTEX
  8
EBENE_1
 62
    39
  6
CONTINUOUS
 10
0.631140
 20
0.604827
  0
VERTEX
  8
EBENE_1
 62
    39
  6
CONTINUOUS
 10
0.632417
 20
0.601949
  0
SEQEND
  8
0
  0
POLYLINE
  8
EBENE_1
 62
    39
  6
CONTINUOUS
 66
     1
 40
0.010000
 41
0.010000
  0
VERTEX
  8
EBENE_1
 62
    39
  6
CONTINUOUS
 10
0.632417
 20
0.601949
  0
VERTEX
  8
EBENE_1
 62
    39
  6
CONTINUOUS
 10
0.632468
 20
0.599145
  0
VERTEX
  8
EBENE_1
 62
    39
  6
CONTINUOUS
 10
0.631465
 20
0.596641
  0
VERTEX
  8
EBENE_1
 62
    39
  6
CONTINUOUS
 10
0.629713
 20
0.595189
  0
SEQEND
  8
0
  0
POLYLINE
  8
EBENE_1
 62
    39
  6
CONTINUOUS
 66
     1
 40
0.010000
 41
0.010000
  0
VERTEX
  8
EBENE_1
 62
    39
  6
CONTINUOUS
 10
0.629713
 20
0.595189
  0
VERTEX
  8
EBENE_1
 62
    39
  6
CONTINUOUS
 10
0.627535
 20
0.595366
  0
VERTEX
  8
EBENE_1
 62
    39
  6
CONTINUOUS
 10
0.625358
 20
0.597043
  0
VERTEX
  8
EBENE_1
 62
    39
  6
CONTINUOUS
 10
0.623630
 20
0.599921
  0
SEQEND
  8
0
  0
POLYLINE
  8
EBENE_1
 62
    39
  6
CONTINUOUS
 66
     1
 40
0.010000
 41
0.010000
  0
VERTEX
  8
EBENE_1
 62
    39
  6
CONTINUOUS
 10
0.623630
 20
0.599921
  0
VERTEX
  8
EBENE_1
 62
    39
  6
CONTINUOUS
 10
0.623581
 20
0.603025
  0
VERTEX
  8
EBENE_1
 62
    39
  6
CONTINUOUS
 10
0.624583
 20
0.605378
  0
VERTEX
  8
EBENE_1
 62
    39
  6
CONTINUOUS
 10
0.626335
 20
0.606681
  0
SEQEND
  8
0
  0
POLYLINE
  8
EBENE_1
 62
    39
  6
CONTINUOUS
 66
     1
 40
0.010000
 41
0.010000
  0
VERTEX
  8
EBENE_1
 62
    39
  6
CONTINUOUS
 10
0.358008
 20
0.837157
  0
VERTEX
  8
EBENE_1
 62
    39
  6
CONTINUOUS
 10
0.360161
 20
0.837008
  0
VERTEX
  8
EBENE_1
 62
    39
  6
CONTINUOUS
 10
0.362163
 20
0.835506
  0
VERTEX
  8
EBENE_1
 62
    39
  6
CONTINUOUS
 10
0.363413
 20
0.833102
  0
SEQEND
  8
0
  0
POLYLINE
  8
EBENE_1
 62
    39
  6
CONTINUOUS
 66
     1
 40
0.010000
 41
0.010000
  0
VERTEX
  8
EBENE_1
 62
    39
  6
CONTINUOUS
 10
0.363413
 20
0.833102
  0
VERTEX
  8
EBENE_1
 62
    39
  6
CONTINUOUS
 10
0.363914
 20
0.829999
  0
VERTEX
  8
EBENE_1
 62
    39
  6
CONTINUOUS
 10
0.362913
 20
0.827645
  0
VERTEX
  8
EBENE_1
 62
    39
  6
CONTINUOUS
 10
0.360713
 20
0.826343
  0
SEQEND
  8
0
  0
POLYLINE
  8
EBENE_1
 62
    39
  6
CONTINUOUS
 66
     1
 40
0.010000
 41
0.010000
  0
VERTEX
  8
EBENE_1
 62
    39
  6
CONTINUOUS
 10
0.360713
 20
0.826343
  0
VERTEX
  8
EBENE_1
 62
    39
  6
CONTINUOUS
 10
0.358558
 20
0.826493
  0
VERTEX
  8
EBENE_1
 62
    39
  6
CONTINUOUS
 10
0.356555
 20
0.827995
  0
VERTEX
  8
EBENE_1
 62
    39
  6
CONTINUOUS
 10
0.355303
 20
0.830398
  0
SEQEND
  8
0
  0
POLYLINE
  8
EBENE_1
 62
    39
  6
CONTINUOUS
 66
     1
 40
0.010000
 41
0.010000
  0
VERTEX
  8
EBENE_1
 62
    39
  6
CONTINUOUS
 10
0.355303
 20
0.830398
  0
VERTEX
  8
EBENE_1
 62
    39
  6
CONTINUOUS
 10
0.355102
 20
0.833653
  0
VERTEX
  8
EBENE_1
 62
    39
  6
CONTINUOUS
 10
0.355954
 20
0.836156
  0
VERTEX
  8
EBENE_1
 62
    39
  6
CONTINUOUS
 10
0.358008
 20
0.837157
  0
SEQEND
  8
0
  0
POLYLINE
  8
EBENE_1
 62
    39
  6
CONTINUOUS
 66
     1
 40
0.010000
 41
0.010000
  0
VERTEX
  8
EBENE_1
 62
    39
  6
CONTINUOUS
 10
0.241079
 20
0.804039
  0
VERTEX
  8
EBENE_1
 62
    39
  6
CONTINUOUS
 10
0.243232
 20
0.803865
  0
VERTEX
  8
EBENE_1
 62
    39
  6
CONTINUOUS
 10
0.245234
 20
0.802188
  0
VERTEX
  8
EBENE_1
 62
    39
  6
CONTINUOUS
 10
0.246484
 20
0.799307
  0
SEQEND
  8
0
  0
POLYLINE
  8
EBENE_1
 62
    39
  6
CONTINUOUS
 66
     1
 40
0.010000
 41
0.010000
  0
VERTEX
  8
EBENE_1
 62
    39
  6
CONTINUOUS
 10
0.246484
 20
0.799307
  0
VERTEX
  8
EBENE_1
 62
    39
  6
CONTINUOUS
 10
0.246986
 20
0.796505
  0
VERTEX
  8
EBENE_1
 62
    39
  6
CONTINUOUS
 10
0.245985
 20
0.794001
  0
VERTEX
  8
EBENE_1
 62
    39
  6
CONTINUOUS
 10
0.243783
 20
0.792547
  0
SEQEND
  8
0
  0
POLYLINE
  8
EBENE_1
 62
    39
  6
CONTINUOUS
 66
     1
 40
0.010000
 41
0.010000
  0
VERTEX
  8
EBENE_1
 62
    39
  6
CONTINUOUS
 10
0.243783
 20
0.792547
  0
VERTEX
  8
EBENE_1
 62
    39
  6
CONTINUOUS
 10
0.241629
 20
0.792724
  0
VERTEX
  8
EBENE_1
 62
    39
  6
CONTINUOUS
 10
0.239626
 20
0.794402
  0
VERTEX
  8
EBENE_1
 62
    39
  6
CONTINUOUS
 10
0.238374
 20
0.797280
  0
SEQEND
  8
0
  0
POLYLINE
  8
EBENE_1
 62
    39
  6
CONTINUOUS
 66
     1
 40
0.010000
 41
0.010000
  0
VERTEX
  8
EBENE_1
 62
    39
  6
CONTINUOUS
 10
0.238374
 20
0.797280
  0
VERTEX
  8
EBENE_1
 62
    39
  6
CONTINUOUS
 10
0.238173
 20
0.800385
  0
VERTEX
  8
EBENE_1
 62
    39
  6
CONTINUOUS
 10
0.239025
 20
0.802737
  0
VERTEX
  8
EBENE_1
 62
    39
  6
CONTINUOUS
 10
0.241079
 20
0.804039
  0
SEQEND
  8
0
  0
POLYLINE
  8
EBENE_1
 62
    39
  6
CONTINUOUS
 66
     1
 40
0.010000
 41
0.010000
 70
     1
  0
VERTEX
  8
EBENE_1
 62
    39
  6
CONTINUOUS
 10
0.506701
 20
0.568154
  0
VERTEX
  8
EBENE_1
 62
    39
  6
CONTINUOUS
 10
0.511883
 20
0.550460
  0
VERTEX
  8
EBENE_1
 62
    39
  6
CONTINUOUS
 10
0.516222
 20
0.533528
  0
VERTEX
  8
EBENE_1
 62
    39
  6
CONTINUOUS
 10
0.520218
 20
0.517306
  0
VERTEX
  8
EBENE_1
 62
    39
  6
CONTINUOUS
 10
0.524370
 20
0.501738
  0
VERTEX
  8
EBENE_1
 62
    39
  6
CONTINUOUS
 10
0.529180
 20
0.486772
  0
VERTEX
  8
EBENE_1
 62
    39
  6
CONTINUOUS
 10
0.535147
 20
0.472354
  0
VERTEX
  8
EBENE_1
 62
    39
  6
CONTINUOUS
 10
0.542772
 20
0.458431
  0
VERTEX
  8
EBENE_1
 62
    39
  6
CONTINUOUS
 10
0.552554
 20
0.444949
  0
VERTEX
  8
EBENE_1
 62
    39
  6
CONTINUOUS
 10
0.564995
 20
0.431855
  0
VERTEX
  8
EBENE_1
 62
    39
  6
CONTINUOUS
 10
0.580594
 20
0.419095
  0
VERTEX
  8
EBENE_1
 62
    39
  6
CONTINUOUS
 10
0.599851
 20
0.406615
  0
VERTEX
  8
EBENE_1
 62
    39
  6
CONTINUOUS
 10
0.623267
 20
0.394362
  0
VERTEX
  8
EBENE_1
 62
    39
  6
CONTINUOUS
 10
0.651343
 20
0.382283
  0
VERTEX
  8
EBENE_1
 62
    39
  6
CONTINUOUS
 10
1.200165
 20
0.385665
  0
VERTEX
  8
EBENE_1
 62
    39
  6
CONTINUOUS
 10
1.029165
 20
1.031811
  0
VERTEX
  8
EBENE_1
 62
    39
  6
CONTINUOUS
 10
0.426272
 20
0.870276
  0
SEQEND
  8
0
  0
POLYLINE
  8
EBENE_1
 62
    39
  6
CONTINUOUS
 66
     1
 40
0.010000
 41
0.010000
 70
     1
  0
VERTEX
  8
EBENE_1
 62
    39
  6
CONTINUOUS
 10
0.514811
 20
0.571535
  0
VERTEX
  8
EBENE_1
 62
    39
  6
CONTINUOUS
 10
0.519860
 20
0.554297
  0
VERTEX
  8
EBENE_1
 62
    39
  6
CONTINUOUS
 10
0.524098
 20
0.537799
  0
VERTEX
  8
EBENE_1
 62
    39
  6
CONTINUOUS
 10
0.528011
 20
0.521990
  0
VERTEX
  8
EBENE_1
 62
    39
  6
CONTINUOUS
 10
0.532085
 20
0.506817
  0
VERTEX
  8
EBENE_1
 62
    39
  6
CONTINUOUS
 10
0.536805
 20
0.492230
  0
VERTEX
  8
EBENE_1
 62
    39
  6
CONTINUOUS
 10
0.542656
 20
0.478176
  0
VERTEX
  8
EBENE_1
 62
    39
  6
CONTINUOUS
 10
0.550125
 20
0.464604
  0
VERTEX
  8
EBENE_1
 62
    39
  6
CONTINUOUS
 10
0.559695
 20
0.451463
  0
VERTEX
  8
EBENE_1
 62
    39
  6
CONTINUOUS
 10
0.571854
 20
0.438699
  0
VERTEX
  8
EBENE_1
 62
    39
  6
CONTINUOUS
 10
0.587085
 20
0.426263
  0
VERTEX
  8
EBENE_1
 62
    39
  6
CONTINUOUS
 10
0.605876
 20
0.414102
  0
VERTEX
  8
EBENE_1
 62
    39
  6
CONTINUOUS
 10
0.628710
 20
0.402164
  0
VERTEX
  8
EBENE_1
 62
    39
  6
CONTINUOUS
 10
0.656075
 20
0.390398
  0
VERTEX
  8
EBENE_1
 62
    39
  6
CONTINUOUS
 10
1.190024
 20
0.393776
  0
VERTEX
  8
EBENE_1
 62
    39
  6
CONTINUOUS
 10
1.023079
 20
1.023705
  0
VERTEX
  8
EBENE_1
 62
    39
  6
CONTINUOUS
 10
0.437087
 20
0.866220
  0
SEQEND
  8
0
  0
POLYLINE
  8
EBENE_1
 62
    39
  6
CONTINUOUS
 66
     1
 40
0.010000
 41
0.010000
  0
VERTEX
  8
EBENE_1
 62
    39
  6
CONTINUOUS
 10
1.033220
 20
0.812827
  0
VERTEX
  8
EBENE_1
 62
    39
  6
CONTINUOUS
 10
1.035697
 20
0.812650
  0
VERTEX
  8
EBENE_1
 62
    39
  6
CONTINUOUS
 10
1.037724
 20
0.810972
  0
VERTEX
  8
EBENE_1
 62
    39
  6
CONTINUOUS
 10
1.039303
 20
0.808094
  0
SEQEND
  8
0
  0
POLYLINE
  8
EBENE_1
 62
    39
  6
CONTINUOUS
 66
     1
 40
0.010000
 41
0.010000
  0
VERTEX
  8
EBENE_1
 62
    39
  6
CONTINUOUS
 10
1.039303
 20
0.808094
  0
VERTEX
  8
EBENE_1
 62
    39
  6
CONTINUOUS
 10
1.039352
 20
0.805290
  0
VERTEX
  8
EBENE_1
 62
    39
  6
CONTINUOUS
 10
1.038350
 20
0.802787
  0
VERTEX
  8
EBENE_1
 62
    39
  6
CONTINUOUS
 10
1.036598
 20
0.801335
  0
SEQEND
  8
0
  0
POLYLINE
  8
EBENE_1
 62
    39
  6
CONTINUOUS
 66
     1
 40
0.010000
 41
0.010000
  0
VERTEX
  8
EBENE_1
 62
    39
  6
CONTINUOUS
 10
1.036598
 20
0.801335
  0
VERTEX
  8
EBENE_1
 62
    39
  6
CONTINUOUS
 10
1.033970
 20
0.801512
  0
VERTEX
  8
EBENE_1
 62
    39
  6
CONTINUOUS
 10
1.031793
 20
0.803189
  0
VERTEX
  8
EBENE_1
 62
    39
  6
CONTINUOUS
 10
1.030516
 20
0.806067
  0
SEQEND
  8
0
  0
POLYLINE
  8
EBENE_1
 62
    39
  6
CONTINUOUS
 66
     1
 40
0.010000
 41
0.010000
  0
VERTEX
  8
EBENE_1
 62
    39
  6
CONTINUOUS
 10
1.030516
 20
0.806067
  0
VERTEX
  8
EBENE_1
 62
    39
  6
CONTINUOUS
 10
1.030465
 20
0.809170
  0
VERTEX
  8
EBENE_1
 62
    39
  6
CONTINUOUS
 10
1.031468
 20
0.811524
  0
VERTEX
  8
EBENE_1
 62
    39
  6
CONTINUOUS
 10
1.033220
 20
0.812827
  0
SEQEND
  8
0
  0
POLYLINE
  8
EBENE_1
 62
    39
  6
CONTINUOUS
 66
     1
 40
0.010000
 41
0.010000
  0
VERTEX
  8
EBENE_1
 62
    39
  6
CONTINUOUS
 10
0.702035
 20
0.891228
  0
VERTEX
  8
EBENE_1
 62
    39
  6
CONTINUOUS
 10
0.704186
 20
0.891054
  0
VERTEX
  8
EBENE_1
 62
    39
  6
CONTINUOUS
 10
0.706188
 20
0.889376
  0
VERTEX
  8
EBENE_1
 62
    39
  6
CONTINUOUS
 10
0.707441
 20
0.886496
  0
SEQEND
  8
0
  0
POLYLINE
  8
EBENE_1
 62
    39
  6
CONTINUOUS
 66
     1
 40
0.010000
 41
0.010000
  0
VERTEX
  8
EBENE_1
 62
    39
  6
CONTINUOUS
 10
0.707441
 20
0.886496
  0
VERTEX
  8
EBENE_1
 62
    39
  6
CONTINUOUS
 10
0.707642
 20
0.883694
  0
VERTEX
  8
EBENE_1
 62
    39
  6
CONTINUOUS
 10
0.706790
 20
0.881191
  0
VERTEX
  8
EBENE_1
 62
    39
  6
CONTINUOUS
 10
0.704736
 20
0.879740
  0
SEQEND
  8
0
  0
POLYLINE
  8
EBENE_1
 62
    39
  6
CONTINUOUS
 66
     1
 40
0.010000
 41
0.010000
  0
VERTEX
  8
EBENE_1
 62
    39
  6
CONTINUOUS
 10
0.704736
 20
0.879740
  0
VERTEX
  8
EBENE_1
 62
    39
  6
CONTINUOUS
 10
0.702584
 20
0.879914
  0
VERTEX
  8
EBENE_1
 62
    39
  6
CONTINUOUS
 10
0.700583
 20
0.881591
  0
VERTEX
  8
EBENE_1
 62
    39
  6
CONTINUOUS
 10
0.699331
 20
0.884469
  0
SEQEND
  8
0
  0
POLYLINE
  8
EBENE_1
 62
    39
  6
CONTINUOUS
 66
     1
 40
0.010000
 41
0.010000
  0
VERTEX
  8
EBENE_1
 62
    39
  6
CONTINUOUS
 10
0.699331
 20
0.884469
  0
VERTEX
  8
EBENE_1
 62
    39
  6
CONTINUOUS
 10
0.698831
 20
0.887575
  0
VERTEX
  8
EBENE_1
 62
    39
  6
CONTINUOUS
 10
0.699832
 20
0.889928
  0
VERTEX
  8
EBENE_1
 62
    39
  6
CONTINUOUS
 10
0.702035
 20
0.891228
  0
SEQEND
  8
0
  0
POLYLINE
  8
EBENE_1
 62
    39
  6
CONTINUOUS
 66
     1
 40
0.010000
 41
0.010000
  0
VERTEX
  8
EBENE_1
 62
    39
  6
CONTINUOUS
 10
0.847350
 20
0.918941
  0
VERTEX
  8
EBENE_1
 62
    39
  6
CONTINUOUS
 10
0.849979
 20
0.918764
  0
VERTEX
  8
EBENE_1
 62
    39
  6
CONTINUOUS
 10
0.852156
 20
0.917086
  0
VERTEX
  8
EBENE_1
 62
    39
  6
CONTINUOUS
 10
0.853433
 20
0.914209
  0
SEQEND
  8
0
  0
POLYLINE
  8
EBENE_1
 62
    39
  6
CONTINUOUS
 66
     1
 40
0.010000
 41
0.010000
  0
VERTEX
  8
EBENE_1
 62
    39
  6
CONTINUOUS
 10
0.853433
 20
0.914209
  0
VERTEX
  8
EBENE_1
 62
    39
  6
CONTINUOUS
 10
0.853482
 20
0.911105
  0
VERTEX
  8
EBENE_1
 62
    39
  6
CONTINUOUS
 10
0.852480
 20
0.908752
  0
VERTEX
  8
EBENE_1
 62
    39
  6
CONTINUOUS
 10
0.850728
 20
0.907449
  0
SEQEND
  8
0
  0
POLYLINE
  8
EBENE_1
 62
    39
  6
CONTINUOUS
 66
     1
 40
0.010000
 41
0.010000
  0
VERTEX
  8
EBENE_1
 62
    39
  6
CONTINUOUS
 10
0.850728
 20
0.907449
  0
VERTEX
  8
EBENE_1
 62
    39
  6
CONTINUOUS
 10
0.848101
 20
0.907626
  0
VERTEX
  8
EBENE_1
 62
    39
  6
CONTINUOUS
 10
0.845923
 20
0.909303
  0
VERTEX
  8
EBENE_1
 62
    39
  6
CONTINUOUS
 10
0.844646
 20
0.912181
  0
SEQEND
  8
0
  0
POLYLINE
  8
EBENE_1
 62
    39
  6
CONTINUOUS
 66
     1
 40
0.010000
 41
0.010000
  0
VERTEX
  8
EBENE_1
 62
    39
  6
CONTINUOUS
 10
0.844646
 20
0.912181
  0
VERTEX
  8
EBENE_1
 62
    39
  6
CONTINUOUS
 10
0.844597
 20
0.914985
  0
VERTEX
  8
EBENE_1
 62
    39
  6
CONTINUOUS
 10
0.845598
 20
0.917488
  0
VERTEX
  8
EBENE_1
 62
    39
  6
CONTINUOUS
 10
0.847350
 20
0.918941
  0
SEQEND
  8
0
  0
POLYLINE
  8
EBENE_1
 62
    39
  6
CONTINUOUS
 66
     1
 40
0.010000
 41
0.010000
  0
VERTEX
  8
EBENE_1
 62
    39
  6
CONTINUOUS
 10
1.062283
 20
0.711441
  0
VERTEX
  8
EBENE_1
 62
    39
  6
CONTINUOUS
 10
1.064910
 20
0.711292
  0
VERTEX
  8
EBENE_1
 62
    39
  6
CONTINUOUS
 10
1.067088
 20
0.709791
  0
VERTEX
  8
EBENE_1
 62
    39
  6
CONTINUOUS
 10
1.068366
 20
0.707390
  0
SEQEND
  8
0
  0
POLYLINE
  8
EBENE_1
 62
    39
  6
CONTINUOUS
 66
     1
 40
0.010000
 41
0.010000
  0
VERTEX
  8
EBENE_1
 62
    39
  6
CONTINUOUS
 10
1.068366
 20
0.707390
  0
VERTEX
  8
EBENE_1
 62
    39
  6
CONTINUOUS
 10
1.068416
 20
0.704109
  0
VERTEX
  8
EBENE_1
 62
    39
  6
CONTINUOUS
 10
1.067414
 20
0.701430
  0
VERTEX
  8
EBENE_1
 62
    39
  6
CONTINUOUS
 10
1.065661
 20
0.699953
  0
SEQEND
  8
0
  0
POLYLINE
  8
EBENE_1
 62
    39
  6
CONTINUOUS
 66
     1
 40
0.010000
 41
0.010000
  0
VERTEX
  8
EBENE_1
 62
    39
  6
CONTINUOUS
 10
1.065661
 20
0.699953
  0
VERTEX
  8
EBENE_1
 62
    39
  6
CONTINUOUS
 10
1.063032
 20
0.700579
  0
VERTEX
  8
EBENE_1
 62
    39
  6
CONTINUOUS
 10
1.060854
 20
0.702256
  0
VERTEX
  8
EBENE_1
 62
    39
  6
CONTINUOUS
 10
1.059579
 20
0.704685
  0
SEQEND
  8
0
  0
POLYLINE
  8
EBENE_1
 62
    39
  6
CONTINUOUS
 66
     1
 40
0.010000
 41
0.010000
  0
VERTEX
  8
EBENE_1
 62
    39
  6
CONTINUOUS
 10
1.059579
 20
0.704685
  0
VERTEX
  8
EBENE_1
 62
    39
  6
CONTINUOUS
 10
1.059528
 20
0.707788
  0
VERTEX
  8
EBENE_1
 62
    39
  6
CONTINUOUS
 10
1.060529
 20
0.710141
  0
VERTEX
  8
EBENE_1
 62
    39
  6
CONTINUOUS
 10
1.062283
 20
0.711441
  0
SEQEND
  8
0
  0
SOLID
  8
EBENE_1
  6
CONTINUOUS
 10
-1.906213
 20
0.387016
 11
-1.235732
 21
0.382961
 12
-1.990024
 22
0.729693
 13
-1.387134
 23
0.891228
  0
POLYLINE
  8
EBENE_1
 62
    39
  6
CONTINUOUS
 66
     1
 40
0.010000
 41
0.010000
 70
     1
  0
VERTEX
  8
EBENE_1
 62
    39
  6
CONTINUOUS
 10
-1.906213
 20
0.387016
  0
VERTEX
  8
EBENE_1
 62
    39
  6
CONTINUOUS
 10
-1.235732
 20
0.382961
  0
VERTEX
  8
EBENE_1
 62
    39
  6
CONTINUOUS
 10
-1.387134
 20
0.891228
  0
VERTEX
  8
EBENE_1
 62
    39
  6
CONTINUOUS
 10
-1.990024
 20
0.729693
  0
SEQEND
  8
0
  0
SOLID
  8
EBENE_1
  6
CONTINUOUS
 10
-1.897429
 20
0.394453
 11
-1.246547
 21
0.390398
 12
-1.979209
 22
0.726988
 13
-1.393890
 23
0.883795
  0
POLYLINE
  8
EBENE_1
 62
    39
  6
CONTINUOUS
 66
     1
 40
0.010000
 41
0.010000
 70
     1
  0
VERTEX
  8
EBENE_1
 62
    39
  6
CONTINUOUS
 10
-1.897429
 20
0.394453
  0
VERTEX
  8
EBENE_1
 62
    39
  6
CONTINUOUS
 10
-1.246547
 20
0.390398
  0
VERTEX
  8
EBENE_1
 62
    39
  6
CONTINUOUS
 10
-1.393890
 20
0.883795
  0
VERTEX
  8
EBENE_1
 62
    39
  6
CONTINUOUS
 10
-1.979209
 20
0.726988
  0
SEQEND
  8
0
  0
POLYLINE
  8
EBENE_1
 62
    39
  6
CONTINUOUS
 66
     1
 40
0.010000
 41
0.010000
  0
VERTEX
  8
EBENE_1
 62
    39
  6
CONTINUOUS
 10
-1.383079
 20
0.672240
  0
VERTEX
  8
EBENE_1
 62
    39
  6
CONTINUOUS
 10
-1.380600
 20
0.672091
  0
VERTEX
  8
EBENE_1
 62
    39
  6
CONTINUOUS
 10
-1.378571
 20
0.670589
  0
VERTEX
  8
EBENE_1
 62
    39
  6
CONTINUOUS
 10
-1.376992
 20
0.668185
  0
SEQEND
  8
0
  0
POLYLINE
  8
EBENE_1
 62
    39
  6
CONTINUOUS
 66
     1
 40
0.010000
 41
0.010000
  0
VERTEX
  8
EBENE_1
 62
    39
  6
CONTINUOUS
 10
-1.376992
 20
0.668185
  0
VERTEX
  8
EBENE_1
 62
    39
  6
CONTINUOUS
 10
-1.376944
 20
0.664906
  0
VERTEX
  8
EBENE_1
 62
    39
  6
CONTINUOUS
 10
-1.377945
 20
0.662228
  0
VERTEX
  8
EBENE_1
 62
    39
  6
CONTINUOUS
 10
-1.379697
 20
0.660752
  0
SEQEND
  8
0
  0
POLYLINE
  8
EBENE_1
 62
    39
  6
CONTINUOUS
 66
     1
 40
0.010000
 41
0.010000
  0
VERTEX
  8
EBENE_1
 62
    39
  6
CONTINUOUS
 10
-1.379697
 20
0.660752
  0
VERTEX
  8
EBENE_1
 62
    39
  6
CONTINUOUS
 10
-1.382326
 20
0.661378
  0
VERTEX
  8
EBENE_1
 62
    39
  6
CONTINUOUS
 10
-1.384504
 20
0.663055
  0
VERTEX
  8
EBENE_1
 62
    39
  6
CONTINUOUS
 10
-1.385780
 20
0.665484
  0
SEQEND
  8
0
  0
POLYLINE
  8
EBENE_1
 62
    39
  6
CONTINUOUS
 66
     1
 40
0.010000
 41
0.010000
  0
VERTEX
  8
EBENE_1
 62
    39
  6
CONTINUOUS
 10
-1.385780
 20
0.665484
  0
VERTEX
  8
EBENE_1
 62
    39
  6
CONTINUOUS
 10
-1.385831
 20
0.668587
  0
VERTEX
  8
EBENE_1
 62
    39
  6
CONTINUOUS
 10
-1.384831
 20
0.670940
  0
VERTEX
  8
EBENE_1
 62
    39
  6
CONTINUOUS
 10
-1.383079
 20
0.672240
  0
SEQEND
  8
0
  0
POLYLINE
  8
EBENE_1
 62
    39
  6
CONTINUOUS
 66
     1
 40
0.010000
 41
0.010000
  0
VERTEX
  8
EBENE_1
 62
    39
  6
CONTINUOUS
 10
-1.354016
 20
0.571535
  0
VERTEX
  8
EBENE_1
 62
    39
  6
CONTINUOUS
 10
-1.351386
 20
0.570910
  0
VERTEX
  8
EBENE_1
 62
    39
  6
CONTINUOUS
 10
-1.349207
 20
0.569232
  0
VERTEX
  8
EBENE_1
 62
    39
  6
CONTINUOUS
 10
-1.347929
 20
0.566803
  0
SEQEND
  8
0
  0
POLYLINE
  8
EBENE_1
 62
    39
  6
CONTINUOUS
 66
     1
 40
0.010000
 41
0.010000
  0
VERTEX
  8
EBENE_1
 62
    39
  6
CONTINUOUS
 10
-1.347929
 20
0.566803
  0
VERTEX
  8
EBENE_1
 62
    39
  6
CONTINUOUS
 10
-1.347881
 20
0.563698
  0
VERTEX
  8
EBENE_1
 62
    39
  6
CONTINUOUS
 10
-1.348882
 20
0.561345
  0
VERTEX
  8
EBENE_1
 62
    39
  6
CONTINUOUS
 10
-1.350634
 20
0.560043
  0
SEQEND
  8
0
  0
POLYLINE
  8
EBENE_1
 62
    39
  6
CONTINUOUS
 66
     1
 40
0.010000
 41
0.010000
  0
VERTEX
  8
EBENE_1
 62
    39
  6
CONTINUOUS
 10
-1.350634
 20
0.560043
  0
VERTEX
  8
EBENE_1
 62
    39
  6
CONTINUOUS
 10
-1.353263
 20
0.560194
  0
VERTEX
  8
EBENE_1
 62
    39
  6
CONTINUOUS
 10
-1.355441
 20
0.561695
  0
VERTEX
  8
EBENE_1
 62
    39
  6
CONTINUOUS
 10
-1.356717
 20
0.564098
  0
SEQEND
  8
0
  0
POLYLINE
  8
EBENE_1
 62
    39
  6
CONTINUOUS
 66
     1
 40
0.010000
 41
0.010000
  0
VERTEX
  8
EBENE_1
 62
    39
  6
CONTINUOUS
 10
-1.356717
 20
0.564098
  0
VERTEX
  8
EBENE_1
 62
    39
  6
CONTINUOUS
 10
-1.356768
 20
0.567377
  0
VERTEX
  8
EBENE_1
 62
    39
  6
CONTINUOUS
 10
-1.355768
 20
0.570057
  0
VERTEX
  8
EBENE_1
 62
    39
  6
CONTINUOUS
 10
-1.354016
 20
0.571535
  0
SEQEND
  8
0
  0
POLYLINE
  8
EBENE_1
 62
    39
  6
CONTINUOUS
 66
     1
 40
0.010000
 41
0.010000
  0
VERTEX
  8
EBENE_1
 62
    39
  6
CONTINUOUS
 10
-1.622343
 20
0.802012
  0
VERTEX
  8
EBENE_1
 62
    39
  6
CONTINUOUS
 10
-1.620189
 20
0.801837
  0
VERTEX
  8
EBENE_1
 62
    39
  6
CONTINUOUS
 10
-1.618186
 20
0.800160
  0
VERTEX
  8
EBENE_1
 62
    39
  6
CONTINUOUS
 10
-1.616933
 20
0.797280
  0
SEQEND
  8
0
  0
POLYLINE
  8
EBENE_1
 62
    39
  6
CONTINUOUS
 66
     1
 40
0.010000
 41
0.010000
  0
VERTEX
  8
EBENE_1
 62
    39
  6
CONTINUOUS
 10
-1.616933
 20
0.797280
  0
VERTEX
  8
EBENE_1
 62
    39
  6
CONTINUOUS
 10
-1.616734
 20
0.794477
  0
VERTEX
  8
EBENE_1
 62
    39
  6
CONTINUOUS
 10
-1.617585
 20
0.791973
  0
VERTEX
  8
EBENE_1
 62
    39
  6
CONTINUOUS
 10
-1.619638
 20
0.790520
  0
SEQEND
  8
0
  0
POLYLINE
  8
EBENE_1
 62
    39
  6
CONTINUOUS
 66
     1
 40
0.010000
 41
0.010000
  0
VERTEX
  8
EBENE_1
 62
    39
  6
CONTINUOUS
 10
-1.619638
 20
0.790520
  0
VERTEX
  8
EBENE_1
 62
    39
  6
CONTINUOUS
 10
-1.621791
 20
0.790697
  0
VERTEX
  8
EBENE_1
 62
    39
  6
CONTINUOUS
 10
-1.623793
 20
0.792374
  0
VERTEX
  8
EBENE_1
 62
    39
  6
CONTINUOUS
 10
-1.625043
 20
0.795252
  0
SEQEND
  8
0
  0
POLYLINE
  8
EBENE_1
 62
    39
  6
CONTINUOUS
 66
     1
 40
0.010000
 41
0.010000
  0
VERTEX
  8
EBENE_1
 62
    39
  6
CONTINUOUS
 10
-1.625043
 20
0.795252
  0
VERTEX
  8
EBENE_1
 62
    39
  6
CONTINUOUS
 10
-1.625545
 20
0.798357
  0
VERTEX
  8
EBENE_1
 62
    39
  6
CONTINUOUS
 10
-1.624544
 20
0.800710
  0
VERTEX
  8
EBENE_1
 62
    39
  6
CONTINUOUS
 10
-1.622343
 20
0.802012
  0
SEQEND
  8
0
  0
POLYLINE
  8
EBENE_1
 62
    39
  6
CONTINUOUS
 66
     1
 40
0.010000
 41
0.010000
  0
VERTEX
  8
EBENE_1
 62
    39
  6
CONTINUOUS
 10
-1.739272
 20
0.768894
  0
VERTEX
  8
EBENE_1
 62
    39
  6
CONTINUOUS
 10
-1.737119
 20
0.768718
  0
VERTEX
  8
EBENE_1
 62
    39
  6
CONTINUOUS
 10
-1.735115
 20
0.767041
  0
VERTEX
  8
EBENE_1
 62
    39
  6
CONTINUOUS
 10
-1.733862
 20
0.764161
  0
SEQEND
  8
0
  0
POLYLINE
  8
EBENE_1
 62
    39
  6
CONTINUOUS
 66
     1
 40
0.010000
 41
0.010000
  0
VERTEX
  8
EBENE_1
 62
    39
  6
CONTINUOUS
 10
-1.733862
 20
0.764161
  0
VERTEX
  8
EBENE_1
 62
    39
  6
CONTINUOUS
 10
-1.733362
 20
0.761058
  0
VERTEX
  8
EBENE_1
 62
    39
  6
CONTINUOUS
 10
-1.734364
 20
0.758704
  0
VERTEX
  8
EBENE_1
 62
    39
  6
CONTINUOUS
 10
-1.736567
 20
0.757402
  0
SEQEND
  8
0
  0
POLYLINE
  8
EBENE_1
 62
    39
  6
CONTINUOUS
 66
     1
 40
0.010000
 41
0.010000
  0
VERTEX
  8
EBENE_1
 62
    39
  6
CONTINUOUS
 10
-1.736567
 20
0.757402
  0
VERTEX
  8
EBENE_1
 62
    39
  6
CONTINUOUS
 10
-1.738720
 20
0.757579
  0
VERTEX
  8
EBENE_1
 62
    39
  6
CONTINUOUS
 10
-1.740722
 20
0.759256
  0
VERTEX
  8
EBENE_1
 62
    39
  6
CONTINUOUS
 10
-1.741972
 20
0.762134
  0
SEQEND
  8
0
  0
POLYLINE
  8
EBENE_1
 62
    39
  6
CONTINUOUS
 66
     1
 40
0.010000
 41
0.010000
  0
VERTEX
  8
EBENE_1
 62
    39
  6
CONTINUOUS
 10
-1.741972
 20
0.762134
  0
VERTEX
  8
EBENE_1
 62
    39
  6
CONTINUOUS
 10
-1.742474
 20
0.764938
  0
VERTEX
  8
EBENE_1
 62
    39
  6
CONTINUOUS
 10
-1.741473
 20
0.767441
  0
VERTEX
  8
EBENE_1
 62
    39
  6
CONTINUOUS
 10
-1.739272
 20
0.768894
  0
SEQEND
  8
0
  0
POLYLINE
  8
EBENE_1
 62
    39
  6
CONTINUOUS
 66
     1
 40
0.010000
 41
0.010000
 70
     1
  0
VERTEX
  8
EBENE_1
 62
    39
  6
CONTINUOUS
 10
-1.490543
 20
0.532331
  0
VERTEX
  8
EBENE_1
 62
    39
  6
CONTINUOUS
 10
-1.484930
 20
0.512976
  0
VERTEX
  8
EBENE_1
 62
    39
  6
CONTINUOUS
 10
-1.481126
 20
0.496839
  0
VERTEX
  8
EBENE_1
 62
    39
  6
CONTINUOUS
 10
-1.478227
 20
0.483216
  0
VERTEX
  8
EBENE_1
 62
    39
  6
CONTINUOUS
 10
-1.475328
 20
0.471402
  0
VERTEX
  8
EBENE_1
 62
    39
  6
CONTINUOUS
 10
-1.471524
 20
0.460694
  0
VERTEX
  8
EBENE_1
 62
    39
  6
CONTINUOUS
 10
-1.465910
 20
0.450388
  0
VERTEX
  8
EBENE_1
 62
    39
  6
CONTINUOUS
 10
-1.457581
 20
0.439780
  0
VERTEX
  8
EBENE_1
 62
    39
  6
CONTINUOUS
 10
-1.445633
 20
0.428167
  0
VERTEX
  8
EBENE_1
 62
    39
  6
CONTINUOUS
 10
-1.429160
 20
0.414844
  0
VERTEX
  8
EBENE_1
 62
    39
  6
CONTINUOUS
 10
-1.407257
 20
0.399109
  0
VERTEX
  8
EBENE_1
 62
    39
  6
CONTINUOUS
 10
-1.379020
 20
0.380256
  0
VERTEX
  8
EBENE_1
 62
    39
  6
CONTINUOUS
 10
-0.807220
 20
0.383638
  0
VERTEX
  8
EBENE_1
 62
    39
  6
CONTINUOUS
 10
-0.968083
 20
0.995992
  0
VERTEX
  8
EBENE_1
 62
    39
  6
CONTINUOUS
 10
-1.570972
 20
0.835130
  0
SEQEND
  8
0
  0
POLYLINE
  8
EBENE_1
 62
    39
  6
CONTINUOUS
 66
     1
 40
0.010000
 41
0.010000
 70
     1
  0
VERTEX
  8
EBENE_1
 62
    39
  6
CONTINUOUS
 10
-1.485138
 20
0.536390
  0
VERTEX
  8
EBENE_1
 62
    39
  6
CONTINUOUS
 10
-1.479677
 20
0.517540
  0
VERTEX
  8
EBENE_1
 62
    39
  6
CONTINUOUS
 10
-1.475978
 20
0.501826
  0
VERTEX
  8
EBENE_1
 62
    39
  6
CONTINUOUS
 10
-1.473153
 20
0.488561
  0
VERTEX
  8
EBENE_1
 62
    39
  6
CONTINUOUS
 10
-1.470316
 20
0.477061
  0
VERTEX
  8
EBENE_1
 62
    39
  6
CONTINUOUS
 10
-1.466580
 20
0.466639
  0
VERTEX
  8
EBENE_1
 62
    39
  6
CONTINUOUS
 10
-1.461059
 20
0.456610
  0
VERTEX
  8
EBENE_1
 62
    39
  6
CONTINUOUS
 10
-1.452866
 20
0.446289
  0
VERTEX
  8
EBENE_1
 62
    39
  6
CONTINUOUS
 10
-1.441115
 20
0.434990
  0
VERTEX
  8
EBENE_1
 62
    39
  6
CONTINUOUS
 10
-1.424918
 20
0.422027
  0
VERTEX
  8
EBENE_1
 62
    39
  6
CONTINUOUS
 10
-1.403389
 20
0.406716
  0
VERTEX
  8
EBENE_1
 62
    39
  6
CONTINUOUS
 10
-1.375642
 20
0.388370
  0
VERTEX
  8
EBENE_1
 62
    39
  6
CONTINUOUS
 10
-0.813980
 20
0.391748
  0
VERTEX
  8
EBENE_1
 62
    39
  6
CONTINUOUS
 10
-0.972138
 20
0.987882
  0
VERTEX
  8
EBENE_1
 62
    39
  6
CONTINUOUS
 10
-1.564213
 20
0.831075
  0
SEQEND
  8
0
  0
POLYLINE
  8
EBENE_1
 62
    39
  6
CONTINUOUS
 66
     1
 40
0.010000
 41
0.010000
  0
VERTEX
  8
EBENE_1
 62
    39
  6
CONTINUOUS
 10
-0.964028
 20
0.777681
  0
VERTEX
  8
EBENE_1
 62
    39
  6
CONTINUOUS
 10
-0.961549
 20
0.777504
  0
VERTEX
  8
EBENE_1
 62
    39
  6
CONTINUOUS
 10
-0.959521
 20
0.775827
  0
VERTEX
  8
EBENE_1
 62
    39
  6
CONTINUOUS
 10
-0.957945
 20
0.772949
  0
SEQEND
  8
0
  0
POLYLINE
  8
EBENE_1
 62
    39
  6
CONTINUOUS
 66
     1
 40
0.010000
 41
0.010000
  0
VERTEX
  8
EBENE_1
 62
    39
  6
CONTINUOUS
 10
-0.957945
 20
0.772949
  0
VERTEX
  8
EBENE_1
 62
    39
  6
CONTINUOUS
 10
-0.957894
 20
0.769844
  0
VERTEX
  8
EBENE_1
 62
    39
  6
CONTINUOUS
 10
-0.958894
 20
0.767491
  0
VERTEX
  8
EBENE_1
 62
    39
  6
CONTINUOUS
 10
-0.960646
 20
0.766189
  0
SEQEND
  8
0
  0
POLYLINE
  8
EBENE_1
 62
    39
  6
CONTINUOUS
 66
     1
 40
0.010000
 41
0.010000
  0
VERTEX
  8
EBENE_1
 62
    39
  6
CONTINUOUS
 10
-0.960646
 20
0.766189
  0
VERTEX
  8
EBENE_1
 62
    39
  6
CONTINUOUS
 10
-0.963275
 20
0.766366
  0
VERTEX
  8
EBENE_1
 62
    39
  6
CONTINUOUS
 10
-0.965453
 20
0.768043
  0
VERTEX
  8
EBENE_1
 62
    39
  6
CONTINUOUS
 10
-0.966728
 20
0.770921
  0
SEQEND
  8
0
  0
POLYLINE
  8
EBENE_1
 62
    39
  6
CONTINUOUS
 66
     1
 40
0.010000
 41
0.010000
  0
VERTEX
  8
EBENE_1
 62
    39
  6
CONTINUOUS
 10
-0.966728
 20
0.770921
  0
VERTEX
  8
EBENE_1
 62
    39
  6
CONTINUOUS
 10
-0.966780
 20
0.773725
  0
VERTEX
  8
EBENE_1
 62
    39
  6
CONTINUOUS
 10
-0.965779
 20
0.776229
  0
VERTEX
  8
EBENE_1
 62
    39
  6
CONTINUOUS
 10
-0.964028
 20
0.777681
  0
SEQEND
  8
0
  0
POLYLINE
  8
EBENE_1
 62
    39
  6
CONTINUOUS
 66
     1
 40
0.010000
 41
0.010000
  0
VERTEX
  8
EBENE_1
 62
    39
  6
CONTINUOUS
 10
-0.934965
 20
0.676295
  0
VERTEX
  8
EBENE_1
 62
    39
  6
CONTINUOUS
 10
-0.932335
 20
0.676121
  0
VERTEX
  8
EBENE_1
 62
    39
  6
CONTINUOUS
 10
-0.930156
 20
0.674445
  0
VERTEX
  8
EBENE_1
 62
    39
  6
CONTINUOUS
 10
-0.928878
 20
0.671567
  0
SEQEND
  8
0
  0
POLYLINE
  8
EBENE_1
 62
    39
  6
CONTINUOUS
 66
     1
 40
0.010000
 41
0.010000
  0
VERTEX
  8
EBENE_1
 62
    39
  6
CONTINUOUS
 10
-0.928878
 20
0.671567
  0
VERTEX
  8
EBENE_1
 62
    39
  6
CONTINUOUS
 10
-0.928829
 20
0.668763
  0
VERTEX
  8
EBENE_1
 62
    39
  6
CONTINUOUS
 10
-0.929831
 20
0.666260
  0
VERTEX
  8
EBENE_1
 62
    39
  6
CONTINUOUS
 10
-0.931583
 20
0.664807
  0
SEQEND
  8
0
  0
POLYLINE
  8
EBENE_1
 62
    39
  6
CONTINUOUS
 66
     1
 40
0.010000
 41
0.010000
  0
VERTEX
  8
EBENE_1
 62
    39
  6
CONTINUOUS
 10
-0.931583
 20
0.664807
  0
VERTEX
  8
EBENE_1
 62
    39
  6
CONTINUOUS
 10
-0.934212
 20
0.664981
  0
VERTEX
  8
EBENE_1
 62
    39
  6
CONTINUOUS
 10
-0.936390
 20
0.666659
  0
VERTEX
  8
EBENE_1
 62
    39
  6
CONTINUOUS
 10
-0.937665
 20
0.669539
  0
SEQEND
  8
0
  0
POLYLINE
  8
EBENE_1
 62
    39
  6
CONTINUOUS
 66
     1
 40
0.010000
 41
0.010000
  0
VERTEX
  8
EBENE_1
 62
    39
  6
CONTINUOUS
 10
-0.937665
 20
0.669539
  0
VERTEX
  8
EBENE_1
 62
    39
  6
CONTINUOUS
 10
-0.937717
 20
0.672342
  0
VERTEX
  8
EBENE_1
 62
    39
  6
CONTINUOUS
 10
-0.936716
 20
0.674845
  0
VERTEX
  8
EBENE_1
 62
    39
  6
CONTINUOUS
 10
-0.934965
 20
0.676295
  0
SEQEND
  8
0
  0
POLYLINE
  8
EBENE_1
 62
    39
  6
CONTINUOUS
 66
     1
 40
0.010000
 41
0.010000
  0
VERTEX
  8
EBENE_1
 62
    39
  6
CONTINUOUS
 10
-1.203291
 20
0.906776
  0
VERTEX
  8
EBENE_1
 62
    39
  6
CONTINUOUS
 10
-1.201138
 20
0.906624
  0
VERTEX
  8
EBENE_1
 62
    39
  6
CONTINUOUS
 10
-1.199136
 20
0.905122
  0
VERTEX
  8
EBENE_1
 62
    39
  6
CONTINUOUS
 10
-1.197886
 20
0.902720
  0
SEQEND
  8
0
  0
POLYLINE
  8
EBENE_1
 62
    39
  6
CONTINUOUS
 66
     1
 40
0.010000
 41
0.010000
  0
VERTEX
  8
EBENE_1
 62
    39
  6
CONTINUOUS
 10
-1.197886
 20
0.902720
  0
VERTEX
  8
EBENE_1
 62
    39
  6
CONTINUOUS
 10
-1.197685
 20
0.899440
  0
VERTEX
  8
EBENE_1
 62
    39
  6
CONTINUOUS
 10
-1.198536
 20
0.896761
  0
VERTEX
  8
EBENE_1
 62
    39
  6
CONTINUOUS
 10
-1.200587
 20
0.895283
  0
SEQEND
  8
0
  0
POLYLINE
  8
EBENE_1
 62
    39
  6
CONTINUOUS
 66
     1
 40
0.010000
 41
0.010000
  0
VERTEX
  8
EBENE_1
 62
    39
  6
CONTINUOUS
 10
-1.200587
 20
0.895283
  0
VERTEX
  8
EBENE_1
 62
    39
  6
CONTINUOUS
 10
-1.202740
 20
0.895909
  0
VERTEX
  8
EBENE_1
 62
    39
  6
CONTINUOUS
 10
-1.204743
 20
0.897587
  0
VERTEX
  8
EBENE_1
 62
    39
  6
CONTINUOUS
 10
-1.205996
 20
0.900016
  0
SEQEND
  8
0
  0
POLYLINE
  8
EBENE_1
 62
    39
  6
CONTINUOUS
 66
     1
 40
0.010000
 41
0.010000
  0
VERTEX
  8
EBENE_1
 62
    39
  6
CONTINUOUS
 10
-1.205996
 20
0.900016
  0
VERTEX
  8
EBENE_1
 62
    39
  6
CONTINUOUS
 10
-1.206496
 20
0.903119
  0
VERTEX
  8
EBENE_1
 62
    39
  6
CONTINUOUS
 10
-1.205495
 20
0.905473
  0
VERTEX
  8
EBENE_1
 62
    39
  6
CONTINUOUS
 10
-1.203291
 20
0.906776
  0
SEQEND
  8
0
  0
POLYLINE
  8
EBENE_1
 62
    39
  6
CONTINUOUS
 66
     1
 40
0.010000
 41
0.010000
  0
VERTEX
  8
EBENE_1
 62
    39
  6
CONTINUOUS
 10
-1.320220
 20
0.873657
  0
VERTEX
  8
EBENE_1
 62
    39
  6
CONTINUOUS
 10
-1.318067
 20
0.873480
  0
VERTEX
  8
EBENE_1
 62
    39
  6
CONTINUOUS
 10
-1.316064
 20
0.871803
  0
VERTEX
  8
EBENE_1
 62
    39
  6
CONTINUOUS
 10
-1.314811
 20
0.868925
  0
SEQEND
  8
0
  0
POLYLINE
  8
EBENE_1
 62
    39
  6
CONTINUOUS
 66
     1
 40
0.010000
 41
0.010000
  0
VERTEX
  8
EBENE_1
 62
    39
  6
CONTINUOUS
 10
-1.314811
 20
0.868925
  0
VERTEX
  8
EBENE_1
 62
    39
  6
CONTINUOUS
 10
-1.314612
 20
0.866121
  0
VERTEX
  8
EBENE_1
 62
    39
  6
CONTINUOUS
 10
-1.315463
 20
0.863618
  0
VERTEX
  8
EBENE_1
 62
    39
  6
CONTINUOUS
 10
-1.317516
 20
0.862165
  0
SEQEND
  8
0
  0
POLYLINE
  8
EBENE_1
 62
    39
  6
CONTINUOUS
 66
     1
 40
0.010000
 41
0.010000
  0
VERTEX
  8
EBENE_1
 62
    39
  6
CONTINUOUS
 10
-1.317516
 20
0.862165
  0
VERTEX
  8
EBENE_1
 62
    39
  6
CONTINUOUS
 10
-1.319669
 20
0.862340
  0
VERTEX
  8
EBENE_1
 62
    39
  6
CONTINUOUS
 10
-1.321671
 20
0.864017
  0
VERTEX
  8
EBENE_1
 62
    39
  6
CONTINUOUS
 10
-1.322921
 20
0.866898
  0
SEQEND
  8
0
  0
POLYLINE
  8
EBENE_1
 62
    39
  6
CONTINUOUS
 66
     1
 40
0.010000
 41
0.010000
  0
VERTEX
  8
EBENE_1
 62
    39
  6
CONTINUOUS
 10
-1.322921
 20
0.866898
  0
VERTEX
  8
EBENE_1
 62
    39
  6
CONTINUOUS
 10
-1.323423
 20
0.870001
  0
VERTEX
  8
EBENE_1
 62
    39
  6
CONTINUOUS
 10
-1.322422
 20
0.872355
  0
VERTEX
  8
EBENE_1
 62
    39
  6
CONTINUOUS
 10
-1.320220
 20
0.873657
  0
SEQEND
  8
0
  0
POLYLINE
  8
EBENE_1
 62
    39
  6
CONTINUOUS
 66
     1
 40
0.010000
 41
0.010000
 70
     1
  0
VERTEX
  8
EBENE_1
 62
    39
  6
CONTINUOUS
 10
-1.071492
 20
0.637094
  0
VERTEX
  8
EBENE_1
 62
    39
  6
CONTINUOUS
 10
-1.066994
 20
0.624495
  0
VERTEX
  8
EBENE_1
 62
    39
  6
CONTINUOUS
 10
-1.061403
 20
0.611301
  0
VERTEX
  8
EBENE_1
 62
    39
  6
CONTINUOUS
 10
-1.054724
 20
0.597604
  0
VERTEX
  8
EBENE_1
 62
    39
  6
CONTINUOUS
 10
-1.046966
 20
0.583494
  0
VERTEX
  8
EBENE_1
 62
    39
  6
CONTINUOUS
 10
-1.038136
 20
0.569064
  0
VERTEX
  8
EBENE_1
 62
    39
  6
CONTINUOUS
 10
-1.028240
 20
0.554403
  0
VERTEX
  8
EBENE_1
 62
    39
  6
CONTINUOUS
 10
-1.017286
 20
0.539604
  0
VERTEX
  8
EBENE_1
 62
    39
  6
CONTINUOUS
 10
-1.005281
 20
0.524756
  0
VERTEX
  8
EBENE_1
 62
    39
  6
CONTINUOUS
 10
-0.992231
 20
0.509952
  0
VERTEX
  8
EBENE_1
 62
    39
  6
CONTINUOUS
 10
-0.978144
 20
0.495282
  0
VERTEX
  8
EBENE_1
 62
    39
  6
CONTINUOUS
 10
-0.963028
 20
0.480837
  0
VERTEX
  8
EBENE_1
 62
    39
  6
CONTINUOUS
 10
-0.946889
 20
0.466708
  0
VERTEX
  8
EBENE_1
 62
    39
  6
CONTINUOUS
 10
-0.929734
 20
0.452987
  0
VERTEX
  8
EBENE_1
 62
    39
  6
CONTINUOUS
 10
-0.911570
 20
0.439764
  0
VERTEX
  8
EBENE_1
 62
    39
  6
CONTINUOUS
 10
-0.892405
 20
0.427130
  0
VERTEX
  8
EBENE_1
 62
    39
  6
CONTINUOUS
 10
-0.872245
 20
0.415177
  0
VERTEX
  8
EBENE_1
 62
    39
  6
CONTINUOUS
 10
-0.851098
 20
0.403995
  0
VERTEX
  8
EBENE_1
 62
    39
  6
CONTINUOUS
 10
-0.828971
 20
0.393676
  0
VERTEX
  8
EBENE_1
 62
    39
  6
CONTINUOUS
 10
-0.805870
 20
0.384311
  0
VERTEX
  8
EBENE_1
 62
    39
  6
CONTINUOUS
 10
-0.805870
 20
0.384311
  0
VERTEX
  8
EBENE_1
 62
    39
  6
CONTINUOUS
 10
-0.388169
 20
0.498539
  0
VERTEX
  8
EBENE_1
 62
    39
  6
CONTINUOUS
 10
-0.549709
 20
1.101429
  0
VERTEX
  8
EBENE_1
 62
    39
  6
CONTINUOUS
 10
-1.151921
 20
0.939894
  0
SEQEND
  8
0
  0
POLYLINE
  8
EBENE_1
 62
    39
  6
CONTINUOUS
 66
     1
 40
0.010000
 41
0.010000
 70
     1
  0
VERTEX
  8
EBENE_1
 62
    39
  6
CONTINUOUS
 10
-1.065409
 20
0.641827
  0
VERTEX
  8
EBENE_1
 62
    39
  6
CONTINUOUS
 10
-1.060749
 20
0.628621
  0
VERTEX
  8
EBENE_1
 62
    39
  6
CONTINUOUS
 10
-1.054882
 20
0.614759
  0
VERTEX
  8
EBENE_1
 62
    39
  6
CONTINUOUS
 10
-1.047818
 20
0.600347
  0
VERTEX
  8
EBENE_1
 62
    39
  6
CONTINUOUS
 10
-1.039565
 20
0.585494
  0
VERTEX
  8
EBENE_1
 62
    39
  6
CONTINUOUS
 10
-1.030131
 20
0.570305
  0
VERTEX
  8
EBENE_1
 62
    39
  6
CONTINUOUS
 10
-1.019525
 20
0.554888
  0
VERTEX
  8
EBENE_1
 62
    39
  6
CONTINUOUS
 10
-1.007755
 20
0.539350
  0
VERTEX
  8
EBENE_1
 62
    39
  6
CONTINUOUS
 10
-0.994829
 20
0.523798
  0
VERTEX
  8
EBENE_1
 62
    39
  6
CONTINUOUS
 10
-0.980755
 20
0.508339
  0
VERTEX
  8
EBENE_1
 62
    39
  6
CONTINUOUS
 10
-0.965543
 20
0.493081
  0
VERTEX
  8
EBENE_1
 62
    39
  6
CONTINUOUS
 10
-0.949200
 20
0.478129
  0
VERTEX
  8
EBENE_1
 62
    39
  6
CONTINUOUS
 10
-0.931735
 20
0.463593
  0
VERTEX
  8
EBENE_1
 62
    39
  6
CONTINUOUS
 10
-0.913156
 20
0.449577
  0
VERTEX
  8
EBENE_1
 62
    39
  6
CONTINUOUS
 10
-0.893471
 20
0.436191
  0
VERTEX
  8
EBENE_1
 62
    39
  6
CONTINUOUS
 10
-0.872689
 20
0.423539
  0
VERTEX
  8
EBENE_1
 62
    39
  6
CONTINUOUS
 10
-0.850818
 20
0.411731
  0
VERTEX
  8
EBENE_1
 62
    39
  6
CONTINUOUS
 10
-0.827866
 20
0.400873
  0
VERTEX
  8
EBENE_1
 62
    39
  6
CONTINUOUS
 10
-0.803843
 20
0.391071
  0
VERTEX
  8
EBENE_1
 62
    39
  6
CONTINUOUS
 10
-0.392902
 20
0.503272
  0
VERTEX
  8
EBENE_1
 62
    39
  6
CONTINUOUS
 10
-0.553087
 20
1.100756
  0
VERTEX
  8
EBENE_1
 62
    39
  6
CONTINUOUS
 10
-1.145165
 20
0.941921
  0
SEQEND
  8
0
  0
POLYLINE
  8
EBENE_1
 62
    39
  6
CONTINUOUS
 66
     1
 40
0.010000
 41
0.010000
  0
VERTEX
  8
EBENE_1
 62
    39
  6
CONTINUOUS
 10
-0.544976
 20
0.882441
  0
VERTEX
  8
EBENE_1
 62
    39
  6
CONTINUOUS
 10
-0.542798
 20
0.882267
  0
VERTEX
  8
EBENE_1
 62
    39
  6
CONTINUOUS
 10
-0.540620
 20
0.880590
  0
VERTEX
  8
EBENE_1
 62
    39
  6
CONTINUOUS
 10
-0.538894
 20
0.877713
  0
SEQEND
  8
0
  0
POLYLINE
  8
EBENE_1
 62
    39
  6
CONTINUOUS
 66
     1
 40
0.010000
 41
0.010000
  0
VERTEX
  8
EBENE_1
 62
    39
  6
CONTINUOUS
 10
-0.538894
 20
0.877713
  0
VERTEX
  8
EBENE_1
 62
    39
  6
CONTINUOUS
 10
-0.538842
 20
0.874908
  0
VERTEX
  8
EBENE_1
 62
    39
  6
CONTINUOUS
 10
-0.539843
 20
0.872405
  0
VERTEX
  8
EBENE_1
 62
    39
  6
CONTINUOUS
 10
-0.541594
 20
0.870953
  0
SEQEND
  8
0
  0
POLYLINE
  8
EBENE_1
 62
    39
  6
CONTINUOUS
 66
     1
 40
0.010000
 41
0.010000
  0
VERTEX
  8
EBENE_1
 62
    39
  6
CONTINUOUS
 10
-0.541594
 20
0.870953
  0
VERTEX
  8
EBENE_1
 62
    39
  6
CONTINUOUS
 10
-0.544224
 20
0.871127
  0
VERTEX
  8
EBENE_1
 62
    39
  6
CONTINUOUS
 10
-0.546403
 20
0.872805
  0
VERTEX
  8
EBENE_1
 62
    39
  6
CONTINUOUS
 10
-0.547681
 20
0.875685
  0
SEQEND
  8
0
  0
POLYLINE
  8
EBENE_1
 62
    39
  6
CONTINUOUS
 66
     1
 40
0.010000
 41
0.010000
  0
VERTEX
  8
EBENE_1
 62
    39
  6
CONTINUOUS
 10
-0.547681
 20
0.875685
  0
VERTEX
  8
EBENE_1
 62
    39
  6
CONTINUOUS
 10
-0.547730
 20
0.878788
  0
VERTEX
  8
EBENE_1
 62
    39
  6
CONTINUOUS
 10
-0.546728
 20
0.881141
  0
VERTEX
  8
EBENE_1
 62
    39
  6
CONTINUOUS
 10
-0.544976
 20
0.882441
  0
SEQEND
  8
0
  0
POLYLINE
  8
EBENE_1
 62
    39
  6
CONTINUOUS
 66
     1
 40
0.010000
 41
0.010000
  0
VERTEX
  8
EBENE_1
 62
    39
  6
CONTINUOUS
 10
-0.515913
 20
0.781059
  0
VERTEX
  8
EBENE_1
 62
    39
  6
CONTINUOUS
 10
-0.513434
 20
0.780910
  0
VERTEX
  8
EBENE_1
 62
    39
  6
CONTINUOUS
 10
-0.511407
 20
0.779408
  0
VERTEX
  8
EBENE_1
 62
    39
  6
CONTINUOUS
 10
-0.509831
 20
0.777004
  0
SEQEND
  8
0
  0
POLYLINE
  8
EBENE_1
 62
    39
  6
CONTINUOUS
 66
     1
 40
0.010000
 41
0.010000
  0
VERTEX
  8
EBENE_1
 62
    39
  6
CONTINUOUS
 10
-0.509831
 20
0.777004
  0
VERTEX
  8
EBENE_1
 62
    39
  6
CONTINUOUS
 10
-0.509780
 20
0.773725
  0
VERTEX
  8
EBENE_1
 62
    39
  6
CONTINUOUS
 10
-0.510781
 20
0.771045
  0
VERTEX
  8
EBENE_1
 62
    39
  6
CONTINUOUS
 10
-0.512531
 20
0.769567
  0
SEQEND
  8
0
  0
POLYLINE
  8
EBENE_1
 62
    39
  6
CONTINUOUS
 66
     1
 40
0.010000
 41
0.010000
  0
VERTEX
  8
EBENE_1
 62
    39
  6
CONTINUOUS
 10
-0.512531
 20
0.769567
  0
VERTEX
  8
EBENE_1
 62
    39
  6
CONTINUOUS
 10
-0.515161
 20
0.769894
  0
VERTEX
  8
EBENE_1
 62
    39
  6
CONTINUOUS
 10
-0.517339
 20
0.771721
  0
VERTEX
  8
EBENE_1
 62
    39
  6
CONTINUOUS
 10
-0.518614
 20
0.774299
  0
SEQEND
  8
0
  0
POLYLINE
  8
EBENE_1
 62
    39
  6
CONTINUOUS
 66
     1
 40
0.010000
 41
0.010000
  0
VERTEX
  8
EBENE_1
 62
    39
  6
CONTINUOUS
 10
-0.518614
 20
0.774299
  0
VERTEX
  8
EBENE_1
 62
    39
  6
CONTINUOUS
 10
-0.518666
 20
0.777404
  0
VERTEX
  8
EBENE_1
 62
    39
  6
CONTINUOUS
 10
-0.517665
 20
0.779757
  0
VERTEX
  8
EBENE_1
 62
    39
  6
CONTINUOUS
 10
-0.515913
 20
0.781059
  0
SEQEND
  8
0
  0
POLYLINE
  8
EBENE_1
 62
    39
  6
CONTINUOUS
 66
     1
 40
0.010000
 41
0.010000
  0
VERTEX
  8
EBENE_1
 62
    39
  6
CONTINUOUS
 10
-0.784917
 20
1.012213
  0
VERTEX
  8
EBENE_1
 62
    39
  6
CONTINUOUS
 10
-0.782288
 20
1.012038
  0
VERTEX
  8
EBENE_1
 62
    39
  6
CONTINUOUS
 10
-0.780109
 20
1.010362
  0
VERTEX
  8
EBENE_1
 62
    39
  6
CONTINUOUS
 10
-0.778831
 20
1.007484
  0
SEQEND
  8
0
  0
POLYLINE
  8
EBENE_1
 62
    39
  6
CONTINUOUS
 66
     1
 40
0.010000
 41
0.010000
  0
VERTEX
  8
EBENE_1
 62
    39
  6
CONTINUOUS
 10
-0.778831
 20
1.007484
  0
VERTEX
  8
EBENE_1
 62
    39
  6
CONTINUOUS
 10
-0.778782
 20
1.004378
  0
VERTEX
  8
EBENE_1
 62
    39
  6
CONTINUOUS
 10
-0.779783
 20
1.002025
  0
VERTEX
  8
EBENE_1
 62
    39
  6
CONTINUOUS
 10
-0.781535
 20
1.000724
  0
SEQEND
  8
0
  0
POLYLINE
  8
EBENE_1
 62
    39
  6
CONTINUOUS
 66
     1
 40
0.010000
 41
0.010000
  0
VERTEX
  8
EBENE_1
 62
    39
  6
CONTINUOUS
 10
-0.781535
 20
1.000724
  0
VERTEX
  8
EBENE_1
 62
    39
  6
CONTINUOUS
 10
-0.783713
 20
1.000899
  0
VERTEX
  8
EBENE_1
 62
    39
  6
CONTINUOUS
 10
-0.785892
 20
1.002575
  0
VERTEX
  8
EBENE_1
 62
    39
  6
CONTINUOUS
 10
-0.787618
 20
1.005453
  0
SEQEND
  8
0
  0
POLYLINE
  8
EBENE_1
 62
    39
  6
CONTINUOUS
 66
     1
 40
0.010000
 41
0.010000
  0
VERTEX
  8
EBENE_1
 62
    39
  6
CONTINUOUS
 10
-0.787618
 20
1.005453
  0
VERTEX
  8
EBENE_1
 62
    39
  6
CONTINUOUS
 10
-0.787669
 20
1.008257
  0
VERTEX
  8
EBENE_1
 62
    39
  6
CONTINUOUS
 10
-0.786669
 20
1.010760
  0
VERTEX
  8
EBENE_1
 62
    39
  6
CONTINUOUS
 10
-0.784917
 20
1.012213
  0
SEQEND
  8
0
  0
POLYLINE
  8
EBENE_1
 62
    39
  6
CONTINUOUS
 66
     1
 40
0.010000
 41
0.010000
  0
VERTEX
  8
EBENE_1
 62
    39
  6
CONTINUOUS
 10
-0.901169
 20
0.978417
  0
VERTEX
  8
EBENE_1
 62
    39
  6
CONTINUOUS
 10
-0.899016
 20
0.978268
  0
VERTEX
  8
EBENE_1
 62
    39
  6
CONTINUOUS
 10
-0.897013
 20
0.976766
  0
VERTEX
  8
EBENE_1
 62
    39
  6
CONTINUOUS
 10
-0.895760
 20
0.974362
  0
SEQEND
  8
0
  0
POLYLINE
  8
EBENE_1
 62
    39
  6
CONTINUOUS
 66
     1
 40
0.010000
 41
0.010000
  0
VERTEX
  8
EBENE_1
 62
    39
  6
CONTINUOUS
 10
-0.895760
 20
0.974362
  0
VERTEX
  8
EBENE_1
 62
    39
  6
CONTINUOUS
 10
-0.895561
 20
0.971259
  0
VERTEX
  8
EBENE_1
 62
    39
  6
CONTINUOUS
 10
-0.896412
 20
0.968906
  0
VERTEX
  8
EBENE_1
 62
    39
  6
CONTINUOUS
 10
-0.898465
 20
0.967606
  0
SEQEND
  8
0
  0
POLYLINE
  8
EBENE_1
 62
    39
  6
CONTINUOUS
 66
     1
 40
0.010000
 41
0.010000
  0
VERTEX
  8
EBENE_1
 62
    39
  6
CONTINUOUS
 10
-0.898465
 20
0.967606
  0
VERTEX
  8
EBENE_1
 62
    39
  6
CONTINUOUS
 10
-0.900618
 20
0.967756
  0
VERTEX
  8
EBENE_1
 62
    39
  6
CONTINUOUS
 10
-0.902621
 20
0.969258
  0
VERTEX
  8
EBENE_1
 62
    39
  6
CONTINUOUS
 10
-0.903874
 20
0.971661
  0
SEQEND
  8
0
  0
POLYLINE
  8
EBENE_1
 62
    39
  6
CONTINUOUS
 66
     1
 40
0.010000
 41
0.010000
  0
VERTEX
  8
EBENE_1
 62
    39
  6
CONTINUOUS
 10
-0.903874
 20
0.971661
  0
VERTEX
  8
EBENE_1
 62
    39
  6
CONTINUOUS
 10
-0.904374
 20
0.974914
  0
VERTEX
  8
EBENE_1
 62
    39
  6
CONTINUOUS
 10
-0.903373
 20
0.977416
  0
VERTEX
  8
EBENE_1
 62
    39
  6
CONTINUOUS
 10
-0.901169
 20
0.978417
  0
SEQEND
  8
0
  0
POLYLINE
  8
EBENE_1
 62
    39
  6
CONTINUOUS
 66
     1
 40
0.010000
 41
0.010000
 70
     1
  0
VERTEX
  8
EBENE_1
 62
    39
  6
CONTINUOUS
 10
-0.652441
 20
0.742535
  0
VERTEX
  8
EBENE_1
 62
    39
  6
CONTINUOUS
 10
-0.647948
 20
0.729930
  0
VERTEX
  8
EBENE_1
 62
    39
  6
CONTINUOUS
 10
-0.642372
 20
0.716720
  0
VERTEX
  8
EBENE_1
 62
    39
  6
CONTINUOUS
 10
-0.635716
 20
0.702998
  0
VERTEX
  8
EBENE_1
 62
    39
  6
CONTINUOUS
 10
-0.627986
 20
0.688856
  0
VERTEX
  8
EBENE_1
 62
    39
  6
CONTINUOUS
 10
-0.619188
 20
0.674386
  0
VERTEX
  8
EBENE_1
 62
    39
  6
CONTINUOUS
 10
-0.609327
 20
0.659682
  0
VERTEX
  8
EBENE_1
 62
    39
  6
CONTINUOUS
 10
-0.598409
 20
0.644834
  0
VERTEX
  8
EBENE_1
 62
    39
  6
CONTINUOUS
 10
-0.586438
 20
0.629935
  0
VERTEX
  8
EBENE_1
 62
    39
  6
CONTINUOUS
 10
-0.573420
 20
0.615078
  0
VERTEX
  8
EBENE_1
 62
    39
  6
CONTINUOUS
 10
-0.559360
 20
0.600355
  0
VERTEX
  8
EBENE_1
 62
    39
  6
CONTINUOUS
 10
-0.544264
 20
0.585857
  0
VERTEX
  8
EBENE_1
 62
    39
  6
CONTINUOUS
 10
-0.528136
 20
0.571677
  0
VERTEX
  8
EBENE_1
 62
    39
  6
CONTINUOUS
 10
-0.510983
 20
0.557908
  0
VERTEX
  8
EBENE_1
 62
    39
  6
CONTINUOUS
 10
-0.492809
 20
0.544641
  0
VERTEX
  8
EBENE_1
 62
    39
  6
CONTINUOUS
 10
-0.473620
 20
0.531969
  0
VERTEX
  8
EBENE_1
 62
    39
  6
CONTINUOUS
 10
-0.453421
 20
0.519985
  0
VERTEX
  8
EBENE_1
 62
    39
  6
CONTINUOUS
 10
-0.432218
 20
0.508779
  0
VERTEX
  8
EBENE_1
 62
    39
  6
CONTINUOUS
 10
-0.410015
 20
0.498445
  0
VERTEX
  8
EBENE_1
 62
    39
  6
CONTINUOUS
 10
-0.386819
 20
0.489075
  0
VERTEX
  8
EBENE_1
 62
    39
  6
CONTINUOUS
 10
-0.386819
 20
0.489075
  0
VERTEX
  8
EBENE_1
 62
    39
  6
CONTINUOUS
 10
0.030201
 20
0.603976
  0
VERTEX
  8
EBENE_1
 62
    39
  6
CONTINUOUS
 10
-0.130661
 20
1.206193
  0
VERTEX
  8
EBENE_1
 62
    39
  6
CONTINUOUS
 10
-0.732874
 20
1.044657
  0
SEQEND
  8
0
  0
POLYLINE
  8
EBENE_1
 62
    39
  6
CONTINUOUS
 66
     1
 40
0.010000
 41
0.010000
 70
     1
  0
VERTEX
  8
EBENE_1
 62
    39
  6
CONTINUOUS
 10
-0.647035
 20
0.747264
  0
VERTEX
  8
EBENE_1
 62
    39
  6
CONTINUOUS
 10
-0.642268
 20
0.734058
  0
VERTEX
  8
EBENE_1
 62
    39
  6
CONTINUOUS
 10
-0.636306
 20
0.720195
  0
VERTEX
  8
EBENE_1
 62
    39
  6
CONTINUOUS
 10
-0.629159
 20
0.705781
  0
VERTEX
  8
EBENE_1
 62
    39
  6
CONTINUOUS
 10
-0.620832
 20
0.690923
  0
VERTEX
  8
EBENE_1
 62
    39
  6
CONTINUOUS
 10
-0.611335
 20
0.675727
  0
VERTEX
  8
EBENE_1
 62
    39
  6
CONTINUOUS
 10
-0.600674
 20
0.660300
  0
VERTEX
  8
EBENE_1
 62
    39
  6
CONTINUOUS
 10
-0.588858
 20
0.644747
  0
VERTEX
  8
EBENE_1
 62
    39
  6
CONTINUOUS
 10
-0.575894
 20
0.629176
  0
VERTEX
  8
EBENE_1
 62
    39
  6
CONTINUOUS
 10
-0.561789
 20
0.613692
  0
VERTEX
  8
EBENE_1
 62
    39
  6
CONTINUOUS
 10
-0.546551
 20
0.598402
  0
VERTEX
  8
EBENE_1
 62
    39
  6
CONTINUOUS
 10
-0.530189
 20
0.583413
  0
VERTEX
  8
EBENE_1
 62
    39
  6
CONTINUOUS
 10
-0.512709
 20
0.568830
  0
VERTEX
  8
EBENE_1
 62
    39
  6
CONTINUOUS
 10
-0.494119
 20
0.554761
  0
VERTEX
  8
EBENE_1
 62
    39
  6
CONTINUOUS
 10
-0.474427
 20
0.541311
  0
VERTEX
  8
EBENE_1
 62
    39
  6
CONTINUOUS
 10
-0.453641
 20
0.528587
  0
VERTEX
  8
EBENE_1
 62
    39
  6
CONTINUOUS
 10
-0.431768
 20
0.516695
  0
VERTEX
  8
EBENE_1
 62
    39
  6
CONTINUOUS
 10
-0.408815
 20
0.505742
  0
VERTEX
  8
EBENE_1
 62
    39
  6
CONTINUOUS
 10
-0.384791
 20
0.495835
  0
VERTEX
  8
EBENE_1
 62
    39
  6
CONTINUOUS
 10
0.024795
 20
0.608709
  0
VERTEX
  8
EBENE_1
 62
    39
  6
CONTINUOUS
 10
-0.134039
 20
1.205516
  0
VERTEX
  8
EBENE_1
 62
    39
  6
CONTINUOUS
 10
-0.726114
 20
1.046685
  0
SEQEND
  8
0
  0
POLYLINE
  8
EBENE_1
 62
    39
  6
CONTINUOUS
 66
     1
 40
0.010000
 41
0.010000
  0
VERTEX
  8
EBENE_1
 62
    39
  6
CONTINUOUS
 10
-0.125929
 20
0.987205
  0
VERTEX
  8
EBENE_1
 62
    39
  6
CONTINUOUS
 10
-0.123776
 20
0.987055
  0
VERTEX
  8
EBENE_1
 62
    39
  6
CONTINUOUS
 10
-0.121774
 20
0.985554
  0
VERTEX
  8
EBENE_1
 62
    39
  6
CONTINUOUS
 10
-0.120524
 20
0.983150
  0
SEQEND
  8
0
  0
POLYLINE
  8
EBENE_1
 62
    39
  6
CONTINUOUS
 66
     1
 40
0.010000
 41
0.010000
  0
VERTEX
  8
EBENE_1
 62
    39
  6
CONTINUOUS
 10
-0.120524
 20
0.983150
  0
VERTEX
  8
EBENE_1
 62
    39
  6
CONTINUOUS
 10
-0.120022
 20
0.979896
  0
VERTEX
  8
EBENE_1
 62
    39
  6
CONTINUOUS
 10
-0.121023
 20
0.977392
  0
VERTEX
  8
EBENE_1
 62
    39
  6
CONTINUOUS
 10
-0.123224
 20
0.976390
  0
SEQEND
  8
0
  0
POLYLINE
  8
EBENE_1
 62
    39
  6
CONTINUOUS
 66
     1
 40
0.010000
 41
0.010000
  0
VERTEX
  8
EBENE_1
 62
    39
  6
CONTINUOUS
 10
-0.123224
 20
0.976390
  0
VERTEX
  8
EBENE_1
 62
    39
  6
CONTINUOUS
 10
-0.125378
 20
0.976542
  0
VERTEX
  8
EBENE_1
 62
    39
  6
CONTINUOUS
 10
-0.127381
 20
0.978044
  0
VERTEX
  8
EBENE_1
 62
    39
  6
CONTINUOUS
 10
-0.128634
 20
0.980445
  0
SEQEND
  8
0
  0
POLYLINE
  8
EBENE_1
 62
    39
  6
CONTINUOUS
 66
     1
 40
0.010000
 41
0.010000
  0
VERTEX
  8
EBENE_1
 62
    39
  6
CONTINUOUS
 10
-0.128634
 20
0.980445
  0
VERTEX
  8
EBENE_1
 62
    39
  6
CONTINUOUS
 10
-0.128833
 20
0.983551
  0
VERTEX
  8
EBENE_1
 62
    39
  6
CONTINUOUS
 10
-0.127982
 20
0.985904
  0
VERTEX
  8
EBENE_1
 62
    39
  6
CONTINUOUS
 10
-0.125929
 20
0.987205
  0
SEQEND
  8
0
  0
POLYLINE
  8
EBENE_1
 62
    39
  6
CONTINUOUS
 66
     1
 40
0.010000
 41
0.010000
  0
VERTEX
  8
EBENE_1
 62
    39
  6
CONTINUOUS
 10
-0.096866
 20
0.886496
  0
VERTEX
  8
EBENE_1
 62
    39
  6
CONTINUOUS
 10
-0.094688
 20
0.886322
  0
VERTEX
  8
EBENE_1
 62
    39
  6
CONTINUOUS
 10
-0.092510
 20
0.884645
  0
VERTEX
  8
EBENE_1
 62
    39
  6
CONTINUOUS
 10
-0.090783
 20
0.881768
  0
SEQEND
  8
0
  0
POLYLINE
  8
EBENE_1
 62
    39
  6
CONTINUOUS
 66
     1
 40
0.010000
 41
0.010000
  0
VERTEX
  8
EBENE_1
 62
    39
  6
CONTINUOUS
 10
-0.090783
 20
0.881768
  0
VERTEX
  8
EBENE_1
 62
    39
  6
CONTINUOUS
 10
-0.090732
 20
0.878663
  0
VERTEX
  8
EBENE_1
 62
    39
  6
CONTINUOUS
 10
-0.091734
 20
0.876310
  0
VERTEX
  8
EBENE_1
 62
    39
  6
CONTINUOUS
 10
-0.093488
 20
0.875008
  0
SEQEND
  8
0
  0
POLYLINE
  8
EBENE_1
 62
    39
  6
CONTINUOUS
 66
     1
 40
0.010000
 41
0.010000
  0
VERTEX
  8
EBENE_1
 62
    39
  6
CONTINUOUS
 10
-0.093488
 20
0.875008
  0
VERTEX
  8
EBENE_1
 62
    39
  6
CONTINUOUS
 10
-0.096115
 20
0.875182
  0
VERTEX
  8
EBENE_1
 62
    39
  6
CONTINUOUS
 10
-0.098293
 20
0.876860
  0
VERTEX
  8
EBENE_1
 62
    39
  6
CONTINUOUS
 10
-0.099571
 20
0.879740
  0
SEQEND
  8
0
  0
POLYLINE
  8
EBENE_1
 62
    39
  6
CONTINUOUS
 66
     1
 40
0.010000
 41
0.010000
  0
VERTEX
  8
EBENE_1
 62
    39
  6
CONTINUOUS
 10
-0.099571
 20
0.879740
  0
VERTEX
  8
EBENE_1
 62
    39
  6
CONTINUOUS
 10
-0.099619
 20
0.882542
  0
VERTEX
  8
EBENE_1
 62
    39
  6
CONTINUOUS
 10
-0.098618
 20
0.885045
  0
VERTEX
  8
EBENE_1
 62
    39
  6
CONTINUOUS
 10
-0.096866
 20
0.886496
  0
SEQEND
  8
0
  0
POLYLINE
  8
EBENE_1
 62
    39
  6
CONTINUOUS
 66
     1
 40
0.010000
 41
0.010000
  0
VERTEX
  8
EBENE_1
 62
    39
  6
CONTINUOUS
 10
-0.365866
 20
1.116976
  0
VERTEX
  8
EBENE_1
 62
    39
  6
CONTINUOUS
 10
-0.363238
 20
1.116802
  0
VERTEX
  8
EBENE_1
 62
    39
  6
CONTINUOUS
 10
-0.361060
 20
1.115125
  0
VERTEX
  8
EBENE_1
 62
    39
  6
CONTINUOUS
 10
-0.359783
 20
1.112244
  0
SEQEND
  8
0
  0
POLYLINE
  8
EBENE_1
 62
    39
  6
CONTINUOUS
 66
     1
 40
0.010000
 41
0.010000
  0
VERTEX
  8
EBENE_1
 62
    39
  6
CONTINUOUS
 10
-0.359783
 20
1.112244
  0
VERTEX
  8
EBENE_1
 62
    39
  6
CONTINUOUS
 10
-0.359733
 20
1.109440
  0
VERTEX
  8
EBENE_1
 62
    39
  6
CONTINUOUS
 10
-0.360735
 20
1.106937
  0
VERTEX
  8
EBENE_1
 62
    39
  6
CONTINUOUS
 10
-0.362488
 20
1.105484
  0
SEQEND
  8
0
  0
POLYLINE
  8
EBENE_1
 62
    39
  6
CONTINUOUS
 66
     1
 40
0.010000
 41
0.010000
  0
VERTEX
  8
EBENE_1
 62
    39
  6
CONTINUOUS
 10
-0.362488
 20
1.105484
  0
VERTEX
  8
EBENE_1
 62
    39
  6
CONTINUOUS
 10
-0.364964
 20
1.105660
  0
VERTEX
  8
EBENE_1
 62
    39
  6
CONTINUOUS
 10
-0.366991
 20
1.107337
  0
VERTEX
  8
EBENE_1
 62
    39
  6
CONTINUOUS
 10
-0.368567
 20
1.110217
  0
SEQEND
  8
0
  0
POLYLINE
  8
EBENE_1
 62
    39
  6
CONTINUOUS
 66
     1
 40
0.010000
 41
0.010000
  0
VERTEX
  8
EBENE_1
 62
    39
  6
CONTINUOUS
 10
-0.368567
 20
1.110217
  0
VERTEX
  8
EBENE_1
 62
    39
  6
CONTINUOUS
 10
-0.368618
 20
1.113320
  0
VERTEX
  8
EBENE_1
 62
    39
  6
CONTINUOUS
 10
-0.367618
 20
1.115674
  0
VERTEX
  8
EBENE_1
 62
    39
  6
CONTINUOUS
 10
-0.365866
 20
1.116976
  0
SEQEND
  8
0
  0
POLYLINE
  8
EBENE_1
 62
    39
  6
CONTINUOUS
 66
     1
 40
0.010000
 41
0.010000
  0
VERTEX
  8
EBENE_1
 62
    39
  6
CONTINUOUS
 10
-0.482795
 20
1.083858
  0
VERTEX
  8
EBENE_1
 62
    39
  6
CONTINUOUS
 10
-0.480166
 20
1.083681
  0
VERTEX
  8
EBENE_1
 62
    39
  6
CONTINUOUS
 10
-0.477988
 20
1.082004
  0
VERTEX
  8
EBENE_1
 62
    39
  6
CONTINUOUS
 10
-0.476713
 20
1.079126
  0
SEQEND
  8
0
  0
POLYLINE
  8
EBENE_1
 62
    39
  6
CONTINUOUS
 66
     1
 40
0.010000
 41
0.010000
  0
VERTEX
  8
EBENE_1
 62
    39
  6
CONTINUOUS
 10
-0.476713
 20
1.079126
  0
VERTEX
  8
EBENE_1
 62
    39
  6
CONTINUOUS
 10
-0.476661
 20
1.076023
  0
VERTEX
  8
EBENE_1
 62
    39
  6
CONTINUOUS
 10
-0.477662
 20
1.073669
  0
VERTEX
  8
EBENE_1
 62
    39
  6
CONTINUOUS
 10
-0.479413
 20
1.072366
  0
SEQEND
  8
0
  0
POLYLINE
  8
EBENE_1
 62
    39
  6
CONTINUOUS
 66
     1
 40
0.010000
 41
0.010000
  0
VERTEX
  8
EBENE_1
 62
    39
  6
CONTINUOUS
 10
-0.479413
 20
1.072366
  0
VERTEX
  8
EBENE_1
 62
    39
  6
CONTINUOUS
 10
-0.481591
 20
1.072541
  0
VERTEX
  8
EBENE_1
 62
    39
  6
CONTINUOUS
 10
-0.483769
 20
1.074220
  0
VERTEX
  8
EBENE_1
 62
    39
  6
CONTINUOUS
 10
-0.485496
 20
1.077098
  0
SEQEND
  8
0
  0
POLYLINE
  8
EBENE_1
 62
    39
  6
CONTINUOUS
 66
     1
 40
0.010000
 41
0.010000
  0
VERTEX
  8
EBENE_1
 62
    39
  6
CONTINUOUS
 10
-0.485496
 20
1.077098
  0
VERTEX
  8
EBENE_1
 62
    39
  6
CONTINUOUS
 10
-0.485547
 20
1.079903
  0
VERTEX
  8
EBENE_1
 62
    39
  6
CONTINUOUS
 10
-0.484547
 20
1.082406
  0
VERTEX
  8
EBENE_1
 62
    39
  6
CONTINUOUS
 10
-0.482795
 20
1.083858
  0
SEQEND
  8
0
  0
POLYLINE
  8
EBENE_1
 62
    39
  6
CONTINUOUS
 66
     1
 40
0.010000
 41
0.010000
 70
     1
  0
VERTEX
  8
EBENE_1
 62
    39
  6
CONTINUOUS
 10
-0.233394
 20
0.847295
  0
VERTEX
  8
EBENE_1
 62
    39
  6
CONTINUOUS
 10
-0.228902
 20
0.834690
  0
VERTEX
  8
EBENE_1
 62
    39
  6
CONTINUOUS
 10
-0.223326
 20
0.821480
  0
VERTEX
  8
EBENE_1
 62
    39
  6
CONTINUOUS
 10
-0.216672
 20
0.807760
  0
VERTEX
  8
EBENE_1
 62
    39
  6
CONTINUOUS
 10
-0.208947
 20
0.793622
  0
VERTEX
  8
EBENE_1
 62
    39
  6
CONTINUOUS
 10
-0.200155
 20
0.779159
  0
VERTEX
  8
EBENE_1
 62
    39
  6
CONTINUOUS
 10
-0.190303
 20
0.764464
  0
VERTEX
  8
EBENE_1
 62
    39
  6
CONTINUOUS
 10
-0.179397
 20
0.749629
  0
VERTEX
  8
EBENE_1
 62
    39
  6
CONTINUOUS
 10
-0.167443
 20
0.734747
  0
VERTEX
  8
EBENE_1
 62
    39
  6
CONTINUOUS
 10
-0.154446
 20
0.719912
  0
VERTEX
  8
EBENE_1
 62
    39
  6
CONTINUOUS
 10
-0.140413
 20
0.705215
  0
VERTEX
  8
EBENE_1
 62
    39
  6
CONTINUOUS
 10
-0.125349
 20
0.690751
  0
VERTEX
  8
EBENE_1
 62
    39
  6
CONTINUOUS
 10
-0.109260
 20
0.676610
  0
VERTEX
  8
EBENE_1
 62
    39
  6
CONTINUOUS
 10
-0.092153
 20
0.662888
  0
VERTEX
  8
EBENE_1
 62
    39
  6
CONTINUOUS
 10
-0.074033
 20
0.649675
  0
VERTEX
  8
EBENE_1
 62
    39
  6
CONTINUOUS
 10
-0.054906
 20
0.637066
  0
VERTEX
  8
EBENE_1
 62
    39
  6
CONTINUOUS
 10
-0.034779
 20
0.625153
  0
VERTEX
  8
EBENE_1
 62
    39
  6
CONTINUOUS
 10
-0.013656
 20
0.614028
  0
VERTEX
  8
EBENE_1
 62
    39
  6
CONTINUOUS
 10
0.008456
 20
0.603785
  0
VERTEX
  8
EBENE_1
 62
    39
  6
CONTINUOUS
 10
0.031551
 20
0.594516
  0
VERTEX
  8
EBENE_1
 62
    39
  6
CONTINUOUS
 10
0.031551
 20
0.594516
  0
VERTEX
  8
EBENE_1
 62
    39
  6
CONTINUOUS
 10
0.449252
 20
0.708740
  0
VERTEX
  8
EBENE_1
 62
    39
  6
CONTINUOUS
 10
0.287717
 20
1.311630
  0
VERTEX
  8
EBENE_1
 62
    39
  6
CONTINUOUS
 10
-0.313827
 20
1.150094
  0
SEQEND
  8
0
  0
POLYLINE
  8
EBENE_1
 62
    39
  6
CONTINUOUS
 66
     1
 40
0.010000
 41
0.010000
 70
     1
  0
VERTEX
  8
EBENE_1
 62
    39
  6
CONTINUOUS
 10
-0.227988
 20
0.852028
  0
VERTEX
  8
EBENE_1
 62
    39
  6
CONTINUOUS
 10
-0.223221
 20
0.838822
  0
VERTEX
  8
EBENE_1
 62
    39
  6
CONTINUOUS
 10
-0.217260
 20
0.824960
  0
VERTEX
  8
EBENE_1
 62
    39
  6
CONTINUOUS
 10
-0.210115
 20
0.810548
  0
VERTEX
  8
EBENE_1
 62
    39
  6
CONTINUOUS
 10
-0.201793
 20
0.795694
  0
VERTEX
  8
EBENE_1
 62
    39
  6
CONTINUOUS
 10
-0.192302
 20
0.780505
  0
VERTEX
  8
EBENE_1
 62
    39
  6
CONTINUOUS
 10
-0.181652
 20
0.765089
  0
VERTEX
  8
EBENE_1
 62
    39
  6
CONTINUOUS
 10
-0.169851
 20
0.749551
  0
VERTEX
  8
EBENE_1
 62
    39
  6
CONTINUOUS
 10
-0.156906
 20
0.733999
  0
VERTEX
  8
EBENE_1
 62
    39
  6
CONTINUOUS
 10
-0.142826
 20
0.718540
  0
VERTEX
  8
EBENE_1
 62
    39
  6
CONTINUOUS
 10
-0.127620
 20
0.703281
  0
VERTEX
  8
EBENE_1
 62
    39
  6
CONTINUOUS
 10
-0.111296
 20
0.688330
  0
VERTEX
  8
EBENE_1
 62
    39
  6
CONTINUOUS
 10
-0.093862
 20
0.673793
  0
VERTEX
  8
EBENE_1
 62
    39
  6
CONTINUOUS
 10
-0.075327
 20
0.659778
  0
VERTEX
  8
EBENE_1
 62
    39
  6
CONTINUOUS
 10
-0.055699
 20
0.646391
  0
VERTEX
  8
EBENE_1
 62
    39
  6
CONTINUOUS
 10
-0.034985
 20
0.633740
  0
VERTEX
  8
EBENE_1
 62
    39
  6
CONTINUOUS
 10
-0.013196
 20
0.621932
  0
VERTEX
  8
EBENE_1
 62
    39
  6
CONTINUOUS
 10
0.009662
 20
0.611073
  0
VERTEX
  8
EBENE_1
 62
    39
  6
CONTINUOUS
 10
0.033579
 20
0.601272
  0
VERTEX
  8
EBENE_1
 62
    39
  6
CONTINUOUS
 10
0.443843
 20
0.713469
  0
VERTEX
  8
EBENE_1
 62
    39
  6
CONTINUOUS
 10
0.284335
 20
1.310280
  0
VERTEX
  8
EBENE_1
 62
    39
  6
CONTINUOUS
 10
-0.307067
 20
1.152122
  0
SEQEND
  8
0
  0
POLYLINE
  8
EBENE_1
 62
    39
  6
CONTINUOUS
 66
     1
 40
0.010000
 41
0.010000
  0
VERTEX
  8
EBENE_1
 62
    39
  6
CONTINUOUS
 10
0.292445
 20
1.092642
  0
VERTEX
  8
EBENE_1
 62
    39
  6
CONTINUOUS
 10
0.294598
 20
1.092467
  0
VERTEX
  8
EBENE_1
 62
    39
  6
CONTINUOUS
 10
0.296601
 20
1.090791
  0
VERTEX
  8
EBENE_1
 62
    39
  6
CONTINUOUS
 10
0.297854
 20
1.087913
  0
SEQEND
  8
0
  0
POLYLINE
  8
EBENE_1
 62
    39
  6
CONTINUOUS
 66
     1
 40
0.010000
 41
0.010000
  0
VERTEX
  8
EBENE_1
 62
    39
  6
CONTINUOUS
 10
0.297854
 20
1.087913
  0
VERTEX
  8
EBENE_1
 62
    39
  6
CONTINUOUS
 10
0.298354
 20
1.084808
  0
VERTEX
  8
EBENE_1
 62
    39
  6
CONTINUOUS
 10
0.297353
 20
1.082456
  0
VERTEX
  8
EBENE_1
 62
    39
  6
CONTINUOUS
 10
0.295150
 20
1.081154
  0
SEQEND
  8
0
  0
POLYLINE
  8
EBENE_1
 62
    39
  6
CONTINUOUS
 66
     1
 40
0.010000
 41
0.010000
  0
VERTEX
  8
EBENE_1
 62
    39
  6
CONTINUOUS
 10
0.295150
 20
1.081154
  0
VERTEX
  8
EBENE_1
 62
    39
  6
CONTINUOUS
 10
0.292997
 20
1.081328
  0
VERTEX
  8
EBENE_1
 62
    39
  6
CONTINUOUS
 10
0.290994
 20
1.083005
  0
VERTEX
  8
EBENE_1
 62
    39
  6
CONTINUOUS
 10
0.289744
 20
1.085886
  0
SEQEND
  8
0
  0
POLYLINE
  8
EBENE_1
 62
    39
  6
CONTINUOUS
 66
     1
 40
0.010000
 41
0.010000
  0
VERTEX
  8
EBENE_1
 62
    39
  6
CONTINUOUS
 10
0.289744
 20
1.085886
  0
VERTEX
  8
EBENE_1
 62
    39
  6
CONTINUOUS
 10
0.289543
 20
1.088688
  0
VERTEX
  8
EBENE_1
 62
    39
  6
CONTINUOUS
 10
0.290394
 20
1.091191
  0
VERTEX
  8
EBENE_1
 62
    39
  6
CONTINUOUS
 10
0.292445
 20
1.092642
  0
SEQEND
  8
0
  0
POLYLINE
  8
EBENE_1
 62
    39
  6
CONTINUOUS
 66
     1
 40
0.010000
 41
0.010000
  0
VERTEX
  8
EBENE_1
 62
    39
  6
CONTINUOUS
 10
0.321508
 20
0.991260
  0
VERTEX
  8
EBENE_1
 62
    39
  6
CONTINUOUS
 10
0.323661
 20
0.991086
  0
VERTEX
  8
EBENE_1
 62
    39
  6
CONTINUOUS
 10
0.325664
 20
0.989409
  0
VERTEX
  8
EBENE_1
 62
    39
  6
CONTINUOUS
 10
0.326917
 20
0.986531
  0
SEQEND
  8
0
  0
POLYLINE
  8
EBENE_1
 62
    39
  6
CONTINUOUS
 66
     1
 40
0.010000
 41
0.010000
  0
VERTEX
  8
EBENE_1
 62
    39
  6
CONTINUOUS
 10
0.326917
 20
0.986531
  0
VERTEX
  8
EBENE_1
 62
    39
  6
CONTINUOUS
 10
0.327417
 20
0.983726
  0
VERTEX
  8
EBENE_1
 62
    39
  6
CONTINUOUS
 10
0.326416
 20
0.981222
  0
VERTEX
  8
EBENE_1
 62
    39
  6
CONTINUOUS
 10
0.324213
 20
0.979772
  0
SEQEND
  8
0
  0
POLYLINE
  8
EBENE_1
 62
    39
  6
CONTINUOUS
 66
     1
 40
0.010000
 41
0.010000
  0
VERTEX
  8
EBENE_1
 62
    39
  6
CONTINUOUS
 10
0.324213
 20
0.979772
  0
VERTEX
  8
EBENE_1
 62
    39
  6
CONTINUOUS
 10
0.322060
 20
0.979946
  0
VERTEX
  8
EBENE_1
 62
    39
  6
CONTINUOUS
 10
0.320057
 20
0.981622
  0
VERTEX
  8
EBENE_1
 62
    39
  6
CONTINUOUS
 10
0.318807
 20
0.984500
  0
SEQEND
  8
0
  0
POLYLINE
  8
EBENE_1
 62
    39
  6
CONTINUOUS
 66
     1
 40
0.010000
 41
0.010000
  0
VERTEX
  8
EBENE_1
 62
    39
  6
CONTINUOUS
 10
0.318807
 20
0.984500
  0
VERTEX
  8
EBENE_1
 62
    39
  6
CONTINUOUS
 10
0.318606
 20
0.987606
  0
VERTEX
  8
EBENE_1
 62
    39
  6
CONTINUOUS
 10
0.319457
 20
0.989960
  0
VERTEX
  8
EBENE_1
 62
    39
  6
CONTINUOUS
 10
0.321508
 20
0.991260
  0
SEQEND
  8
0
  0
POLYLINE
  8
EBENE_1
 62
    39
  6
CONTINUOUS
 66
     1
 40
0.010000
 41
0.010000
  0
VERTEX
  8
EBENE_1
 62
    39
  6
CONTINUOUS
 10
0.052504
 20
1.221736
  0
VERTEX
  8
EBENE_1
 62
    39
  6
CONTINUOUS
 10
0.055134
 20
1.221587
  0
VERTEX
  8
EBENE_1
 62
    39
  6
CONTINUOUS
 10
0.057313
 20
1.220085
  0
VERTEX
  8
EBENE_1
 62
    39
  6
CONTINUOUS
 10
0.058591
 20
1.217681
  0
SEQEND
  8
0
  0
POLYLINE
  8
EBENE_1
 62
    39
  6
CONTINUOUS
 66
     1
 40
0.010000
 41
0.010000
  0
VERTEX
  8
EBENE_1
 62
    39
  6
CONTINUOUS
 10
0.058591
 20
1.217681
  0
VERTEX
  8
EBENE_1
 62
    39
  6
CONTINUOUS
 10
0.058639
 20
1.214579
  0
VERTEX
  8
EBENE_1
 62
    39
  6
CONTINUOUS
 10
0.057638
 20
1.212227
  0
VERTEX
  8
EBENE_1
 62
    39
  6
CONTINUOUS
 10
0.055886
 20
1.210925
  0
SEQEND
  8
0
  0
POLYLINE
  8
EBENE_1
 62
    39
  6
CONTINUOUS
 66
     1
 40
0.010000
 41
0.010000
  0
VERTEX
  8
EBENE_1
 62
    39
  6
CONTINUOUS
 10
0.055886
 20
1.210925
  0
VERTEX
  8
EBENE_1
 62
    39
  6
CONTINUOUS
 10
0.053256
 20
1.211075
  0
VERTEX
  8
EBENE_1
 62
    39
  6
CONTINUOUS
 10
0.051077
 20
1.212576
  0
VERTEX
  8
EBENE_1
 62
    39
  6
CONTINUOUS
 10
0.049799
 20
1.214980
  0
SEQEND
  8
0
  0
POLYLINE
  8
EBENE_1
 62
    39
  6
CONTINUOUS
 66
     1
 40
0.010000
 41
0.010000
  0
VERTEX
  8
EBENE_1
 62
    39
  6
CONTINUOUS
 10
0.049799
 20
1.214980
  0
VERTEX
  8
EBENE_1
 62
    39
  6
CONTINUOUS
 10
0.049751
 20
1.218233
  0
VERTEX
  8
EBENE_1
 62
    39
  6
CONTINUOUS
 10
0.050752
 20
1.220735
  0
VERTEX
  8
EBENE_1
 62
    39
  6
CONTINUOUS
 10
0.052504
 20
1.221736
  0
SEQEND
  8
0
  0
POLYLINE
  8
EBENE_1
 62
    39
  6
CONTINUOUS
 66
     1
 40
0.010000
 41
0.010000
  0
VERTEX
  8
EBENE_1
 62
    39
  6
CONTINUOUS
 10
-0.064425
 20
1.188618
  0
VERTEX
  8
EBENE_1
 62
    39
  6
CONTINUOUS
 10
-0.061796
 20
1.188444
  0
VERTEX
  8
EBENE_1
 62
    39
  6
CONTINUOUS
 10
-0.059618
 20
1.186767
  0
VERTEX
  8
EBENE_1
 62
    39
  6
CONTINUOUS
 10
-0.058343
 20
1.183890
  0
SEQEND
  8
0
  0
POLYLINE
  8
EBENE_1
 62
    39
  6
CONTINUOUS
 66
     1
 40
0.010000
 41
0.010000
  0
VERTEX
  8
EBENE_1
 62
    39
  6
CONTINUOUS
 10
-0.058343
 20
1.183890
  0
VERTEX
  8
EBENE_1
 62
    39
  6
CONTINUOUS
 10
-0.058291
 20
1.181086
  0
VERTEX
  8
EBENE_1
 62
    39
  6
CONTINUOUS
 10
-0.059291
 20
1.178582
  0
VERTEX
  8
EBENE_1
 62
    39
  6
CONTINUOUS
 10
-0.061043
 20
1.177130
  0
SEQEND
  8
0
  0
POLYLINE
  8
EBENE_1
 62
    39
  6
CONTINUOUS
 66
     1
 40
0.010000
 41
0.010000
  0
VERTEX
  8
EBENE_1
 62
    39
  6
CONTINUOUS
 10
-0.061043
 20
1.177130
  0
VERTEX
  8
EBENE_1
 62
    39
  6
CONTINUOUS
 10
-0.063522
 20
1.177304
  0
VERTEX
  8
EBENE_1
 62
    39
  6
CONTINUOUS
 10
-0.065550
 20
1.178981
  0
VERTEX
  8
EBENE_1
 62
    39
  6
CONTINUOUS
 10
-0.067126
 20
1.181858
  0
SEQEND
  8
0
  0
POLYLINE
  8
EBENE_1
 62
    39
  6
CONTINUOUS
 66
     1
 40
0.010000
 41
0.010000
  0
VERTEX
  8
EBENE_1
 62
    39
  6
CONTINUOUS
 10
-0.067126
 20
1.181858
  0
VERTEX
  8
EBENE_1
 62
    39
  6
CONTINUOUS
 10
-0.067176
 20
1.184964
  0
VERTEX
  8
EBENE_1
 62
    39
  6
CONTINUOUS
 10
-0.066175
 20
1.187318
  0
VERTEX
  8
EBENE_1
 62
    39
  6
CONTINUOUS
 10
-0.064425
 20
1.188618
  0
SEQEND
  8
0
  0
POLYLINE
  8
EBENE_1
 62
    39
  6
CONTINUOUS
 66
     1
 40
0.010000
 41
0.010000
 70
     1
  0
VERTEX
  8
EBENE_1
 62
    39
  6
CONTINUOUS
 10
-1.800102
 20
0.927728
  0
VERTEX
  8
EBENE_1
 62
    39
  6
CONTINUOUS
 10
-1.795609
 20
0.915123
  0
VERTEX
  8
EBENE_1
 62
    39
  6
CONTINUOUS
 10
-1.790032
 20
0.901913
  0
VERTEX
  8
EBENE_1
 62
    39
  6
CONTINUOUS
 10
-1.783376
 20
0.888191
  0
VERTEX
  8
EBENE_1
 62
    39
  6
CONTINUOUS
 10
-1.775646
 20
0.874049
  0
VERTEX
  8
EBENE_1
 62
    39
  6
CONTINUOUS
 10
-1.766847
 20
0.859579
  0
VERTEX
  8
EBENE_1
 62
    39
  6
CONTINUOUS
 10
-1.756986
 20
0.844875
  0
VERTEX
  8
EBENE_1
 62
    39
  6
CONTINUOUS
 10
-1.746067
 20
0.830027
  0
VERTEX
  8
EBENE_1
 62
    39
  6
CONTINUOUS
 10
-1.734096
 20
0.815128
  0
VERTEX
  8
EBENE_1
 62
    39
  6
CONTINUOUS
 10
-1.721078
 20
0.800271
  0
VERTEX
  8
EBENE_1
 62
    39
  6
CONTINUOUS
 10
-1.707018
 20
0.785547
  0
VERTEX
  8
EBENE_1
 62
    39
  6
CONTINUOUS
 10
-1.691921
 20
0.771050
  0
VERTEX
  8
EBENE_1
 62
    39
  6
CONTINUOUS
 10
-1.675794
 20
0.756870
  0
VERTEX
  8
EBENE_1
 62
    39
  6
CONTINUOUS
 10
-1.658640
 20
0.743101
  0
VERTEX
  8
EBENE_1
 62
    39
  6
CONTINUOUS
 10
-1.640467
 20
0.729834
  0
VERTEX
  8
EBENE_1
 62
    39
  6
CONTINUOUS
 10
-1.621278
 20
0.717162
  0
VERTEX
  8
EBENE_1
 62
    39
  6
CONTINUOUS
 10
-1.601079
 20
0.705178
  0
VERTEX
  8
EBENE_1
 62
    39
  6
CONTINUOUS
 10
-1.579875
 20
0.693972
  0
VERTEX
  8
EBENE_1
 62
    39
  6
CONTINUOUS
 10
-1.557673
 20
0.683638
  0
VERTEX
  8
EBENE_1
 62
    39
  6
CONTINUOUS
 10
-1.534476
 20
0.674268
  0
VERTEX
  8
EBENE_1
 62
    39
  6
CONTINUOUS
 10
-1.534476
 20
0.674268
  0
VERTEX
  8
EBENE_1
 62
    39
  6
CONTINUOUS
 10
-1.116776
 20
0.789169
  0
VERTEX
  8
EBENE_1
 62
    39
  6
CONTINUOUS
 10
-1.278315
 20
1.391386
  0
VERTEX
  8
EBENE_1
 62
    39
  6
CONTINUOUS
 10
-1.880531
 20
1.229850
  0
SEQEND
  8
0
  0
POLYLINE
  8
EBENE_1
 62
    39
  6
CONTINUOUS
 66
     1
 40
0.010000
 41
0.010000
 70
     1
  0
VERTEX
  8
EBENE_1
 62
    39
  6
CONTINUOUS
 10
-1.794693
 20
0.932457
  0
VERTEX
  8
EBENE_1
 62
    39
  6
CONTINUOUS
 10
-1.789925
 20
0.919245
  0
VERTEX
  8
EBENE_1
 62
    39
  6
CONTINUOUS
 10
-1.783964
 20
0.905366
  0
VERTEX
  8
EBENE_1
 62
    39
  6
CONTINUOUS
 10
-1.776816
 20
0.890927
  0
VERTEX
  8
EBENE_1
 62
    39
  6
CONTINUOUS
 10
-1.768490
 20
0.876038
  0
VERTEX
  8
EBENE_1
 62
    39
  6
CONTINUOUS
 10
-1.758993
 20
0.860807
  0
VERTEX
  8
EBENE_1
 62
    39
  6
CONTINUOUS
 10
-1.748332
 20
0.845342
  0
VERTEX
  8
EBENE_1
 62
    39
  6
CONTINUOUS
 10
-1.736516
 20
0.829752
  0
VERTEX
  8
EBENE_1
 62
    39
  6
CONTINUOUS
 10
-1.723551
 20
0.814146
  0
VERTEX
  8
EBENE_1
 62
    39
  6
CONTINUOUS
 10
-1.709446
 20
0.798631
  0
VERTEX
  8
EBENE_1
 62
    39
  6
CONTINUOUS
 10
-1.694209
 20
0.783316
  0
VERTEX
  8
EBENE_1
 62
    39
  6
CONTINUOUS
 10
-1.677846
 20
0.768311
  0
VERTEX
  8
EBENE_1
 62
    39
  6
CONTINUOUS
 10
-1.660366
 20
0.753722
  0
VERTEX
  8
EBENE_1
 62
    39
  6
CONTINUOUS
 10
-1.641777
 20
0.739659
  0
VERTEX
  8
EBENE_1
 62
    39
  6
CONTINUOUS
 10
-1.622085
 20
0.726231
  0
VERTEX
  8
EBENE_1
 62
    39
  6
CONTINUOUS
 10
-1.601298
 20
0.713545
  0
VERTEX
  8
EBENE_1
 62
    39
  6
CONTINUOUS
 10
-1.579425
 20
0.701710
  0
VERTEX
  8
EBENE_1
 62
    39
  6
CONTINUOUS
 10
-1.556473
 20
0.690835
  0
VERTEX
  8
EBENE_1
 62
    39
  6
CONTINUOUS
 10
-1.532449
 20
0.681028
  0
VERTEX
  8
EBENE_1
 62
    39
  6
CONTINUOUS
 10
-1.532449
 20
0.681028
  0
VERTEX
  8
EBENE_1
 62
    39
  6
CONTINUOUS
 10
-1.122185
 20
0.793902
  0
VERTEX
  8
EBENE_1
 62
    39
  6
CONTINUOUS
 10
-1.281693
 20
1.390709
  0
VERTEX
  8
EBENE_1
 62
    39
  6
CONTINUOUS
 10
-1.873772
 20
1.231878
  0
SEQEND
  8
0
  0
POLYLINE
  8
EBENE_1
 62
    39
  6
CONTINUOUS
 66
     1
 40
0.010000
 41
0.010000
  0
VERTEX
  8
EBENE_1
 62
    39
  6
CONTINUOUS
 10
-1.273583
 20
1.172398
  0
VERTEX
  8
EBENE_1
 62
    39
  6
CONTINUOUS
 10
-1.271430
 20
1.172248
  0
VERTEX
  8
EBENE_1
 62
    39
  6
CONTINUOUS
 10
-1.269427
 20
1.170746
  0
VERTEX
  8
EBENE_1
 62
    39
  6
CONTINUOUS
 10
-1.268177
 20
1.168343
  0
SEQEND
  8
0
  0
POLYLINE
  8
EBENE_1
 62
    39
  6
CONTINUOUS
 66
     1
 40
0.010000
 41
0.010000
  0
VERTEX
  8
EBENE_1
 62
    39
  6
CONTINUOUS
 10
-1.268177
 20
1.168343
  0
VERTEX
  8
EBENE_1
 62
    39
  6
CONTINUOUS
 10
-1.267675
 20
1.165089
  0
VERTEX
  8
EBENE_1
 62
    39
  6
CONTINUOUS
 10
-1.268676
 20
1.162585
  0
VERTEX
  8
EBENE_1
 62
    39
  6
CONTINUOUS
 10
-1.270878
 20
1.161583
  0
SEQEND
  8
0
  0
POLYLINE
  8
EBENE_1
 62
    39
  6
CONTINUOUS
 66
     1
 40
0.010000
 41
0.010000
  0
VERTEX
  8
EBENE_1
 62
    39
  6
CONTINUOUS
 10
-1.270878
 20
1.161583
  0
VERTEX
  8
EBENE_1
 62
    39
  6
CONTINUOUS
 10
-1.273033
 20
1.161735
  0
VERTEX
  8
EBENE_1
 62
    39
  6
CONTINUOUS
 10
-1.275035
 20
1.163237
  0
VERTEX
  8
EBENE_1
 62
    39
  6
CONTINUOUS
 10
-1.276287
 20
1.165638
  0
SEQEND
  8
0
  0
POLYLINE
  8
EBENE_1
 62
    39
  6
CONTINUOUS
 66
     1
 40
0.010000
 41
0.010000
  0
VERTEX
  8
EBENE_1
 62
    39
  6
CONTINUOUS
 10
-1.276287
 20
1.165638
  0
VERTEX
  8
EBENE_1
 62
    39
  6
CONTINUOUS
 10
-1.276488
 20
1.168744
  0
VERTEX
  8
EBENE_1
 62
    39
  6
CONTINUOUS
 10
-1.275636
 20
1.171097
  0
VERTEX
  8
EBENE_1
 62
    39
  6
CONTINUOUS
 10
-1.273583
 20
1.172398
  0
SEQEND
  8
0
  0
POLYLINE
  8
EBENE_1
 62
    39
  6
CONTINUOUS
 66
     1
 40
0.010000
 41
0.010000
  0
VERTEX
  8
EBENE_1
 62
    39
  6
CONTINUOUS
 10
-1.244520
 20
1.071689
  0
VERTEX
  8
EBENE_1
 62
    39
  6
CONTINUOUS
 10
-1.242342
 20
1.071515
  0
VERTEX
  8
EBENE_1
 62
    39
  6
CONTINUOUS
 10
-1.240164
 20
1.069838
  0
VERTEX
  8
EBENE_1
 62
    39
  6
CONTINUOUS
 10
-1.238437
 20
1.066961
  0
SEQEND
  8
0
  0
POLYLINE
  8
EBENE_1
 62
    39
  6
CONTINUOUS
 66
     1
 40
0.010000
 41
0.010000
  0
VERTEX
  8
EBENE_1
 62
    39
  6
CONTINUOUS
 10
-1.238437
 20
1.066961
  0
VERTEX
  8
EBENE_1
 62
    39
  6
CONTINUOUS
 10
-1.238387
 20
1.063857
  0
VERTEX
  8
EBENE_1
 62
    39
  6
CONTINUOUS
 10
-1.239389
 20
1.061504
  0
VERTEX
  8
EBENE_1
 62
    39
  6
CONTINUOUS
 10
-1.241142
 20
1.060201
  0
SEQEND
  8
0
  0
POLYLINE
  8
EBENE_1
 62
    39
  6
CONTINUOUS
 66
     1
 40
0.010000
 41
0.010000
  0
VERTEX
  8
EBENE_1
 62
    39
  6
CONTINUOUS
 10
-1.241142
 20
1.060201
  0
VERTEX
  8
EBENE_1
 62
    39
  6
CONTINUOUS
 10
-1.243769
 20
1.060351
  0
VERTEX
  8
EBENE_1
 62
    39
  6
CONTINUOUS
 10
-1.245947
 20
1.061854
  0
VERTEX
  8
EBENE_1
 62
    39
  6
CONTINUOUS
 10
-1.247224
 20
1.064256
  0
SEQEND
  8
0
  0
POLYLINE
  8
EBENE_1
 62
    39
  6
CONTINUOUS
 66
     1
 40
0.010000
 41
0.010000
  0
VERTEX
  8
EBENE_1
 62
    39
  6
CONTINUOUS
 10
-1.247224
 20
1.064256
  0
VERTEX
  8
EBENE_1
 62
    39
  6
CONTINUOUS
 10
-1.247273
 20
1.067535
  0
VERTEX
  8
EBENE_1
 62
    39
  6
CONTINUOUS
 10
-1.246272
 20
1.070213
  0
VERTEX
  8
EBENE_1
 62
    39
  6
CONTINUOUS
 10
-1.244520
 20
1.071689
  0
SEQEND
  8
0
  0
POLYLINE
  8
EBENE_1
 62
    39
  6
CONTINUOUS
 66
     1
 40
0.010000
 41
0.010000
  0
VERTEX
  8
EBENE_1
 62
    39
  6
CONTINUOUS
 10
-1.513524
 20
1.302169
  0
VERTEX
  8
EBENE_1
 62
    39
  6
CONTINUOUS
 10
-1.510894
 20
1.301995
  0
VERTEX
  8
EBENE_1
 62
    39
  6
CONTINUOUS
 10
-1.508716
 20
1.300317
  0
VERTEX
  8
EBENE_1
 62
    39
  6
CONTINUOUS
 10
-1.507441
 20
1.297437
  0
SEQEND
  8
0
  0
POLYLINE
  8
EBENE_1
 62
    39
  6
CONTINUOUS
 66
     1
 40
0.010000
 41
0.010000
  0
VERTEX
  8
EBENE_1
 62
    39
  6
CONTINUOUS
 10
-1.507441
 20
1.297437
  0
VERTEX
  8
EBENE_1
 62
    39
  6
CONTINUOUS
 10
-1.507390
 20
1.294633
  0
VERTEX
  8
EBENE_1
 62
    39
  6
CONTINUOUS
 10
-1.508390
 20
1.292131
  0
VERTEX
  8
EBENE_1
 62
    39
  6
CONTINUOUS
 10
-1.510142
 20
1.290681
  0
SEQEND
  8
0
  0
POLYLINE
  8
EBENE_1
 62
    39
  6
CONTINUOUS
 66
     1
 40
0.010000
 41
0.010000
  0
VERTEX
  8
EBENE_1
 62
    39
  6
CONTINUOUS
 10
-1.510142
 20
1.290681
  0
VERTEX
  8
EBENE_1
 62
    39
  6
CONTINUOUS
 10
-1.512621
 20
1.290855
  0
VERTEX
  8
EBENE_1
 62
    39
  6
CONTINUOUS
 10
-1.514649
 20
1.292532
  0
VERTEX
  8
EBENE_1
 62
    39
  6
CONTINUOUS
 10
-1.516228
 20
1.295409
  0
SEQEND
  8
0
  0
POLYLINE
  8
EBENE_1
 62
    39
  6
CONTINUOUS
 66
     1
 40
0.010000
 41
0.010000
  0
VERTEX
  8
EBENE_1
 62
    39
  6
CONTINUOUS
 10
-1.516228
 20
1.295409
  0
VERTEX
  8
EBENE_1
 62
    39
  6
CONTINUOUS
 10
-1.516277
 20
1.298513
  0
VERTEX
  8
EBENE_1
 62
    39
  6
CONTINUOUS
 10
-1.515276
 20
1.300866
  0
VERTEX
  8
EBENE_1
 62
    39
  6
CONTINUOUS
 10
-1.513524
 20
1.302169
  0
SEQEND
  8
0
  0
POLYLINE
  8
EBENE_1
 62
    39
  6
CONTINUOUS
 66
     1
 40
0.010000
 41
0.010000
  0
VERTEX
  8
EBENE_1
 62
    39
  6
CONTINUOUS
 10
-1.630453
 20
1.269051
  0
VERTEX
  8
EBENE_1
 62
    39
  6
CONTINUOUS
 10
-1.627823
 20
1.268877
  0
VERTEX
  8
EBENE_1
 62
    39
  6
CONTINUOUS
 10
-1.625645
 20
1.267199
  0
VERTEX
  8
EBENE_1
 62
    39
  6
CONTINUOUS
 10
-1.624370
 20
1.264319
  0
SEQEND
  8
0
  0
POLYLINE
  8
EBENE_1
 62
    39
  6
CONTINUOUS
 66
     1
 40
0.010000
 41
0.010000
  0
VERTEX
  8
EBENE_1
 62
    39
  6
CONTINUOUS
 10
-1.624370
 20
1.264319
  0
VERTEX
  8
EBENE_1
 62
    39
  6
CONTINUOUS
 10
-1.624319
 20
1.261216
  0
VERTEX
  8
EBENE_1
 62
    39
  6
CONTINUOUS
 10
-1.625319
 20
1.258862
  0
VERTEX
  8
EBENE_1
 62
    39
  6
CONTINUOUS
 10
-1.627071
 20
1.257559
  0
SEQEND
  8
0
  0
POLYLINE
  8
EBENE_1
 62
    39
  6
CONTINUOUS
 66
     1
 40
0.010000
 41
0.010000
  0
VERTEX
  8
EBENE_1
 62
    39
  6
CONTINUOUS
 10
-1.627071
 20
1.257559
  0
VERTEX
  8
EBENE_1
 62
    39
  6
CONTINUOUS
 10
-1.629251
 20
1.257734
  0
VERTEX
  8
EBENE_1
 62
    39
  6
CONTINUOUS
 10
-1.631429
 20
1.259413
  0
VERTEX
  8
EBENE_1
 62
    39
  6
CONTINUOUS
 10
-1.633157
 20
1.262291
  0
SEQEND
  8
0
  0
POLYLINE
  8
EBENE_1
 62
    39
  6
CONTINUOUS
 66
     1
 40
0.010000
 41
0.010000
  0
VERTEX
  8
EBENE_1
 62
    39
  6
CONTINUOUS
 10
-1.633157
 20
1.262291
  0
VERTEX
  8
EBENE_1
 62
    39
  6
CONTINUOUS
 10
-1.633206
 20
1.265096
  0
VERTEX
  8
EBENE_1
 62
    39
  6
CONTINUOUS
 10
-1.632205
 20
1.267599
  0
VERTEX
  8
EBENE_1
 62
    39
  6
CONTINUOUS
 10
-1.630453
 20
1.269051
  0
SEQEND
  8
0
  0
POLYLINE
  8
EBENE_1
 62
    39
  6
CONTINUOUS
 66
     1
 40
0.010000
 41
0.010000
 70
     1
  0
VERTEX
  8
EBENE_1
 62
    39
  6
CONTINUOUS
 10
-1.381047
 20
1.032488
  0
VERTEX
  8
EBENE_1
 62
    39
  6
CONTINUOUS
 10
-1.376555
 20
1.019883
  0
VERTEX
  8
EBENE_1
 62
    39
  6
CONTINUOUS
 10
-1.370979
 20
1.006674
  0
VERTEX
  8
EBENE_1
 62
    39
  6
CONTINUOUS
 10
-1.364323
 20
0.992955
  0
VERTEX
  8
EBENE_1
 62
    39
  6
CONTINUOUS
 10
-1.356594
 20
0.978817
  0
VERTEX
  8
EBENE_1
 62
    39
  6
CONTINUOUS
 10
-1.347796
 20
0.964354
  0
VERTEX
  8
EBENE_1
 62
    39
  6
CONTINUOUS
 10
-1.337936
 20
0.949658
  0
VERTEX
  8
EBENE_1
 62
    39
  6
CONTINUOUS
 10
-1.327017
 20
0.934824
  0
VERTEX
  8
EBENE_1
 62
    39
  6
CONTINUOUS
 10
-1.315046
 20
0.919942
  0
VERTEX
  8
EBENE_1
 62
    39
  6
CONTINUOUS
 10
-1.302028
 20
0.905106
  0
VERTEX
  8
EBENE_1
 62
    39
  6
CONTINUOUS
 10
-1.287968
 20
0.890410
  0
VERTEX
  8
EBENE_1
 62
    39
  6
CONTINUOUS
 10
-1.272871
 20
0.875945
  0
VERTEX
  8
EBENE_1
 62
    39
  6
CONTINUOUS
 10
-1.256743
 20
0.861804
  0
VERTEX
  8
EBENE_1
 62
    39
  6
CONTINUOUS
 10
-1.239590
 20
0.848081
  0
VERTEX
  8
EBENE_1
 62
    39
  6
CONTINUOUS
 10
-1.221416
 20
0.834869
  0
VERTEX
  8
EBENE_1
 62
    39
  6
CONTINUOUS
 10
-1.202227
 20
0.822259
  0
VERTEX
  8
EBENE_1
 62
    39
  6
CONTINUOUS
 10
-1.182028
 20
0.810346
  0
VERTEX
  8
EBENE_1
 62
    39
  6
CONTINUOUS
 10
-1.160824
 20
0.799221
  0
VERTEX
  8
EBENE_1
 62
    39
  6
CONTINUOUS
 10
-1.138622
 20
0.788978
  0
VERTEX
  8
EBENE_1
 62
    39
  6
CONTINUOUS
 10
-1.115425
 20
0.779709
  0
VERTEX
  8
EBENE_1
 62
    39
  6
CONTINUOUS
 10
-1.115425
 20
0.779709
  0
VERTEX
  8
EBENE_1
 62
    39
  6
CONTINUOUS
 10
-0.697728
 20
0.893933
  0
VERTEX
  8
EBENE_1
 62
    39
  6
CONTINUOUS
 10
-0.859264
 20
1.496823
  0
VERTEX
  8
EBENE_1
 62
    39
  6
CONTINUOUS
 10
-1.461480
 20
1.335287
  0
SEQEND
  8
0
  0
POLYLINE
  8
EBENE_1
 62
    39
  6
CONTINUOUS
 66
     1
 40
0.010000
 41
0.010000
 70
     1
  0
VERTEX
  8
EBENE_1
 62
    39
  6
CONTINUOUS
 10
-1.375642
 20
1.037220
  0
VERTEX
  8
EBENE_1
 62
    39
  6
CONTINUOUS
 10
-1.370874
 20
1.024015
  0
VERTEX
  8
EBENE_1
 62
    39
  6
CONTINUOUS
 10
-1.364913
 20
1.010153
  0
VERTEX
  8
EBENE_1
 62
    39
  6
CONTINUOUS
 10
-1.357765
 20
0.995741
  0
VERTEX
  8
EBENE_1
 62
    39
  6
CONTINUOUS
 10
-1.349439
 20
0.980887
  0
VERTEX
  8
EBENE_1
 62
    39
  6
CONTINUOUS
 10
-1.339941
 20
0.965698
  0
VERTEX
  8
EBENE_1
 62
    39
  6
CONTINUOUS
 10
-1.329281
 20
0.950281
  0
VERTEX
  8
EBENE_1
 62
    39
  6
CONTINUOUS
 10
-1.317464
 20
0.934743
  0
VERTEX
  8
EBENE_1
 62
    39
  6
CONTINUOUS
 10
-1.304500
 20
0.919192
  0
VERTEX
  8
EBENE_1
 62
    39
  6
CONTINUOUS
 10
-1.290395
 20
0.903733
  0
VERTEX
  8
EBENE_1
 62
    39
  6
CONTINUOUS
 10
-1.275158
 20
0.888474
  0
VERTEX
  8
EBENE_1
 62
    39
  6
CONTINUOUS
 10
-1.258795
 20
0.873523
  0
VERTEX
  8
EBENE_1
 62
    39
  6
CONTINUOUS
 10
-1.241315
 20
0.858986
  0
VERTEX
  8
EBENE_1
 62
    39
  6
CONTINUOUS
 10
-1.222725
 20
0.844971
  0
VERTEX
  8
EBENE_1
 62
    39
  6
CONTINUOUS
 10
-1.203033
 20
0.831584
  0
VERTEX
  8
EBENE_1
 62
    39
  6
CONTINUOUS
 10
-1.182247
 20
0.818933
  0
VERTEX
  8
EBENE_1
 62
    39
  6
CONTINUOUS
 10
-1.160374
 20
0.807125
  0
VERTEX
  8
EBENE_1
 62
    39
  6
CONTINUOUS
 10
-1.137422
 20
0.796266
  0
VERTEX
  8
EBENE_1
 62
    39
  6
CONTINUOUS
 10
-1.113398
 20
0.786465
  0
VERTEX
  8
EBENE_1
 62
    39
  6
CONTINUOUS
 10
-1.113398
 20
0.786465
  0
VERTEX
  8
EBENE_1
 62
    39
  6
CONTINUOUS
 10
-0.703134
 20
0.898665
  0
VERTEX
  8
EBENE_1
 62
    39
  6
CONTINUOUS
 10
-0.862642
 20
1.495472
  0
VERTEX
  8
EBENE_1
 62
    39
  6
CONTINUOUS
 10
-1.454720
 20
1.337315
  0
SEQEND
  8
0
  0
POLYLINE
  8
EBENE_1
 62
    39
  6
CONTINUOUS
 66
     1
 40
0.010000
 41
0.010000
  0
VERTEX
  8
EBENE_1
 62
    39
  6
CONTINUOUS
 10
-0.854531
 20
1.277835
  0
VERTEX
  8
EBENE_1
 62
    39
  6
CONTINUOUS
 10
-0.852379
 20
1.277660
  0
VERTEX
  8
EBENE_1
 62
    39
  6
CONTINUOUS
 10
-0.850378
 20
1.275984
  0
VERTEX
  8
EBENE_1
 62
    39
  6
CONTINUOUS
 10
-0.849126
 20
1.273106
  0
SEQEND
  8
0
  0
POLYLINE
  8
EBENE_1
 62
    39
  6
CONTINUOUS
 66
     1
 40
0.010000
 41
0.010000
  0
VERTEX
  8
EBENE_1
 62
    39
  6
CONTINUOUS
 10
-0.849126
 20
1.273106
  0
VERTEX
  8
EBENE_1
 62
    39
  6
CONTINUOUS
 10
-0.848626
 20
1.270003
  0
VERTEX
  8
EBENE_1
 62
    39
  6
CONTINUOUS
 10
-0.849626
 20
1.267649
  0
VERTEX
  8
EBENE_1
 62
    39
  6
CONTINUOUS
 10
-0.851827
 20
1.266346
  0
SEQEND
  8
0
  0
POLYLINE
  8
EBENE_1
 62
    39
  6
CONTINUOUS
 66
     1
 40
0.010000
 41
0.010000
  0
VERTEX
  8
EBENE_1
 62
    39
  6
CONTINUOUS
 10
-0.851827
 20
1.266346
  0
VERTEX
  8
EBENE_1
 62
    39
  6
CONTINUOUS
 10
-0.853980
 20
1.266523
  0
VERTEX
  8
EBENE_1
 62
    39
  6
CONTINUOUS
 10
-0.855983
 20
1.268201
  0
VERTEX
  8
EBENE_1
 62
    39
  6
CONTINUOUS
 10
-0.857236
 20
1.271079
  0
SEQEND
  8
0
  0
POLYLINE
  8
EBENE_1
 62
    39
  6
CONTINUOUS
 66
     1
 40
0.010000
 41
0.010000
  0
VERTEX
  8
EBENE_1
 62
    39
  6
CONTINUOUS
 10
-0.857236
 20
1.271079
  0
VERTEX
  8
EBENE_1
 62
    39
  6
CONTINUOUS
 10
-0.857437
 20
1.273881
  0
VERTEX
  8
EBENE_1
 62
    39
  6
CONTINUOUS
 10
-0.856585
 20
1.276384
  0
VERTEX
  8
EBENE_1
 62
    39
  6
CONTINUOUS
 10
-0.854531
 20
1.277835
  0
SEQEND
  8
0
  0
POLYLINE
  8
EBENE_1
 62
    39
  6
CONTINUOUS
 66
     1
 40
0.010000
 41
0.010000
  0
VERTEX
  8
EBENE_1
 62
    39
  6
CONTINUOUS
 10
-0.825469
 20
1.176453
  0
VERTEX
  8
EBENE_1
 62
    39
  6
CONTINUOUS
 10
-0.823316
 20
1.176279
  0
VERTEX
  8
EBENE_1
 62
    39
  6
CONTINUOUS
 10
-0.821313
 20
1.174602
  0
VERTEX
  8
EBENE_1
 62
    39
  6
CONTINUOUS
 10
-0.820063
 20
1.171724
  0
SEQEND
  8
0
  0
POLYLINE
  8
EBENE_1
 62
    39
  6
CONTINUOUS
 66
     1
 40
0.010000
 41
0.010000
  0
VERTEX
  8
EBENE_1
 62
    39
  6
CONTINUOUS
 10
-0.820063
 20
1.171724
  0
VERTEX
  8
EBENE_1
 62
    39
  6
CONTINUOUS
 10
-0.819561
 20
1.168919
  0
VERTEX
  8
EBENE_1
 62
    39
  6
CONTINUOUS
 10
-0.820563
 20
1.166415
  0
VERTEX
  8
EBENE_1
 62
    39
  6
CONTINUOUS
 10
-0.822768
 20
1.164965
  0
SEQEND
  8
0
  0
POLYLINE
  8
EBENE_1
 62
    39
  6
CONTINUOUS
 66
     1
 40
0.010000
 41
0.010000
  0
VERTEX
  8
EBENE_1
 62
    39
  6
CONTINUOUS
 10
-0.822768
 20
1.164965
  0
VERTEX
  8
EBENE_1
 62
    39
  6
CONTINUOUS
 10
-0.824920
 20
1.165139
  0
VERTEX
  8
EBENE_1
 62
    39
  6
CONTINUOUS
 10
-0.826921
 20
1.166816
  0
VERTEX
  8
EBENE_1
 62
    39
  6
CONTINUOUS
 10
-0.828173
 20
1.169697
  0
SEQEND
  8
0
  0
POLYLINE
  8
EBENE_1
 62
    39
  6
CONTINUOUS
 66
     1
 40
0.010000
 41
0.010000
  0
VERTEX
  8
EBENE_1
 62
    39
  6
CONTINUOUS
 10
-0.828173
 20
1.169697
  0
VERTEX
  8
EBENE_1
 62
    39
  6
CONTINUOUS
 10
-0.828374
 20
1.172800
  0
VERTEX
  8
EBENE_1
 62
    39
  6
CONTINUOUS
 10
-0.827522
 20
1.175153
  0
VERTEX
  8
EBENE_1
 62
    39
  6
CONTINUOUS
 10
-0.825469
 20
1.176453
  0
SEQEND
  8
0
  0
POLYLINE
  8
EBENE_1
 62
    39
  6
CONTINUOUS
 66
     1
 40
0.010000
 41
0.010000
  0
VERTEX
  8
EBENE_1
 62
    39
  6
CONTINUOUS
 10
-1.094472
 20
1.406929
  0
VERTEX
  8
EBENE_1
 62
    39
  6
CONTINUOUS
 10
-1.091844
 20
1.406780
  0
VERTEX
  8
EBENE_1
 62
    39
  6
CONTINUOUS
 10
-1.089667
 20
1.405279
  0
VERTEX
  8
EBENE_1
 62
    39
  6
CONTINUOUS
 10
-1.088390
 20
1.402878
  0
SEQEND
  8
0
  0
POLYLINE
  8
EBENE_1
 62
    39
  6
CONTINUOUS
 66
     1
 40
0.010000
 41
0.010000
  0
VERTEX
  8
EBENE_1
 62
    39
  6
CONTINUOUS
 10
-1.088390
 20
1.402878
  0
VERTEX
  8
EBENE_1
 62
    39
  6
CONTINUOUS
 10
-1.088339
 20
1.399622
  0
VERTEX
  8
EBENE_1
 62
    39
  6
CONTINUOUS
 10
-1.089342
 20
1.397119
  0
VERTEX
  8
EBENE_1
 62
    39
  6
CONTINUOUS
 10
-1.091094
 20
1.396118
  0
SEQEND
  8
0
  0
POLYLINE
  8
EBENE_1
 62
    39
  6
CONTINUOUS
 66
     1
 40
0.010000
 41
0.010000
  0
VERTEX
  8
EBENE_1
 62
    39
  6
CONTINUOUS
 10
-1.091094
 20
1.396118
  0
VERTEX
  8
EBENE_1
 62
    39
  6
CONTINUOUS
 10
-1.093721
 20
1.396267
  0
VERTEX
  8
EBENE_1
 62
    39
  6
CONTINUOUS
 10
-1.095899
 20
1.397769
  0
VERTEX
  8
EBENE_1
 62
    39
  6
CONTINUOUS
 10
-1.097177
 20
1.400173
  0
SEQEND
  8
0
  0
POLYLINE
  8
EBENE_1
 62
    39
  6
CONTINUOUS
 66
     1
 40
0.010000
 41
0.010000
  0
VERTEX
  8
EBENE_1
 62
    39
  6
CONTINUOUS
 10
-1.097177
 20
1.400173
  0
VERTEX
  8
EBENE_1
 62
    39
  6
CONTINUOUS
 10
-1.097226
 20
1.403426
  0
VERTEX
  8
EBENE_1
 62
    39
  6
CONTINUOUS
 10
-1.096224
 20
1.405928
  0
VERTEX
  8
EBENE_1
 62
    39
  6
CONTINUOUS
 10
-1.094472
 20
1.406929
  0
SEQEND
  8
0
  0
POLYLINE
  8
EBENE_1
 62
    39
  6
CONTINUOUS
 66
     1
 40
0.010000
 41
0.010000
  0
VERTEX
  8
EBENE_1
 62
    39
  6
CONTINUOUS
 10
-1.211402
 20
1.373811
  0
VERTEX
  8
EBENE_1
 62
    39
  6
CONTINUOUS
 10
-1.208773
 20
1.373637
  0
VERTEX
  8
EBENE_1
 62
    39
  6
CONTINUOUS
 10
-1.206596
 20
1.371960
  0
VERTEX
  8
EBENE_1
 62
    39
  6
CONTINUOUS
 10
-1.205319
 20
1.369083
  0
SEQEND
  8
0
  0
POLYLINE
  8
EBENE_1
 62
    39
  6
CONTINUOUS
 66
     1
 40
0.010000
 41
0.010000
  0
VERTEX
  8
EBENE_1
 62
    39
  6
CONTINUOUS
 10
-1.205319
 20
1.369083
  0
VERTEX
  8
EBENE_1
 62
    39
  6
CONTINUOUS
 10
-1.205268
 20
1.366279
  0
VERTEX
  8
EBENE_1
 62
    39
  6
CONTINUOUS
 10
-1.206270
 20
1.363775
  0
VERTEX
  8
EBENE_1
 62
    39
  6
CONTINUOUS
 10
-1.208020
 20
1.362323
  0
SEQEND
  8
0
  0
POLYLINE
  8
EBENE_1
 62
    39
  6
CONTINUOUS
 66
     1
 40
0.010000
 41
0.010000
  0
VERTEX
  8
EBENE_1
 62
    39
  6
CONTINUOUS
 10
-1.208020
 20
1.362323
  0
VERTEX
  8
EBENE_1
 62
    39
  6
CONTINUOUS
 10
-1.210499
 20
1.362500
  0
VERTEX
  8
EBENE_1
 62
    39
  6
CONTINUOUS
 10
-1.212527
 20
1.364177
  0
VERTEX
  8
EBENE_1
 62
    39
  6
CONTINUOUS
 10
-1.214106
 20
1.367055
  0
SEQEND
  8
0
  0
POLYLINE
  8
EBENE_1
 62
    39
  6
CONTINUOUS
 66
     1
 40
0.010000
 41
0.010000
  0
VERTEX
  8
EBENE_1
 62
    39
  6
CONTINUOUS
 10
-1.214106
 20
1.367055
  0
VERTEX
  8
EBENE_1
 62
    39
  6
CONTINUOUS
 10
-1.214155
 20
1.370158
  0
VERTEX
  8
EBENE_1
 62
    39
  6
CONTINUOUS
 10
-1.213154
 20
1.372511
  0
VERTEX
  8
EBENE_1
 62
    39
  6
CONTINUOUS
 10
-1.211402
 20
1.373811
  0
SEQEND
  8
0
  0
TEXT
  8
EBENE_1
 62
    39
 10
-1.704488
 20
-0.421886
 40
0.186984
  1
Eingespritzter Fogesnschnitt 
 41
1.000000
  7
SN0
 71
     0
 72
     5
 11
1.201747
 21
-0.421886
  0
ENDSEC
  0
EOF
