  0
SECTION
  2
HEADER
  9
$ACADVER
  1
AC1006
  9
$EXTMIN
 10
-1.245146
 20
-0.845189
  9
$EXTMAX
 10
1.243331
 20
0.828539
  9
$LTSCALE
 40
0.000394
  9
$PDMODE
 70
    35
  9
$PDSIZE
 40
0.000315
  0
ENDSEC
  0
SECTION
  2
TABLES
  0
TABLE
  2
LTYPE
 70
     9
  0
LTYPE
  2
CONTINUOUS
 70
    64
  3
Solid line
 72
    65
 73
     0
 40
0.000000
  0
LTYPE
  2
DASHED
 70
    64
  3
__ __ __ __ __ __ __ __ __ __ __ __ __ __ __
 72
    65
 73
     2
 40
0.000003
 49
0.000002
 49
-0.000001
  0
LTYPE
  2
HIDDEN
 70
    64
  3
 _ _ _ _ _ _ _ _ _ _ _ _ _ _ _ _ _ _ _ _ _ _
 72
    65
 73
     2
 40
0.000001
 49
0.000001
 49
-0.000000
  0
LTYPE
  2
CENTER
 70
    64
  3
____ _ ____ _ ____ _ ____ _ ____ _ ____ _ ____
 72
    65
 73
     4
 40
0.000008
 49
0.000005
 49
-0.000001
 49
0.000001
 49
-0.000001
  0
LTYPE
  2
PHANTOM
 70
    64
  3
_____ _ _ _____ _ _ _____ _ _ _____ _ _ ____
 72
    65
 73
     6
 40
0.000010
 49
0.000005
 49
-0.000001
 49
0.000001
 49
-0.000001
 49
0.000001
 49
-0.000001
  0
LTYPE
  2
DOT
 70
    64
  3
...............................................
 72
    65
 73
     2
 40
0.000001
 49
0.000000
 49
-0.000001
  0
LTYPE
  2
DASHDOT
 70
    64
  3
__ . __ . __ . __ . __ . __ . __ . __ . __ . __
 72
    65
 73
     4
 40
0.000004
 49
0.000002
 49
-0.000001
 49
0.000000
 49
-0.000001
  0
LTYPE
  2
BORDER
 70
    64
  3
__ __ . __ __ . __ __ . __ __ . __ __ . __ __
 72
    65
 73
     6
 40
0.000007
 49
0.000002
 49
-0.000001
 49
0.000002
 49
-0.000001
 49
0.000000
 49
-0.000001
  0
LTYPE
  2
DIVIDE
 70
    64
  3
__ . . __ . . __ . . __ . . __ . . __ . . __
 72
    65
 73
     6
 40
0.000005
 49
0.000002
 49
-0.000001
 49
0.000000
 49
-0.000001
 49
0.000000
 49
-0.000001
  0
LTYPE
  2
DOTDOT
 70
    64
  3
 . .  . .  . .  . .  . .  . . 
 72
    65
 73
     5
 40
0.000002
 49
-0.000001
 49
0.000000
 49
-0.000001
 49
0.000000
 49
-0.000001
  0
ENDTAB
  0
TABLE
  2
STYLE
 70
     2
  0
STYLE
 70
     0
  2
SN0
 40
0.000000
 41
0.000004
 50
0.000000
 71
     0
 42
0.000000
  3
SCRIPTS
  0
STYLE
 70
    68
  2
SV0
 40
0.000000
 41
0.000004
 50
0.000000
 71
     0
 42
0.000000
  3
SCRIPTS
  0
ENDTAB
  0
TABLE
  2
LAYER
 70
     3
  0
LAYER
  2
FOREGROUND
 70
    64
 62
     7
  6
CONTINUOUS
  0
LAYER
  2
BACKGROUND
 70
    65
 62
    -7
  6
CONTINUOUS
  0
LAYER
  2
EBENE_1
 70
    64
 62
     7
  6
CONTINUOUS
  0
ENDTAB
  0
ENDSEC
  0
SECTION
  2
ENTITIES
  0
POLYLINE
  8
EBENE_1
 62
    39
  6
CONTINUOUS
 66
     1
 40
0.003000
 41
0.003000
 70
     1
  0
VERTEX
  8
EBENE_1
 62
    39
  6
CONTINUOUS
 10
-0.059520
 20
0.466366
  0
VERTEX
  8
EBENE_1
 62
    39
  6
CONTINUOUS
 10
0.044031
 20
0.257823
  0
VERTEX
  8
EBENE_1
 62
    39
  6
CONTINUOUS
 10
0.053842
 20
0.247630
  0
VERTEX
  8
EBENE_1
 62
    39
  6
CONTINUOUS
 10
0.067835
 20
0.237300
  0
VERTEX
  8
EBENE_1
 62
    39
  6
CONTINUOUS
 10
0.084708
 20
0.228924
  0
VERTEX
  8
EBENE_1
 62
    39
  6
CONTINUOUS
 10
0.103157
 20
0.224593
  0
VERTEX
  8
EBENE_1
 62
    39
  6
CONTINUOUS
 10
0.121882
 20
0.226398
  0
VERTEX
  8
EBENE_1
 62
    39
  6
CONTINUOUS
 10
0.310425
 20
0.276394
  0
VERTEX
  8
EBENE_1
 62
    39
  6
CONTINUOUS
 10
0.129736
 20
0.594921
  0
VERTEX
  8
EBENE_1
 62
    39
  6
CONTINUOUS
 10
-0.050236
 20
0.533500
  0
VERTEX
  8
EBENE_1
 62
    39
  6
CONTINUOUS
 10
-0.063437
 20
0.520801
  0
VERTEX
  8
EBENE_1
 62
    39
  6
CONTINUOUS
 10
-0.066930
 20
0.502075
  0
VERTEX
  8
EBENE_1
 62
    39
  6
CONTINUOUS
 10
-0.064397
 20
0.482279
  0
SEQEND
  8
0
  0
POLYLINE
  8
EBENE_1
 62
    39
  6
CONTINUOUS
 66
     1
 40
0.003000
 41
0.003000
  0
VERTEX
  8
EBENE_1
 62
    39
  6
CONTINUOUS
 10
0.712512
 20
-0.135689
  0
VERTEX
  8
EBENE_1
 62
    39
  6
CONTINUOUS
 10
0.630382
 20
-0.417795
  0
VERTEX
  8
EBENE_1
 62
    39
  6
CONTINUOUS
 10
0.834638
 20
-0.416366
  0
SEQEND
  8
0
  0
POLYLINE
  8
EBENE_1
 62
    39
  6
CONTINUOUS
 66
     1
 40
0.003000
 41
0.003000
  0
VERTEX
  8
EBENE_1
 62
    39
  6
CONTINUOUS
 10
0.834638
 20
-0.416366
  0
VERTEX
  8
EBENE_1
 62
    39
  6
CONTINUOUS
 10
0.842401
 20
-0.415623
  0
VERTEX
  8
EBENE_1
 62
    39
  6
CONTINUOUS
 10
0.850729
 20
-0.413996
  0
VERTEX
  8
EBENE_1
 62
    39
  6
CONTINUOUS
 10
0.859564
 20
-0.411505
  0
VERTEX
  8
EBENE_1
 62
    39
  6
CONTINUOUS
 10
0.868848
 20
-0.408169
  0
VERTEX
  8
EBENE_1
 62
    39
  6
CONTINUOUS
 10
0.878525
 20
-0.404006
  0
VERTEX
  8
EBENE_1
 62
    39
  6
CONTINUOUS
 10
0.888538
 20
-0.399036
  0
VERTEX
  8
EBENE_1
 62
    39
  6
CONTINUOUS
 10
0.898828
 20
-0.393276
  0
VERTEX
  8
EBENE_1
 62
    39
  6
CONTINUOUS
 10
0.909339
 20
-0.386746
  0
VERTEX
  8
EBENE_1
 62
    39
  6
CONTINUOUS
 10
0.920013
 20
-0.379464
  0
VERTEX
  8
EBENE_1
 62
    39
  6
CONTINUOUS
 10
0.930794
 20
-0.371450
  0
VERTEX
  8
EBENE_1
 62
    39
  6
CONTINUOUS
 10
0.941623
 20
-0.362722
  0
VERTEX
  8
EBENE_1
 62
    39
  6
CONTINUOUS
 10
0.952444
 20
-0.353299
  0
VERTEX
  8
EBENE_1
 62
    39
  6
CONTINUOUS
 10
0.963199
 20
-0.343200
  0
VERTEX
  8
EBENE_1
 62
    39
  6
CONTINUOUS
 10
0.973831
 20
-0.332443
  0
VERTEX
  8
EBENE_1
 62
    39
  6
CONTINUOUS
 10
0.984283
 20
-0.321047
  0
VERTEX
  8
EBENE_1
 62
    39
  6
CONTINUOUS
 10
0.994497
 20
-0.309032
  0
VERTEX
  8
EBENE_1
 62
    39
  6
CONTINUOUS
 10
1.004417
 20
-0.296416
  0
VERTEX
  8
EBENE_1
 62
    39
  6
CONTINUOUS
 10
1.013984
 20
-0.283217
  0
VERTEX
  8
EBENE_1
 62
    39
  6
CONTINUOUS
 10
1.023142
 20
-0.269455
  0
VERTEX
  8
EBENE_1
 62
    39
  6
CONTINUOUS
 10
1.031834
 20
-0.255148
  0
VERTEX
  8
EBENE_1
 62
    39
  6
CONTINUOUS
 10
1.040001
 20
-0.240316
  0
VERTEX
  8
EBENE_1
 62
    39
  6
CONTINUOUS
 10
1.047588
 20
-0.224976
  0
VERTEX
  8
EBENE_1
 62
    39
  6
CONTINUOUS
 10
1.054535
 20
-0.209148
  0
VERTEX
  8
EBENE_1
 62
    39
  6
CONTINUOUS
 10
1.060787
 20
-0.192851
  0
VERTEX
  8
EBENE_1
 62
    39
  6
CONTINUOUS
 10
1.066286
 20
-0.176103
  0
VERTEX
  8
EBENE_1
 62
    39
  6
CONTINUOUS
 10
1.070975
 20
-0.158923
  0
VERTEX
  8
EBENE_1
 62
    39
  6
CONTINUOUS
 10
1.074796
 20
-0.141330
  0
VERTEX
  8
EBENE_1
 62
    39
  6
CONTINUOUS
 10
1.077692
 20
-0.123343
  0
VERTEX
  8
EBENE_1
 62
    39
  6
CONTINUOUS
 10
1.079606
 20
-0.104980
  0
SEQEND
  8
0
  0
POLYLINE
  8
EBENE_1
 62
    39
  6
CONTINUOUS
 66
     1
 40
0.003000
 41
0.003000
  0
VERTEX
  8
EBENE_1
 62
    39
  6
CONTINUOUS
 10
1.079606
 20
-0.104980
  0
VERTEX
  8
EBENE_1
 62
    39
  6
CONTINUOUS
 10
1.076244
 20
-0.084431
  0
VERTEX
  8
EBENE_1
 62
    39
  6
CONTINUOUS
 10
1.069718
 20
-0.067138
  0
VERTEX
  8
EBENE_1
 62
    39
  6
CONTINUOUS
 10
1.060548
 20
-0.052942
  0
VERTEX
  8
EBENE_1
 62
    39
  6
CONTINUOUS
 10
1.049252
 20
-0.041684
  0
VERTEX
  8
EBENE_1
 62
    39
  6
CONTINUOUS
 10
1.036350
 20
-0.033204
  0
VERTEX
  8
EBENE_1
 62
    39
  6
CONTINUOUS
 10
1.022359
 20
-0.027344
  0
VERTEX
  8
EBENE_1
 62
    39
  6
CONTINUOUS
 10
1.007799
 20
-0.023944
  0
VERTEX
  8
EBENE_1
 62
    39
  6
CONTINUOUS
 10
0.993189
 20
-0.022846
  0
SEQEND
  8
0
  0
POLYLINE
  8
EBENE_1
 62
    39
  6
CONTINUOUS
 66
     1
 40
0.003000
 41
0.003000
  0
VERTEX
  8
EBENE_1
 62
    39
  6
CONTINUOUS
 10
0.993189
 20
-0.022846
  0
VERTEX
  8
EBENE_1
 62
    39
  6
CONTINUOUS
 10
0.792500
 20
-0.073555
  0
SEQEND
  8
0
  0
POLYLINE
  8
EBENE_1
 62
    39
  6
CONTINUOUS
 66
     1
 40
0.003000
 41
0.003000
  0
VERTEX
  8
EBENE_1
 62
    39
  6
CONTINUOUS
 10
0.792500
 20
-0.073555
  0
VERTEX
  8
EBENE_1
 62
    39
  6
CONTINUOUS
 10
0.773116
 20
-0.075760
  0
VERTEX
  8
EBENE_1
 62
    39
  6
CONTINUOUS
 10
0.757841
 20
-0.081751
  0
VERTEX
  8
EBENE_1
 62
    39
  6
CONTINUOUS
 10
0.745802
 20
-0.090590
  0
VERTEX
  8
EBENE_1
 62
    39
  6
CONTINUOUS
 10
0.736124
 20
-0.101340
  0
VERTEX
  8
EBENE_1
 62
    39
  6
CONTINUOUS
 10
0.727933
 20
-0.113065
  0
VERTEX
  8
EBENE_1
 62
    39
  6
CONTINUOUS
 10
0.720354
 20
-0.124827
  0
VERTEX
  8
EBENE_1
 62
    39
  6
CONTINUOUS
 10
0.712512
 20
-0.135689
  0
SEQEND
  8
0
  0
POLYLINE
  8
EBENE_1
 62
    39
  6
CONTINUOUS
 66
     1
 40
0.003000
 41
0.003000
 70
     1
  0
VERTEX
  8
EBENE_1
 62
    39
  6
CONTINUOUS
 10
0.717512
 20
-0.127118
  0
VERTEX
  8
EBENE_1
 62
    39
  6
CONTINUOUS
 10
0.631811
 20
-0.413508
  0
VERTEX
  8
EBENE_1
 62
    39
  6
CONTINUOUS
 10
0.833209
 20
-0.412079
  0
VERTEX
  8
EBENE_1
 62
    39
  6
CONTINUOUS
 10
0.840891
 20
-0.411343
  0
VERTEX
  8
EBENE_1
 62
    39
  6
CONTINUOUS
 10
0.849123
 20
-0.409740
  0
VERTEX
  8
EBENE_1
 62
    39
  6
CONTINUOUS
 10
0.857849
 20
-0.407286
  0
VERTEX
  8
EBENE_1
 62
    39
  6
CONTINUOUS
 10
0.867013
 20
-0.404002
  0
VERTEX
  8
EBENE_1
 62
    39
  6
CONTINUOUS
 10
0.876558
 20
-0.399904
  0
VERTEX
  8
EBENE_1
 62
    39
  6
CONTINUOUS
 10
0.886429
 20
-0.395012
  0
VERTEX
  8
EBENE_1
 62
    39
  6
CONTINUOUS
 10
0.896568
 20
-0.389345
  0
VERTEX
  8
EBENE_1
 62
    39
  6
CONTINUOUS
 10
0.906920
 20
-0.382920
  0
VERTEX
  8
EBENE_1
 62
    39
  6
CONTINUOUS
 10
0.917429
 20
-0.375756
  0
VERTEX
  8
EBENE_1
 62
    39
  6
CONTINUOUS
 10
0.928038
 20
-0.367871
  0
VERTEX
  8
EBENE_1
 62
    39
  6
CONTINUOUS
 10
0.938691
 20
-0.359284
  0
VERTEX
  8
EBENE_1
 62
    39
  6
CONTINUOUS
 10
0.949332
 20
-0.350014
  0
VERTEX
  8
EBENE_1
 62
    39
  6
CONTINUOUS
 10
0.959904
 20
-0.340078
  0
VERTEX
  8
EBENE_1
 62
    39
  6
CONTINUOUS
 10
0.970352
 20
-0.329496
  0
VERTEX
  8
EBENE_1
 62
    39
  6
CONTINUOUS
 10
0.980619
 20
-0.318285
  0
VERTEX
  8
EBENE_1
 62
    39
  6
CONTINUOUS
 10
0.990649
 20
-0.306464
  0
VERTEX
  8
EBENE_1
 62
    39
  6
CONTINUOUS
 10
1.000386
 20
-0.294052
  0
VERTEX
  8
EBENE_1
 62
    39
  6
CONTINUOUS
 10
1.009774
 20
-0.281067
  0
VERTEX
  8
EBENE_1
 62
    39
  6
CONTINUOUS
 10
1.018755
 20
-0.267528
  0
VERTEX
  8
EBENE_1
 62
    39
  6
CONTINUOUS
 10
1.027275
 20
-0.253452
  0
VERTEX
  8
EBENE_1
 62
    39
  6
CONTINUOUS
 10
1.035277
 20
-0.238859
  0
VERTEX
  8
EBENE_1
 62
    39
  6
CONTINUOUS
 10
1.042704
 20
-0.223767
  0
VERTEX
  8
EBENE_1
 62
    39
  6
CONTINUOUS
 10
1.049501
 20
-0.208193
  0
VERTEX
  8
EBENE_1
 62
    39
  6
CONTINUOUS
 10
1.055610
 20
-0.192158
  0
VERTEX
  8
EBENE_1
 62
    39
  6
CONTINUOUS
 10
1.060977
 20
-0.175679
  0
VERTEX
  8
EBENE_1
 62
    39
  6
CONTINUOUS
 10
1.065545
 20
-0.158774
  0
VERTEX
  8
EBENE_1
 62
    39
  6
CONTINUOUS
 10
1.069257
 20
-0.141463
  0
VERTEX
  8
EBENE_1
 62
    39
  6
CONTINUOUS
 10
1.072057
 20
-0.123763
  0
VERTEX
  8
EBENE_1
 62
    39
  6
CONTINUOUS
 10
1.073890
 20
-0.105693
  0
VERTEX
  8
EBENE_1
 62
    39
  6
CONTINUOUS
 10
1.073890
 20
-0.105693
  0
VERTEX
  8
EBENE_1
 62
    39
  6
CONTINUOUS
 10
1.071318
 20
-0.085555
  0
VERTEX
  8
EBENE_1
 62
    39
  6
CONTINUOUS
 10
1.066436
 20
-0.068454
  0
VERTEX
  8
EBENE_1
 62
    39
  6
CONTINUOUS
 10
1.059478
 20
-0.054284
  0
VERTEX
  8
EBENE_1
 62
    39
  6
CONTINUOUS
 10
1.050679
 20
-0.042934
  0
VERTEX
  8
EBENE_1
 62
    39
  6
CONTINUOUS
 10
1.040273
 20
-0.034296
  0
VERTEX
  8
EBENE_1
 62
    39
  6
CONTINUOUS
 10
1.028494
 20
-0.028261
  0
VERTEX
  8
EBENE_1
 62
    39
  6
CONTINUOUS
 10
1.015577
 20
-0.024719
  0
VERTEX
  8
EBENE_1
 62
    39
  6
CONTINUOUS
 10
1.001756
 20
-0.023563
  0
VERTEX
  8
EBENE_1
 62
    39
  6
CONTINUOUS
 10
0.803217
 20
-0.069984
  0
VERTEX
  8
EBENE_1
 62
    39
  6
CONTINUOUS
 10
0.778120
 20
-0.075632
  0
VERTEX
  8
EBENE_1
 62
    39
  6
CONTINUOUS
 10
0.760196
 20
-0.082627
  0
VERTEX
  8
EBENE_1
 62
    39
  6
CONTINUOUS
 10
0.747913
 20
-0.090510
  0
VERTEX
  8
EBENE_1
 62
    39
  6
CONTINUOUS
 10
0.739741
 20
-0.098820
  0
VERTEX
  8
EBENE_1
 62
    39
  6
CONTINUOUS
 10
0.734146
 20
-0.107096
  0
VERTEX
  8
EBENE_1
 62
    39
  6
CONTINUOUS
 10
0.729597
 20
-0.114878
  0
VERTEX
  8
EBENE_1
 62
    39
  6
CONTINUOUS
 10
0.724563
 20
-0.121705
  0
SEQEND
  8
0
  0
POLYLINE
  8
EBENE_1
 62
    39
  6
CONTINUOUS
 66
     1
 40
0.003000
 41
0.003000
  0
VERTEX
  8
EBENE_1
 62
    39
  6
CONTINUOUS
 10
0.813213
 20
-0.083555
  0
VERTEX
  8
EBENE_1
 62
    39
  6
CONTINUOUS
 10
0.810171
 20
-0.085300
  0
VERTEX
  8
EBENE_1
 62
    39
  6
CONTINUOUS
 10
0.808399
 20
-0.088475
  0
VERTEX
  8
EBENE_1
 62
    39
  6
CONTINUOUS
 10
0.808213
 20
-0.092126
  0
SEQEND
  8
0
  0
POLYLINE
  8
EBENE_1
 62
    39
  6
CONTINUOUS
 66
     1
 40
0.003000
 41
0.003000
  0
VERTEX
  8
EBENE_1
 62
    39
  6
CONTINUOUS
 10
0.808213
 20
-0.092126
  0
VERTEX
  8
EBENE_1
 62
    39
  6
CONTINUOUS
 10
0.810276
 20
-0.095141
  0
VERTEX
  8
EBENE_1
 62
    39
  6
CONTINUOUS
 10
0.813292
 20
-0.096728
  0
VERTEX
  8
EBENE_1
 62
    39
  6
CONTINUOUS
 10
0.816783
 20
-0.096409
  0
SEQEND
  8
0
  0
POLYLINE
  8
EBENE_1
 62
    39
  6
CONTINUOUS
 66
     1
 40
0.003000
 41
0.003000
  0
VERTEX
  8
EBENE_1
 62
    39
  6
CONTINUOUS
 10
0.816783
 20
-0.096409
  0
VERTEX
  8
EBENE_1
 62
    39
  6
CONTINUOUS
 10
0.819826
 20
-0.094850
  0
VERTEX
  8
EBENE_1
 62
    39
  6
CONTINUOUS
 10
0.821599
 20
-0.092020
  0
VERTEX
  8
EBENE_1
 62
    39
  6
CONTINUOUS
 10
0.821783
 20
-0.088555
  0
SEQEND
  8
0
  0
POLYLINE
  8
EBENE_1
 62
    39
  6
CONTINUOUS
 66
     1
 40
0.003000
 41
0.003000
  0
VERTEX
  8
EBENE_1
 62
    39
  6
CONTINUOUS
 10
0.821783
 20
-0.088555
  0
VERTEX
  8
EBENE_1
 62
    39
  6
CONTINUOUS
 10
0.819720
 20
-0.085513
  0
VERTEX
  8
EBENE_1
 62
    39
  6
CONTINUOUS
 10
0.816704
 20
-0.083739
  0
VERTEX
  8
EBENE_1
 62
    39
  6
CONTINUOUS
 10
0.813213
 20
-0.083555
  0
SEQEND
  8
0
  0
POLYLINE
  8
EBENE_1
 62
    39
  6
CONTINUOUS
 66
     1
 40
0.003000
 41
0.003000
  0
VERTEX
  8
EBENE_1
 62
    39
  6
CONTINUOUS
 10
0.738937
 20
-0.134976
  0
VERTEX
  8
EBENE_1
 62
    39
  6
CONTINUOUS
 10
0.735895
 20
-0.136536
  0
VERTEX
  8
EBENE_1
 62
    39
  6
CONTINUOUS
 10
0.734123
 20
-0.139366
  0
VERTEX
  8
EBENE_1
 62
    39
  6
CONTINUOUS
 10
0.733937
 20
-0.142831
  0
SEQEND
  8
0
  0
POLYLINE
  8
EBENE_1
 62
    39
  6
CONTINUOUS
 66
     1
 40
0.003000
 41
0.003000
  0
VERTEX
  8
EBENE_1
 62
    39
  6
CONTINUOUS
 10
0.733937
 20
-0.142831
  0
VERTEX
  8
EBENE_1
 62
    39
  6
CONTINUOUS
 10
0.736001
 20
-0.145872
  0
VERTEX
  8
EBENE_1
 62
    39
  6
CONTINUOUS
 10
0.739016
 20
-0.147645
  0
VERTEX
  8
EBENE_1
 62
    39
  6
CONTINUOUS
 10
0.742508
 20
-0.147831
  0
SEQEND
  8
0
  0
POLYLINE
  8
EBENE_1
 62
    39
  6
CONTINUOUS
 66
     1
 40
0.003000
 41
0.003000
  0
VERTEX
  8
EBENE_1
 62
    39
  6
CONTINUOUS
 10
0.742508
 20
-0.147831
  0
VERTEX
  8
EBENE_1
 62
    39
  6
CONTINUOUS
 10
0.745550
 20
-0.146084
  0
VERTEX
  8
EBENE_1
 62
    39
  6
CONTINUOUS
 10
0.747322
 20
-0.142910
  0
VERTEX
  8
EBENE_1
 62
    39
  6
CONTINUOUS
 10
0.747508
 20
-0.139260
  0
SEQEND
  8
0
  0
POLYLINE
  8
EBENE_1
 62
    39
  6
CONTINUOUS
 66
     1
 40
0.003000
 41
0.003000
  0
VERTEX
  8
EBENE_1
 62
    39
  6
CONTINUOUS
 10
0.747508
 20
-0.139260
  0
VERTEX
  8
EBENE_1
 62
    39
  6
CONTINUOUS
 10
0.745444
 20
-0.136245
  0
VERTEX
  8
EBENE_1
 62
    39
  6
CONTINUOUS
 10
0.742429
 20
-0.134658
  0
VERTEX
  8
EBENE_1
 62
    39
  6
CONTINUOUS
 10
0.738937
 20
-0.134976
  0
SEQEND
  8
0
  0
POLYLINE
  8
EBENE_1
 62
    39
  6
CONTINUOUS
 66
     1
 40
0.003000
 41
0.003000
  0
VERTEX
  8
EBENE_1
 62
    39
  6
CONTINUOUS
 10
0.480402
 20
-0.180681
  0
VERTEX
  8
EBENE_1
 62
    39
  6
CONTINUOUS
 10
0.410409
 20
-0.419937
  0
VERTEX
  8
EBENE_1
 62
    39
  6
CONTINUOUS
 10
0.614669
 20
-0.418508
  0
SEQEND
  8
0
  0
POLYLINE
  8
EBENE_1
 62
    39
  6
CONTINUOUS
 66
     1
 40
0.003000
 41
0.003000
  0
VERTEX
  8
EBENE_1
 62
    39
  6
CONTINUOUS
 10
0.614669
 20
-0.418508
  0
VERTEX
  8
EBENE_1
 62
    39
  6
CONTINUOUS
 10
0.622504
 20
-0.417762
  0
VERTEX
  8
EBENE_1
 62
    39
  6
CONTINUOUS
 10
0.630898
 20
-0.416128
  0
VERTEX
  8
EBENE_1
 62
    39
  6
CONTINUOUS
 10
0.639793
 20
-0.413627
  0
VERTEX
  8
EBENE_1
 62
    39
  6
CONTINUOUS
 10
0.649134
 20
-0.410276
  0
VERTEX
  8
EBENE_1
 62
    39
  6
CONTINUOUS
 10
0.658862
 20
-0.406095
  0
VERTEX
  8
EBENE_1
 62
    39
  6
CONTINUOUS
 10
0.668920
 20
-0.401105
  0
VERTEX
  8
EBENE_1
 62
    39
  6
CONTINUOUS
 10
0.679251
 20
-0.395323
  0
VERTEX
  8
EBENE_1
 62
    39
  6
CONTINUOUS
 10
0.689797
 20
-0.388770
  0
VERTEX
  8
EBENE_1
 62
    39
  6
CONTINUOUS
 10
0.700502
 20
-0.381464
  0
VERTEX
  8
EBENE_1
 62
    39
  6
CONTINUOUS
 10
0.711308
 20
-0.373425
  0
VERTEX
  8
EBENE_1
 62
    39
  6
CONTINUOUS
 10
0.722158
 20
-0.364673
  0
VERTEX
  8
EBENE_1
 62
    39
  6
CONTINUOUS
 10
0.732994
 20
-0.355226
  0
VERTEX
  8
EBENE_1
 62
    39
  6
CONTINUOUS
 10
0.743759
 20
-0.345104
  0
VERTEX
  8
EBENE_1
 62
    39
  6
CONTINUOUS
 10
0.754396
 20
-0.334327
  0
VERTEX
  8
EBENE_1
 62
    39
  6
CONTINUOUS
 10
0.764848
 20
-0.322913
  0
VERTEX
  8
EBENE_1
 62
    39
  6
CONTINUOUS
 10
0.775057
 20
-0.310882
  0
VERTEX
  8
EBENE_1
 62
    39
  6
CONTINUOUS
 10
0.784966
 20
-0.298254
  0
VERTEX
  8
EBENE_1
 62
    39
  6
CONTINUOUS
 10
0.794518
 20
-0.285047
  0
VERTEX
  8
EBENE_1
 62
    39
  6
CONTINUOUS
 10
0.803656
 20
-0.271280
  0
VERTEX
  8
EBENE_1
 62
    39
  6
CONTINUOUS
 10
0.812322
 20
-0.256975
  0
VERTEX
  8
EBENE_1
 62
    39
  6
CONTINUOUS
 10
0.820458
 20
-0.242148
  0
VERTEX
  8
EBENE_1
 62
    39
  6
CONTINUOUS
 10
0.828009
 20
-0.226821
  0
VERTEX
  8
EBENE_1
 62
    39
  6
CONTINUOUS
 10
0.834916
 20
-0.211012
  0
VERTEX
  8
EBENE_1
 62
    39
  6
CONTINUOUS
 10
0.841122
 20
-0.194740
  0
VERTEX
  8
EBENE_1
 62
    39
  6
CONTINUOUS
 10
0.846569
 20
-0.178026
  0
VERTEX
  8
EBENE_1
 62
    39
  6
CONTINUOUS
 10
0.851202
 20
-0.160887
  0
VERTEX
  8
EBENE_1
 62
    39
  6
CONTINUOUS
 10
0.854962
 20
-0.143344
  0
VERTEX
  8
EBENE_1
 62
    39
  6
CONTINUOUS
 10
0.857791
 20
-0.125416
  0
VERTEX
  8
EBENE_1
 62
    39
  6
CONTINUOUS
 10
0.859634
 20
-0.107122
  0
SEQEND
  8
0
  0
POLYLINE
  8
EBENE_1
 62
    39
  6
CONTINUOUS
 66
     1
 40
0.003000
 41
0.003000
  0
VERTEX
  8
EBENE_1
 62
    39
  6
CONTINUOUS
 10
0.859634
 20
-0.107122
  0
VERTEX
  8
EBENE_1
 62
    39
  6
CONTINUOUS
 10
0.857049
 20
-0.090579
  0
VERTEX
  8
EBENE_1
 62
    39
  6
CONTINUOUS
 10
0.851912
 20
-0.079790
  0
VERTEX
  8
EBENE_1
 62
    39
  6
CONTINUOUS
 10
0.844583
 20
-0.073740
  0
VERTEX
  8
EBENE_1
 62
    39
  6
CONTINUOUS
 10
0.835420
 20
-0.071410
  0
VERTEX
  8
EBENE_1
 62
    39
  6
CONTINUOUS
 10
0.824782
 20
-0.071785
  0
VERTEX
  8
EBENE_1
 62
    39
  6
CONTINUOUS
 10
0.813027
 20
-0.073847
  0
VERTEX
  8
EBENE_1
 62
    39
  6
CONTINUOUS
 10
0.800513
 20
-0.076578
  0
VERTEX
  8
EBENE_1
 62
    39
  6
CONTINUOUS
 10
0.787600
 20
-0.078963
  0
VERTEX
  8
EBENE_1
 62
    39
  6
CONTINUOUS
 10
0.774646
 20
-0.079984
  0
SEQEND
  8
0
  0
POLYLINE
  8
EBENE_1
 62
    39
  6
CONTINUOUS
 66
     1
 40
0.003000
 41
0.003000
  0
VERTEX
  8
EBENE_1
 62
    39
  6
CONTINUOUS
 10
0.774646
 20
-0.079984
  0
VERTEX
  8
EBENE_1
 62
    39
  6
CONTINUOUS
 10
0.543248
 20
-0.134976
  0
SEQEND
  8
0
  0
POLYLINE
  8
EBENE_1
 62
    39
  6
CONTINUOUS
 66
     1
 40
0.003000
 41
0.003000
  0
VERTEX
  8
EBENE_1
 62
    39
  6
CONTINUOUS
 10
0.543248
 20
-0.134976
  0
VERTEX
  8
EBENE_1
 62
    39
  6
CONTINUOUS
 10
0.519093
 20
-0.137399
  0
VERTEX
  8
EBENE_1
 62
    39
  6
CONTINUOUS
 10
0.504775
 20
-0.144072
  0
VERTEX
  8
EBENE_1
 62
    39
  6
CONTINUOUS
 10
0.496251
 20
-0.154104
  0
VERTEX
  8
EBENE_1
 62
    39
  6
CONTINUOUS
 10
0.489475
 20
-0.166604
  0
VERTEX
  8
EBENE_1
 62
    39
  6
CONTINUOUS
 10
0.480402
 20
-0.180681
  0
SEQEND
  8
0
  0
POLYLINE
  8
EBENE_1
 62
    39
  6
CONTINUOUS
 66
     1
 40
0.003000
 41
0.003000
 70
     1
  0
VERTEX
  8
EBENE_1
 62
    39
  6
CONTINUOUS
 10
0.481831
 20
-0.177827
  0
VERTEX
  8
EBENE_1
 62
    39
  6
CONTINUOUS
 10
0.412555
 20
-0.415650
  0
VERTEX
  8
EBENE_1
 62
    39
  6
CONTINUOUS
 10
0.613957
 20
-0.414224
  0
VERTEX
  8
EBENE_1
 62
    39
  6
CONTINUOUS
 10
0.621852
 20
-0.413443
  0
VERTEX
  8
EBENE_1
 62
    39
  6
CONTINUOUS
 10
0.630346
 20
-0.411727
  0
VERTEX
  8
EBENE_1
 62
    39
  6
CONTINUOUS
 10
0.639374
 20
-0.409096
  0
VERTEX
  8
EBENE_1
 62
    39
  6
CONTINUOUS
 10
0.648876
 20
-0.405572
  0
VERTEX
  8
EBENE_1
 62
    39
  6
CONTINUOUS
 10
0.658786
 20
-0.401176
  0
VERTEX
  8
EBENE_1
 62
    39
  6
CONTINUOUS
 10
0.669042
 20
-0.395929
  0
VERTEX
  8
EBENE_1
 62
    39
  6
CONTINUOUS
 10
0.679582
 20
-0.389852
  0
VERTEX
  8
EBENE_1
 62
    39
  6
CONTINUOUS
 10
0.690341
 20
-0.382966
  0
VERTEX
  8
EBENE_1
 62
    39
  6
CONTINUOUS
 10
0.701258
 20
-0.375292
  0
VERTEX
  8
EBENE_1
 62
    39
  6
CONTINUOUS
 10
0.712268
 20
-0.366851
  0
VERTEX
  8
EBENE_1
 62
    39
  6
CONTINUOUS
 10
0.723309
 20
-0.357665
  0
VERTEX
  8
EBENE_1
 62
    39
  6
CONTINUOUS
 10
0.734318
 20
-0.347754
  0
VERTEX
  8
EBENE_1
 62
    39
  6
CONTINUOUS
 10
0.745232
 20
-0.337139
  0
VERTEX
  8
EBENE_1
 62
    39
  6
CONTINUOUS
 10
0.755988
 20
-0.325843
  0
VERTEX
  8
EBENE_1
 62
    39
  6
CONTINUOUS
 10
0.766522
 20
-0.313884
  0
VERTEX
  8
EBENE_1
 62
    39
  6
CONTINUOUS
 10
0.776772
 20
-0.301286
  0
VERTEX
  8
EBENE_1
 62
    39
  6
CONTINUOUS
 10
0.786674
 20
-0.288068
  0
VERTEX
  8
EBENE_1
 62
    39
  6
CONTINUOUS
 10
0.796166
 20
-0.274252
  0
VERTEX
  8
EBENE_1
 62
    39
  6
CONTINUOUS
 10
0.805184
 20
-0.259859
  0
VERTEX
  8
EBENE_1
 62
    39
  6
CONTINUOUS
 10
0.813665
 20
-0.244910
  0
VERTEX
  8
EBENE_1
 62
    39
  6
CONTINUOUS
 10
0.821547
 20
-0.229427
  0
VERTEX
  8
EBENE_1
 62
    39
  6
CONTINUOUS
 10
0.828767
 20
-0.213429
  0
VERTEX
  8
EBENE_1
 62
    39
  6
CONTINUOUS
 10
0.835260
 20
-0.196939
  0
VERTEX
  8
EBENE_1
 62
    39
  6
CONTINUOUS
 10
0.840965
 20
-0.179977
  0
VERTEX
  8
EBENE_1
 62
    39
  6
CONTINUOUS
 10
0.845817
 20
-0.162564
  0
VERTEX
  8
EBENE_1
 62
    39
  6
CONTINUOUS
 10
0.849755
 20
-0.144723
  0
VERTEX
  8
EBENE_1
 62
    39
  6
CONTINUOUS
 10
0.852715
 20
-0.126472
  0
VERTEX
  8
EBENE_1
 62
    39
  6
CONTINUOUS
 10
0.854634
 20
-0.107835
  0
VERTEX
  8
EBENE_1
 62
    39
  6
CONTINUOUS
 10
0.854634
 20
-0.107835
  0
VERTEX
  8
EBENE_1
 62
    39
  6
CONTINUOUS
 10
0.851693
 20
-0.089977
  0
VERTEX
  8
EBENE_1
 62
    39
  6
CONTINUOUS
 10
0.845841
 20
-0.079335
  0
VERTEX
  8
EBENE_1
 62
    39
  6
CONTINUOUS
 10
0.837510
 20
-0.074417
  0
VERTEX
  8
EBENE_1
 62
    39
  6
CONTINUOUS
 10
0.827138
 20
-0.073734
  0
VERTEX
  8
EBENE_1
 62
    39
  6
CONTINUOUS
 10
0.815159
 20
-0.075796
  0
VERTEX
  8
EBENE_1
 62
    39
  6
CONTINUOUS
 10
0.802009
 20
-0.079113
  0
VERTEX
  8
EBENE_1
 62
    39
  6
CONTINUOUS
 10
0.788121
 20
-0.082196
  0
VERTEX
  8
EBENE_1
 62
    39
  6
CONTINUOUS
 10
0.773933
 20
-0.083555
  0
VERTEX
  8
EBENE_1
 62
    39
  6
CONTINUOUS
 10
0.540394
 20
-0.132118
  0
VERTEX
  8
EBENE_1
 62
    39
  6
CONTINUOUS
 10
0.513802
 20
-0.139410
  0
VERTEX
  8
EBENE_1
 62
    39
  6
CONTINUOUS
 10
0.496844
 20
-0.151706
  0
VERTEX
  8
EBENE_1
 62
    39
  6
CONTINUOUS
 10
0.487325
 20
-0.164926
  0
VERTEX
  8
EBENE_1
 62
    39
  6
CONTINUOUS
 10
0.483052
 20
-0.174993
  0
SEQEND
  8
0
  0
POLYLINE
  8
EBENE_1
 62
    39
  6
CONTINUOUS
 66
     1
 40
0.003000
 41
0.003000
  0
VERTEX
  8
EBENE_1
 62
    39
  6
CONTINUOUS
 10
0.701799
 20
-0.105693
  0
VERTEX
  8
EBENE_1
 62
    39
  6
CONTINUOUS
 10
0.698784
 20
-0.107255
  0
VERTEX
  8
EBENE_1
 62
    39
  6
CONTINUOUS
 10
0.697198
 20
-0.110086
  0
VERTEX
  8
EBENE_1
 62
    39
  6
CONTINUOUS
 10
0.697516
 20
-0.113551
  0
SEQEND
  8
0
  0
POLYLINE
  8
EBENE_1
 62
    39
  6
CONTINUOUS
 66
     1
 40
0.003000
 41
0.003000
  0
VERTEX
  8
EBENE_1
 62
    39
  6
CONTINUOUS
 10
0.697516
 20
-0.113551
  0
VERTEX
  8
EBENE_1
 62
    39
  6
CONTINUOUS
 10
0.699075
 20
-0.116593
  0
VERTEX
  8
EBENE_1
 62
    39
  6
CONTINUOUS
 10
0.701905
 20
-0.118365
  0
VERTEX
  8
EBENE_1
 62
    39
  6
CONTINUOUS
 10
0.705370
 20
-0.118551
  0
SEQEND
  8
0
  0
POLYLINE
  8
EBENE_1
 62
    39
  6
CONTINUOUS
 66
     1
 40
0.003000
 41
0.003000
  0
VERTEX
  8
EBENE_1
 62
    39
  6
CONTINUOUS
 10
0.705370
 20
-0.118551
  0
VERTEX
  8
EBENE_1
 62
    39
  6
CONTINUOUS
 10
0.708412
 20
-0.116804
  0
VERTEX
  8
EBENE_1
 62
    39
  6
CONTINUOUS
 10
0.710184
 20
-0.113630
  0
VERTEX
  8
EBENE_1
 62
    39
  6
CONTINUOUS
 10
0.710370
 20
-0.109980
  0
SEQEND
  8
0
  0
POLYLINE
  8
EBENE_1
 62
    39
  6
CONTINUOUS
 66
     1
 40
0.003000
 41
0.003000
  0
VERTEX
  8
EBENE_1
 62
    39
  6
CONTINUOUS
 10
0.710370
 20
-0.109980
  0
VERTEX
  8
EBENE_1
 62
    39
  6
CONTINUOUS
 10
0.708625
 20
-0.106964
  0
VERTEX
  8
EBENE_1
 62
    39
  6
CONTINUOUS
 10
0.705450
 20
-0.105376
  0
VERTEX
  8
EBENE_1
 62
    39
  6
CONTINUOUS
 10
0.701799
 20
-0.105693
  0
SEQEND
  8
0
  0
POLYLINE
  8
EBENE_1
 62
    39
  6
CONTINUOUS
 66
     1
 40
0.003000
 41
0.003000
  0
VERTEX
  8
EBENE_1
 62
    39
  6
CONTINUOUS
 10
0.592528
 20
-0.132118
  0
VERTEX
  8
EBENE_1
 62
    39
  6
CONTINUOUS
 10
0.589328
 20
-0.134182
  0
VERTEX
  8
EBENE_1
 62
    39
  6
CONTINUOUS
 10
0.587398
 20
-0.137197
  0
VERTEX
  8
EBENE_1
 62
    39
  6
CONTINUOUS
 10
0.587531
 20
-0.140689
  0
SEQEND
  8
0
  0
POLYLINE
  8
EBENE_1
 62
    39
  6
CONTINUOUS
 66
     1
 40
0.003000
 41
0.003000
  0
VERTEX
  8
EBENE_1
 62
    39
  6
CONTINUOUS
 10
0.587531
 20
-0.140689
  0
VERTEX
  8
EBENE_1
 62
    39
  6
CONTINUOUS
 10
0.589117
 20
-0.143731
  0
VERTEX
  8
EBENE_1
 62
    39
  6
CONTINUOUS
 10
0.592132
 20
-0.145503
  0
VERTEX
  8
EBENE_1
 62
    39
  6
CONTINUOUS
 10
0.596098
 20
-0.145689
  0
SEQEND
  8
0
  0
POLYLINE
  8
EBENE_1
 62
    39
  6
CONTINUOUS
 66
     1
 40
0.003000
 41
0.003000
  0
VERTEX
  8
EBENE_1
 62
    39
  6
CONTINUOUS
 10
0.596098
 20
-0.145689
  0
VERTEX
  8
EBENE_1
 62
    39
  6
CONTINUOUS
 10
0.599115
 20
-0.143625
  0
VERTEX
  8
EBENE_1
 62
    39
  6
CONTINUOUS
 10
0.600703
 20
-0.140610
  0
VERTEX
  8
EBENE_1
 62
    39
  6
CONTINUOUS
 10
0.600386
 20
-0.137118
  0
SEQEND
  8
0
  0
POLYLINE
  8
EBENE_1
 62
    39
  6
CONTINUOUS
 66
     1
 40
0.003000
 41
0.003000
  0
VERTEX
  8
EBENE_1
 62
    39
  6
CONTINUOUS
 10
0.600386
 20
-0.137118
  0
VERTEX
  8
EBENE_1
 62
    39
  6
CONTINUOUS
 10
0.598824
 20
-0.134076
  0
VERTEX
  8
EBENE_1
 62
    39
  6
CONTINUOUS
 10
0.595993
 20
-0.132304
  0
VERTEX
  8
EBENE_1
 62
    39
  6
CONTINUOUS
 10
0.592528
 20
-0.132118
  0
SEQEND
  8
0
  0
POLYLINE
  8
EBENE_1
 62
    39
  6
CONTINUOUS
 66
     1
 40
0.003000
 41
0.003000
  0
VERTEX
  8
EBENE_1
 62
    39
  6
CONTINUOUS
 10
0.506827
 20
-0.174256
  0
VERTEX
  8
EBENE_1
 62
    39
  6
CONTINUOUS
 10
0.503811
 20
-0.176320
  0
VERTEX
  8
EBENE_1
 62
    39
  6
CONTINUOUS
 10
0.502224
 20
-0.179335
  0
VERTEX
  8
EBENE_1
 62
    39
  6
CONTINUOUS
 10
0.502539
 20
-0.182827
  0
SEQEND
  8
0
  0
POLYLINE
  8
EBENE_1
 62
    39
  6
CONTINUOUS
 66
     1
 40
0.003000
 41
0.003000
  0
VERTEX
  8
EBENE_1
 62
    39
  6
CONTINUOUS
 10
0.502539
 20
-0.182827
  0
VERTEX
  8
EBENE_1
 62
    39
  6
CONTINUOUS
 10
0.504102
 20
-0.185868
  0
VERTEX
  8
EBENE_1
 62
    39
  6
CONTINUOUS
 10
0.506932
 20
-0.187641
  0
VERTEX
  8
EBENE_1
 62
    39
  6
CONTINUOUS
 10
0.510398
 20
-0.187827
  0
SEQEND
  8
0
  0
POLYLINE
  8
EBENE_1
 62
    39
  6
CONTINUOUS
 66
     1
 40
0.003000
 41
0.003000
  0
VERTEX
  8
EBENE_1
 62
    39
  6
CONTINUOUS
 10
0.510398
 20
-0.187827
  0
VERTEX
  8
EBENE_1
 62
    39
  6
CONTINUOUS
 10
0.513439
 20
-0.185763
  0
VERTEX
  8
EBENE_1
 62
    39
  6
CONTINUOUS
 10
0.515212
 20
-0.182747
  0
VERTEX
  8
EBENE_1
 62
    39
  6
CONTINUOUS
 10
0.515398
 20
-0.179256
  0
SEQEND
  8
0
  0
POLYLINE
  8
EBENE_1
 62
    39
  6
CONTINUOUS
 66
     1
 40
0.003000
 41
0.003000
  0
VERTEX
  8
EBENE_1
 62
    39
  6
CONTINUOUS
 10
0.515398
 20
-0.179256
  0
VERTEX
  8
EBENE_1
 62
    39
  6
CONTINUOUS
 10
0.513651
 20
-0.176213
  0
VERTEX
  8
EBENE_1
 62
    39
  6
CONTINUOUS
 10
0.510477
 20
-0.174440
  0
VERTEX
  8
EBENE_1
 62
    39
  6
CONTINUOUS
 10
0.506827
 20
-0.174256
  0
SEQEND
  8
0
  0
POLYLINE
  8
EBENE_1
 62
    39
  6
CONTINUOUS
 66
     1
 40
0.003000
 41
0.003000
  0
VERTEX
  8
EBENE_1
 62
    39
  6
CONTINUOUS
 10
0.260433
 20
-0.226390
  0
VERTEX
  8
EBENE_1
 62
    39
  6
CONTINUOUS
 10
0.204012
 20
-0.416366
  0
VERTEX
  8
EBENE_1
 62
    39
  6
CONTINUOUS
 10
0.408268
 20
-0.414937
  0
SEQEND
  8
0
  0
POLYLINE
  8
EBENE_1
 62
    39
  6
CONTINUOUS
 66
     1
 40
0.003000
 41
0.003000
  0
VERTEX
  8
EBENE_1
 62
    39
  6
CONTINUOUS
 10
0.408268
 20
-0.414937
  0
VERTEX
  8
EBENE_1
 62
    39
  6
CONTINUOUS
 10
0.417139
 20
-0.414316
  0
VERTEX
  8
EBENE_1
 62
    39
  6
CONTINUOUS
 10
0.426409
 20
-0.413122
  0
VERTEX
  8
EBENE_1
 62
    39
  6
CONTINUOUS
 10
0.436033
 20
-0.411330
  0
VERTEX
  8
EBENE_1
 62
    39
  6
CONTINUOUS
 10
0.445963
 20
-0.408917
  0
VERTEX
  8
EBENE_1
 62
    39
  6
CONTINUOUS
 10
0.456153
 20
-0.405857
  0
VERTEX
  8
EBENE_1
 62
    39
  6
CONTINUOUS
 10
0.466557
 20
-0.402128
  0
VERTEX
  8
EBENE_1
 62
    39
  6
CONTINUOUS
 10
0.477129
 20
-0.397703
  0
VERTEX
  8
EBENE_1
 62
    39
  6
CONTINUOUS
 10
0.487822
 20
-0.392559
  0
VERTEX
  8
EBENE_1
 62
    39
  6
CONTINUOUS
 10
0.498590
 20
-0.386671
  0
VERTEX
  8
EBENE_1
 62
    39
  6
CONTINUOUS
 10
0.509386
 20
-0.380015
  0
VERTEX
  8
EBENE_1
 62
    39
  6
CONTINUOUS
 10
0.520164
 20
-0.372566
  0
VERTEX
  8
EBENE_1
 62
    39
  6
CONTINUOUS
 10
0.530879
 20
-0.364301
  0
VERTEX
  8
EBENE_1
 62
    39
  6
CONTINUOUS
 10
0.541483
 20
-0.355194
  0
VERTEX
  8
EBENE_1
 62
    39
  6
CONTINUOUS
 10
0.551929
 20
-0.345221
  0
VERTEX
  8
EBENE_1
 62
    39
  6
CONTINUOUS
 10
0.562173
 20
-0.334358
  0
VERTEX
  8
EBENE_1
 62
    39
  6
CONTINUOUS
 10
0.572167
 20
-0.322580
  0
VERTEX
  8
EBENE_1
 62
    39
  6
CONTINUOUS
 10
0.581865
 20
-0.309864
  0
VERTEX
  8
EBENE_1
 62
    39
  6
CONTINUOUS
 10
0.591221
 20
-0.296184
  0
VERTEX
  8
EBENE_1
 62
    39
  6
CONTINUOUS
 10
0.600189
 20
-0.281516
  0
VERTEX
  8
EBENE_1
 62
    39
  6
CONTINUOUS
 10
0.608721
 20
-0.265836
  0
VERTEX
  8
EBENE_1
 62
    39
  6
CONTINUOUS
 10
0.616772
 20
-0.249119
  0
VERTEX
  8
EBENE_1
 62
    39
  6
CONTINUOUS
 10
0.624295
 20
-0.231341
  0
VERTEX
  8
EBENE_1
 62
    39
  6
CONTINUOUS
 10
0.631245
 20
-0.212478
  0
VERTEX
  8
EBENE_1
 62
    39
  6
CONTINUOUS
 10
0.637574
 20
-0.192505
  0
VERTEX
  8
EBENE_1
 62
    39
  6
CONTINUOUS
 10
0.643236
 20
-0.171398
  0
SEQEND
  8
0
  0
POLYLINE
  8
EBENE_1
 62
    39
  6
CONTINUOUS
 66
     1
 40
0.003000
 41
0.003000
  0
VERTEX
  8
EBENE_1
 62
    39
  6
CONTINUOUS
 10
0.643236
 20
-0.171398
  0
VERTEX
  8
EBENE_1
 62
    39
  6
CONTINUOUS
 10
0.640615
 20
-0.149964
  0
VERTEX
  8
EBENE_1
 62
    39
  6
CONTINUOUS
 10
0.635820
 20
-0.135564
  0
VERTEX
  8
EBENE_1
 62
    39
  6
CONTINUOUS
 10
0.628863
 20
-0.126836
  0
VERTEX
  8
EBENE_1
 62
    39
  6
CONTINUOUS
 10
0.619758
 20
-0.122418
  0
VERTEX
  8
EBENE_1
 62
    39
  6
CONTINUOUS
 10
0.608516
 20
-0.120948
  0
VERTEX
  8
EBENE_1
 62
    39
  6
CONTINUOUS
 10
0.595150
 20
-0.121064
  0
VERTEX
  8
EBENE_1
 62
    39
  6
CONTINUOUS
 10
0.579673
 20
-0.121406
  0
SEQEND
  8
0
  0
POLYLINE
  8
EBENE_1
 62
    39
  6
CONTINUOUS
 66
     1
 40
0.003000
 41
0.003000
  0
VERTEX
  8
EBENE_1
 62
    39
  6
CONTINUOUS
 10
0.579673
 20
-0.121406
  0
VERTEX
  8
EBENE_1
 62
    39
  6
CONTINUOUS
 10
0.345421
 20
-0.178539
  0
SEQEND
  8
0
  0
POLYLINE
  8
EBENE_1
 62
    39
  6
CONTINUOUS
 66
     1
 40
0.003000
 41
0.003000
  0
VERTEX
  8
EBENE_1
 62
    39
  6
CONTINUOUS
 10
0.345421
 20
-0.178539
  0
VERTEX
  8
EBENE_1
 62
    39
  6
CONTINUOUS
 10
0.317659
 20
-0.184476
  0
VERTEX
  8
EBENE_1
 62
    39
  6
CONTINUOUS
 10
0.297816
 20
-0.192093
  0
VERTEX
  8
EBENE_1
 62
    39
  6
CONTINUOUS
 10
0.283355
 20
-0.201526
  0
VERTEX
  8
EBENE_1
 62
    39
  6
CONTINUOUS
 10
0.271739
 20
-0.212913
  0
VERTEX
  8
EBENE_1
 62
    39
  6
CONTINUOUS
 10
0.260433
 20
-0.226390
  0
SEQEND
  8
0
  0
POLYLINE
  8
EBENE_1
 62
    39
  6
CONTINUOUS
 66
     1
 40
0.003000
 41
0.003000
 70
     1
  0
VERTEX
  8
EBENE_1
 62
    39
  6
CONTINUOUS
 10
0.259717
 20
-0.227819
  0
VERTEX
  8
EBENE_1
 62
    39
  6
CONTINUOUS
 10
0.206154
 20
-0.412079
  0
VERTEX
  8
EBENE_1
 62
    39
  6
CONTINUOUS
 10
0.406839
 20
-0.410654
  0
VERTEX
  8
EBENE_1
 62
    39
  6
CONTINUOUS
 10
0.415967
 20
-0.410016
  0
VERTEX
  8
EBENE_1
 62
    39
  6
CONTINUOUS
 10
0.425470
 20
-0.408798
  0
VERTEX
  8
EBENE_1
 62
    39
  6
CONTINUOUS
 10
0.435302
 20
-0.406970
  0
VERTEX
  8
EBENE_1
 62
    39
  6
CONTINUOUS
 10
0.445422
 20
-0.404503
  0
VERTEX
  8
EBENE_1
 62
    39
  6
CONTINUOUS
 10
0.455787
 20
-0.401366
  0
VERTEX
  8
EBENE_1
 62
    39
  6
CONTINUOUS
 10
0.466352
 20
-0.397529
  0
VERTEX
  8
EBENE_1
 62
    39
  6
CONTINUOUS
 10
0.477075
 20
-0.392964
  0
VERTEX
  8
EBENE_1
 62
    39
  6
CONTINUOUS
 10
0.487914
 20
-0.387639
  0
VERTEX
  8
EBENE_1
 62
    39
  6
CONTINUOUS
 10
0.498824
 20
-0.381526
  0
VERTEX
  8
EBENE_1
 62
    39
  6
CONTINUOUS
 10
0.509763
 20
-0.374595
  0
VERTEX
  8
EBENE_1
 62
    39
  6
CONTINUOUS
 10
0.520688
 20
-0.366816
  0
VERTEX
  8
EBENE_1
 62
    39
  6
CONTINUOUS
 10
0.531556
 20
-0.358158
  0
VERTEX
  8
EBENE_1
 62
    39
  6
CONTINUOUS
 10
0.542323
 20
-0.348594
  0
VERTEX
  8
EBENE_1
 62
    39
  6
CONTINUOUS
 10
0.552946
 20
-0.338091
  0
VERTEX
  8
EBENE_1
 62
    39
  6
CONTINUOUS
 10
0.563383
 20
-0.326622
  0
VERTEX
  8
EBENE_1
 62
    39
  6
CONTINUOUS
 10
0.573590
 20
-0.314156
  0
VERTEX
  8
EBENE_1
 62
    39
  6
CONTINUOUS
 10
0.583524
 20
-0.300663
  0
VERTEX
  8
EBENE_1
 62
    39
  6
CONTINUOUS
 10
0.593143
 20
-0.286114
  0
VERTEX
  8
EBENE_1
 62
    39
  6
CONTINUOUS
 10
0.602402
 20
-0.270479
  0
VERTEX
  8
EBENE_1
 62
    39
  6
CONTINUOUS
 10
0.611260
 20
-0.253728
  0
VERTEX
  8
EBENE_1
 62
    39
  6
CONTINUOUS
 10
0.619672
 20
-0.235831
  0
VERTEX
  8
EBENE_1
 62
    39
  6
CONTINUOUS
 10
0.627596
 20
-0.216758
  0
VERTEX
  8
EBENE_1
 62
    39
  6
CONTINUOUS
 10
0.634989
 20
-0.196481
  0
VERTEX
  8
EBENE_1
 62
    39
  6
CONTINUOUS
 10
0.641807
 20
-0.174969
  0
VERTEX
  8
EBENE_1
 62
    39
  6
CONTINUOUS
 10
0.641807
 20
-0.174969
  0
VERTEX
  8
EBENE_1
 62
    39
  6
CONTINUOUS
 10
0.639069
 20
-0.154064
  0
VERTEX
  8
EBENE_1
 62
    39
  6
CONTINUOUS
 10
0.633982
 20
-0.140044
  0
VERTEX
  8
EBENE_1
 62
    39
  6
CONTINUOUS
 10
0.626647
 20
-0.131569
  0
VERTEX
  8
EBENE_1
 62
    39
  6
CONTINUOUS
 10
0.617163
 20
-0.127305
  0
VERTEX
  8
EBENE_1
 62
    39
  6
CONTINUOUS
 10
0.605629
 20
-0.125914
  0
VERTEX
  8
EBENE_1
 62
    39
  6
CONTINUOUS
 10
0.592147
 20
-0.126060
  0
VERTEX
  8
EBENE_1
 62
    39
  6
CONTINUOUS
 10
0.576815
 20
-0.126406
  0
VERTEX
  8
EBENE_1
 62
    39
  6
CONTINUOUS
 10
0.326138
 20
-0.182110
  0
VERTEX
  8
EBENE_1
 62
    39
  6
CONTINUOUS
 10
0.301884
 20
-0.184602
  0
VERTEX
  8
EBENE_1
 62
    39
  6
CONTINUOUS
 10
0.286715
 20
-0.191412
  0
VERTEX
  8
EBENE_1
 62
    39
  6
CONTINUOUS
 10
0.277030
 20
-0.201549
  0
VERTEX
  8
EBENE_1
 62
    39
  6
CONTINUOUS
 10
0.269230
 20
-0.214015
  0
SEQEND
  8
0
  0
POLYLINE
  8
EBENE_1
 62
    39
  6
CONTINUOUS
 66
     1
 40
0.003000
 41
0.003000
  0
VERTEX
  8
EBENE_1
 62
    39
  6
CONTINUOUS
 10
0.375417
 20
-0.179969
  0
VERTEX
  8
EBENE_1
 62
    39
  6
CONTINUOUS
 10
0.372375
 20
-0.181528
  0
VERTEX
  8
EBENE_1
 62
    39
  6
CONTINUOUS
 10
0.370602
 20
-0.184359
  0
VERTEX
  8
EBENE_1
 62
    39
  6
CONTINUOUS
 10
0.370417
 20
-0.187827
  0
SEQEND
  8
0
  0
POLYLINE
  8
EBENE_1
 62
    39
  6
CONTINUOUS
 66
     1
 40
0.003000
 41
0.003000
  0
VERTEX
  8
EBENE_1
 62
    39
  6
CONTINUOUS
 10
0.370417
 20
-0.187827
  0
VERTEX
  8
EBENE_1
 62
    39
  6
CONTINUOUS
 10
0.372481
 20
-0.190868
  0
VERTEX
  8
EBENE_1
 62
    39
  6
CONTINUOUS
 10
0.375497
 20
-0.192640
  0
VERTEX
  8
EBENE_1
 62
    39
  6
CONTINUOUS
 10
0.378988
 20
-0.192823
  0
SEQEND
  8
0
  0
POLYLINE
  8
EBENE_1
 62
    39
  6
CONTINUOUS
 66
     1
 40
0.003000
 41
0.003000
  0
VERTEX
  8
EBENE_1
 62
    39
  6
CONTINUOUS
 10
0.378988
 20
-0.192823
  0
VERTEX
  8
EBENE_1
 62
    39
  6
CONTINUOUS
 10
0.382030
 20
-0.191078
  0
VERTEX
  8
EBENE_1
 62
    39
  6
CONTINUOUS
 10
0.383801
 20
-0.187904
  0
VERTEX
  8
EBENE_1
 62
    39
  6
CONTINUOUS
 10
0.383984
 20
-0.184252
  0
SEQEND
  8
0
  0
POLYLINE
  8
EBENE_1
 62
    39
  6
CONTINUOUS
 66
     1
 40
0.003000
 41
0.003000
  0
VERTEX
  8
EBENE_1
 62
    39
  6
CONTINUOUS
 10
0.383984
 20
-0.184252
  0
VERTEX
  8
EBENE_1
 62
    39
  6
CONTINUOUS
 10
0.381923
 20
-0.181237
  0
VERTEX
  8
EBENE_1
 62
    39
  6
CONTINUOUS
 10
0.378909
 20
-0.179650
  0
VERTEX
  8
EBENE_1
 62
    39
  6
CONTINUOUS
 10
0.375417
 20
-0.179969
  0
SEQEND
  8
0
  0
POLYLINE
  8
EBENE_1
 62
    39
  6
CONTINUOUS
 66
     1
 40
0.003000
 41
0.003000
  0
VERTEX
  8
EBENE_1
 62
    39
  6
CONTINUOUS
 10
0.286142
 20
-0.224248
  0
VERTEX
  8
EBENE_1
 62
    39
  6
CONTINUOUS
 10
0.283100
 20
-0.226312
  0
VERTEX
  8
EBENE_1
 62
    39
  6
CONTINUOUS
 10
0.281328
 20
-0.229327
  0
VERTEX
  8
EBENE_1
 62
    39
  6
CONTINUOUS
 10
0.281142
 20
-0.232819
  0
SEQEND
  8
0
  0
POLYLINE
  8
EBENE_1
 62
    39
  6
CONTINUOUS
 66
     1
 40
0.003000
 41
0.003000
  0
VERTEX
  8
EBENE_1
 62
    39
  6
CONTINUOUS
 10
0.281142
 20
-0.232819
  0
VERTEX
  8
EBENE_1
 62
    39
  6
CONTINUOUS
 10
0.283205
 20
-0.235861
  0
VERTEX
  8
EBENE_1
 62
    39
  6
CONTINUOUS
 10
0.286221
 20
-0.237633
  0
VERTEX
  8
EBENE_1
 62
    39
  6
CONTINUOUS
 10
0.289713
 20
-0.237819
  0
SEQEND
  8
0
  0
POLYLINE
  8
EBENE_1
 62
    39
  6
CONTINUOUS
 66
     1
 40
0.003000
 41
0.003000
  0
VERTEX
  8
EBENE_1
 62
    39
  6
CONTINUOUS
 10
0.289713
 20
-0.237819
  0
VERTEX
  8
EBENE_1
 62
    39
  6
CONTINUOUS
 10
0.292755
 20
-0.236072
  0
VERTEX
  8
EBENE_1
 62
    39
  6
CONTINUOUS
 10
0.294528
 20
-0.232898
  0
VERTEX
  8
EBENE_1
 62
    39
  6
CONTINUOUS
 10
0.294713
 20
-0.229248
  0
SEQEND
  8
0
  0
POLYLINE
  8
EBENE_1
 62
    39
  6
CONTINUOUS
 66
     1
 40
0.003000
 41
0.003000
  0
VERTEX
  8
EBENE_1
 62
    39
  6
CONTINUOUS
 10
0.294713
 20
-0.229248
  0
VERTEX
  8
EBENE_1
 62
    39
  6
CONTINUOUS
 10
0.292649
 20
-0.226206
  0
VERTEX
  8
EBENE_1
 62
    39
  6
CONTINUOUS
 10
0.289633
 20
-0.224434
  0
VERTEX
  8
EBENE_1
 62
    39
  6
CONTINUOUS
 10
0.286142
 20
-0.224248
  0
SEQEND
  8
0
  0
POLYLINE
  8
EBENE_1
 62
    39
  6
CONTINUOUS
 66
     1
 40
0.003000
 41
0.003000
  0
VERTEX
  8
EBENE_1
 62
    39
  6
CONTINUOUS
 10
0.465406
 20
-0.164256
  0
VERTEX
  8
EBENE_1
 62
    39
  6
CONTINUOUS
 10
0.462363
 20
-0.165845
  0
VERTEX
  8
EBENE_1
 62
    39
  6
CONTINUOUS
 10
0.460590
 20
-0.168860
  0
VERTEX
  8
EBENE_1
 62
    39
  6
CONTINUOUS
 10
0.460406
 20
-0.172827
  0
SEQEND
  8
0
  0
POLYLINE
  8
EBENE_1
 62
    39
  6
CONTINUOUS
 66
     1
 40
0.003000
 41
0.003000
  0
VERTEX
  8
EBENE_1
 62
    39
  6
CONTINUOUS
 10
0.460406
 20
-0.172827
  0
VERTEX
  8
EBENE_1
 62
    39
  6
CONTINUOUS
 10
0.462469
 20
-0.175842
  0
VERTEX
  8
EBENE_1
 62
    39
  6
CONTINUOUS
 10
0.465485
 20
-0.177428
  0
VERTEX
  8
EBENE_1
 62
    39
  6
CONTINUOUS
 10
0.468976
 20
-0.177110
  0
SEQEND
  8
0
  0
POLYLINE
  8
EBENE_1
 62
    39
  6
CONTINUOUS
 66
     1
 40
0.003000
 41
0.003000
  0
VERTEX
  8
EBENE_1
 62
    39
  6
CONTINUOUS
 10
0.468976
 20
-0.177110
  0
VERTEX
  8
EBENE_1
 62
    39
  6
CONTINUOUS
 10
0.472016
 20
-0.175551
  0
VERTEX
  8
EBENE_1
 62
    39
  6
CONTINUOUS
 10
0.473789
 20
-0.172721
  0
VERTEX
  8
EBENE_1
 62
    39
  6
CONTINUOUS
 10
0.473976
 20
-0.169256
  0
SEQEND
  8
0
  0
POLYLINE
  8
EBENE_1
 62
    39
  6
CONTINUOUS
 66
     1
 40
0.003000
 41
0.003000
  0
VERTEX
  8
EBENE_1
 62
    39
  6
CONTINUOUS
 10
0.473976
 20
-0.169256
  0
VERTEX
  8
EBENE_1
 62
    39
  6
CONTINUOUS
 10
0.472229
 20
-0.166214
  0
VERTEX
  8
EBENE_1
 62
    39
  6
CONTINUOUS
 10
0.469055
 20
-0.164442
  0
VERTEX
  8
EBENE_1
 62
    39
  6
CONTINUOUS
 10
0.465406
 20
-0.164256
  0
SEQEND
  8
0
  0
POLYLINE
  8
EBENE_1
 62
    39
  6
CONTINUOUS
 66
     1
 40
0.003000
 41
0.003000
  0
VERTEX
  8
EBENE_1
 62
    39
  6
CONTINUOUS
 10
0.039748
 20
-0.270669
  0
VERTEX
  8
EBENE_1
 62
    39
  6
CONTINUOUS
 10
-0.003098
 20
-0.421366
  0
VERTEX
  8
EBENE_1
 62
    39
  6
CONTINUOUS
 10
0.201154
 20
-0.419220
  0
SEQEND
  8
0
  0
POLYLINE
  8
EBENE_1
 62
    39
  6
CONTINUOUS
 66
     1
 40
0.003000
 41
0.003000
  0
VERTEX
  8
EBENE_1
 62
    39
  6
CONTINUOUS
 10
0.201154
 20
-0.419220
  0
VERTEX
  8
EBENE_1
 62
    39
  6
CONTINUOUS
 10
0.211552
 20
-0.418736
  0
VERTEX
  8
EBENE_1
 62
    39
  6
CONTINUOUS
 10
0.221940
 20
-0.417839
  0
VERTEX
  8
EBENE_1
 62
    39
  6
CONTINUOUS
 10
0.232326
 20
-0.416447
  0
VERTEX
  8
EBENE_1
 62
    39
  6
CONTINUOUS
 10
0.242719
 20
-0.414480
  0
VERTEX
  8
EBENE_1
 62
    39
  6
CONTINUOUS
 10
0.253127
 20
-0.411855
  0
VERTEX
  8
EBENE_1
 62
    39
  6
CONTINUOUS
 10
0.263561
 20
-0.408489
  0
VERTEX
  8
EBENE_1
 62
    39
  6
CONTINUOUS
 10
0.274027
 20
-0.404302
  0
VERTEX
  8
EBENE_1
 62
    39
  6
CONTINUOUS
 10
0.284536
 20
-0.399212
  0
VERTEX
  8
EBENE_1
 62
    39
  6
CONTINUOUS
 10
0.295096
 20
-0.393136
  0
VERTEX
  8
EBENE_1
 62
    39
  6
CONTINUOUS
 10
0.305715
 20
-0.385992
  0
VERTEX
  8
EBENE_1
 62
    39
  6
CONTINUOUS
 10
0.316403
 20
-0.377699
  0
VERTEX
  8
EBENE_1
 62
    39
  6
CONTINUOUS
 10
0.327168
 20
-0.368174
  0
VERTEX
  8
EBENE_1
 62
    39
  6
CONTINUOUS
 10
0.338019
 20
-0.357337
  0
VERTEX
  8
EBENE_1
 62
    39
  6
CONTINUOUS
 10
0.348965
 20
-0.345104
  0
VERTEX
  8
EBENE_1
 62
    39
  6
CONTINUOUS
 10
0.360014
 20
-0.331395
  0
VERTEX
  8
EBENE_1
 62
    39
  6
CONTINUOUS
 10
0.371176
 20
-0.316127
  0
VERTEX
  8
EBENE_1
 62
    39
  6
CONTINUOUS
 10
0.382460
 20
-0.299217
  0
VERTEX
  8
EBENE_1
 62
    39
  6
CONTINUOUS
 10
0.393873
 20
-0.280586
  0
VERTEX
  8
EBENE_1
 62
    39
  6
CONTINUOUS
 10
0.405425
 20
-0.260149
  0
VERTEX
  8
EBENE_1
 62
    39
  6
CONTINUOUS
 10
0.417124
 20
-0.237827
  0
VERTEX
  8
EBENE_1
 62
    39
  6
CONTINUOUS
 10
0.428980
 20
-0.213535
  0
SEQEND
  8
0
  0
POLYLINE
  8
EBENE_1
 62
    39
  6
CONTINUOUS
 66
     1
 40
0.003000
 41
0.003000
  0
VERTEX
  8
EBENE_1
 62
    39
  6
CONTINUOUS
 10
0.428980
 20
-0.213535
  0
VERTEX
  8
EBENE_1
 62
    39
  6
CONTINUOUS
 10
0.426315
 20
-0.194860
  0
VERTEX
  8
EBENE_1
 62
    39
  6
CONTINUOUS
 10
0.421180
 20
-0.182502
  0
VERTEX
  8
EBENE_1
 62
    39
  6
CONTINUOUS
 10
0.413852
 20
-0.175284
  0
VERTEX
  8
EBENE_1
 62
    39
  6
CONTINUOUS
 10
0.404608
 20
-0.172024
  0
VERTEX
  8
EBENE_1
 62
    39
  6
CONTINUOUS
 10
0.393723
 20
-0.171542
  0
VERTEX
  8
EBENE_1
 62
    39
  6
CONTINUOUS
 10
0.381474
 20
-0.172659
  0
VERTEX
  8
EBENE_1
 62
    39
  6
CONTINUOUS
 10
0.368137
 20
-0.174194
  0
VERTEX
  8
EBENE_1
 62
    39
  6
CONTINUOUS
 10
0.353988
 20
-0.174969
  0
SEQEND
  8
0
  0
POLYLINE
  8
EBENE_1
 62
    39
  6
CONTINUOUS
 66
     1
 40
0.003000
 41
0.003000
  0
VERTEX
  8
EBENE_1
 62
    39
  6
CONTINUOUS
 10
0.353988
 20
-0.174969
  0
VERTEX
  8
EBENE_1
 62
    39
  6
CONTINUOUS
 10
0.129736
 20
-0.227106
  0
SEQEND
  8
0
  0
POLYLINE
  8
EBENE_1
 62
    39
  6
CONTINUOUS
 66
     1
 40
0.003000
 41
0.003000
  0
VERTEX
  8
EBENE_1
 62
    39
  6
CONTINUOUS
 10
0.129736
 20
-0.227106
  0
VERTEX
  8
EBENE_1
 62
    39
  6
CONTINUOUS
 10
0.105811
 20
-0.231673
  0
VERTEX
  8
EBENE_1
 62
    39
  6
CONTINUOUS
 10
0.086885
 20
-0.236973
  0
VERTEX
  8
EBENE_1
 62
    39
  6
CONTINUOUS
 10
0.071887
 20
-0.243264
  0
VERTEX
  8
EBENE_1
 62
    39
  6
CONTINUOUS
 10
0.059746
 20
-0.250806
  0
VERTEX
  8
EBENE_1
 62
    39
  6
CONTINUOUS
 10
0.049390
 20
-0.259855
  0
VERTEX
  8
EBENE_1
 62
    39
  6
CONTINUOUS
 10
0.039748
 20
-0.270669
  0
SEQEND
  8
0
  0
POLYLINE
  8
EBENE_1
 62
    39
  6
CONTINUOUS
 66
     1
 40
0.003000
 41
0.003000
 70
     1
  0
VERTEX
  8
EBENE_1
 62
    39
  6
CONTINUOUS
 10
0.038319
 20
-0.274957
  0
VERTEX
  8
EBENE_1
 62
    39
  6
CONTINUOUS
 10
-0.000957
 20
-0.416366
  0
VERTEX
  8
EBENE_1
 62
    39
  6
CONTINUOUS
 10
0.206154
 20
-0.414937
  0
VERTEX
  8
EBENE_1
 62
    39
  6
CONTINUOUS
 10
0.216635
 20
-0.414485
  0
VERTEX
  8
EBENE_1
 62
    39
  6
CONTINUOUS
 10
0.227070
 20
-0.413685
  0
VERTEX
  8
EBENE_1
 62
    39
  6
CONTINUOUS
 10
0.237468
 20
-0.412449
  0
VERTEX
  8
EBENE_1
 62
    39
  6
CONTINUOUS
 10
0.247841
 20
-0.410691
  0
VERTEX
  8
EBENE_1
 62
    39
  6
CONTINUOUS
 10
0.258201
 20
-0.408325
  0
VERTEX
  8
EBENE_1
 62
    39
  6
CONTINUOUS
 10
0.268557
 20
-0.405264
  0
VERTEX
  8
EBENE_1
 62
    39
  6
CONTINUOUS
 10
0.278922
 20
-0.401421
  0
VERTEX
  8
EBENE_1
 62
    39
  6
CONTINUOUS
 10
0.289307
 20
-0.396710
  0
VERTEX
  8
EBENE_1
 62
    39
  6
CONTINUOUS
 10
0.299721
 20
-0.391045
  0
VERTEX
  8
EBENE_1
 62
    39
  6
CONTINUOUS
 10
0.310178
 20
-0.384338
  0
VERTEX
  8
EBENE_1
 62
    39
  6
CONTINUOUS
 10
0.320687
 20
-0.376504
  0
VERTEX
  8
EBENE_1
 62
    39
  6
CONTINUOUS
 10
0.331260
 20
-0.367456
  0
VERTEX
  8
EBENE_1
 62
    39
  6
CONTINUOUS
 10
0.341908
 20
-0.357107
  0
VERTEX
  8
EBENE_1
 62
    39
  6
CONTINUOUS
 10
0.352642
 20
-0.345370
  0
VERTEX
  8
EBENE_1
 62
    39
  6
CONTINUOUS
 10
0.363473
 20
-0.332160
  0
VERTEX
  8
EBENE_1
 62
    39
  6
CONTINUOUS
 10
0.374413
 20
-0.317390
  0
VERTEX
  8
EBENE_1
 62
    39
  6
CONTINUOUS
 10
0.385471
 20
-0.300973
  0
VERTEX
  8
EBENE_1
 62
    39
  6
CONTINUOUS
 10
0.396661
 20
-0.282823
  0
VERTEX
  8
EBENE_1
 62
    39
  6
CONTINUOUS
 10
0.407991
 20
-0.262852
  0
VERTEX
  8
EBENE_1
 62
    39
  6
CONTINUOUS
 10
0.419475
 20
-0.240976
  0
VERTEX
  8
EBENE_1
 62
    39
  6
CONTINUOUS
 10
0.431122
 20
-0.217106
  0
VERTEX
  8
EBENE_1
 62
    39
  6
CONTINUOUS
 10
0.431122
 20
-0.217106
  0
VERTEX
  8
EBENE_1
 62
    39
  6
CONTINUOUS
 10
0.432493
 20
-0.197721
  0
VERTEX
  8
EBENE_1
 62
    39
  6
CONTINUOUS
 10
0.430103
 20
-0.185157
  0
VERTEX
  8
EBENE_1
 62
    39
  6
CONTINUOUS
 10
0.424302
 20
-0.178016
  0
VERTEX
  8
EBENE_1
 62
    39
  6
CONTINUOUS
 10
0.415440
 20
-0.174897
  0
VERTEX
  8
EBENE_1
 62
    39
  6
CONTINUOUS
 10
0.403867
 20
-0.174402
  0
VERTEX
  8
EBENE_1
 62
    39
  6
CONTINUOUS
 10
0.389933
 20
-0.175131
  0
VERTEX
  8
EBENE_1
 62
    39
  6
CONTINUOUS
 10
0.373988
 20
-0.175685
  0
VERTEX
  8
EBENE_1
 62
    39
  6
CONTINUOUS
 10
0.102598
 20
-0.234961
  0
VERTEX
  8
EBENE_1
 62
    39
  6
CONTINUOUS
 10
0.078086
 20
-0.236858
  0
VERTEX
  8
EBENE_1
 62
    39
  6
CONTINUOUS
 10
0.063515
 20
-0.242252
  0
VERTEX
  8
EBENE_1
 62
    39
  6
CONTINUOUS
 10
0.054773
 20
-0.250697
  0
VERTEX
  8
EBENE_1
 62
    39
  6
CONTINUOUS
 10
0.047746
 20
-0.261747
  0
SEQEND
  8
0
  0
POLYLINE
  8
EBENE_1
 62
    39
  6
CONTINUOUS
 66
     1
 40
0.003000
 41
0.003000
  0
VERTEX
  8
EBENE_1
 62
    39
  6
CONTINUOUS
 10
0.165445
 20
-0.237102
  0
VERTEX
  8
EBENE_1
 62
    39
  6
CONTINUOUS
 10
0.161925
 20
-0.238849
  0
VERTEX
  8
EBENE_1
 62
    39
  6
CONTINUOUS
 10
0.160153
 20
-0.242023
  0
VERTEX
  8
EBENE_1
 62
    39
  6
CONTINUOUS
 10
0.160445
 20
-0.245673
  0
SEQEND
  8
0
  0
POLYLINE
  8
EBENE_1
 62
    39
  6
CONTINUOUS
 66
     1
 40
0.003000
 41
0.003000
  0
VERTEX
  8
EBENE_1
 62
    39
  6
CONTINUOUS
 10
0.160445
 20
-0.245673
  0
VERTEX
  8
EBENE_1
 62
    39
  6
CONTINUOUS
 10
0.162031
 20
-0.248689
  0
VERTEX
  8
EBENE_1
 62
    39
  6
CONTINUOUS
 10
0.165047
 20
-0.250278
  0
VERTEX
  8
EBENE_1
 62
    39
  6
CONTINUOUS
 10
0.169016
 20
-0.249961
  0
SEQEND
  8
0
  0
POLYLINE
  8
EBENE_1
 62
    39
  6
CONTINUOUS
 66
     1
 40
0.003000
 41
0.003000
  0
VERTEX
  8
EBENE_1
 62
    39
  6
CONTINUOUS
 10
0.169016
 20
-0.249961
  0
VERTEX
  8
EBENE_1
 62
    39
  6
CONTINUOUS
 10
0.172057
 20
-0.248398
  0
VERTEX
  8
EBENE_1
 62
    39
  6
CONTINUOUS
 10
0.173830
 20
-0.245568
  0
VERTEX
  8
EBENE_1
 62
    39
  6
CONTINUOUS
 10
0.174016
 20
-0.242102
  0
SEQEND
  8
0
  0
POLYLINE
  8
EBENE_1
 62
    39
  6
CONTINUOUS
 66
     1
 40
0.003000
 41
0.003000
  0
VERTEX
  8
EBENE_1
 62
    39
  6
CONTINUOUS
 10
0.174016
 20
-0.242102
  0
VERTEX
  8
EBENE_1
 62
    39
  6
CONTINUOUS
 10
0.171952
 20
-0.239061
  0
VERTEX
  8
EBENE_1
 62
    39
  6
CONTINUOUS
 10
0.168936
 20
-0.237288
  0
VERTEX
  8
EBENE_1
 62
    39
  6
CONTINUOUS
 10
0.165445
 20
-0.237102
  0
SEQEND
  8
0
  0
POLYLINE
  8
EBENE_1
 62
    39
  6
CONTINUOUS
 66
     1
 40
0.003000
 41
0.003000
  0
VERTEX
  8
EBENE_1
 62
    39
  6
CONTINUOUS
 10
0.069744
 20
-0.270669
  0
VERTEX
  8
EBENE_1
 62
    39
  6
CONTINUOUS
 10
0.066702
 20
-0.272232
  0
VERTEX
  8
EBENE_1
 62
    39
  6
CONTINUOUS
 10
0.064930
 20
-0.275062
  0
VERTEX
  8
EBENE_1
 62
    39
  6
CONTINUOUS
 10
0.064744
 20
-0.278528
  0
SEQEND
  8
0
  0
POLYLINE
  8
EBENE_1
 62
    39
  6
CONTINUOUS
 66
     1
 40
0.003000
 41
0.003000
  0
VERTEX
  8
EBENE_1
 62
    39
  6
CONTINUOUS
 10
0.064744
 20
-0.278528
  0
VERTEX
  8
EBENE_1
 62
    39
  6
CONTINUOUS
 10
0.066834
 20
-0.282045
  0
VERTEX
  8
EBENE_1
 62
    39
  6
CONTINUOUS
 10
0.070035
 20
-0.283818
  0
VERTEX
  8
EBENE_1
 62
    39
  6
CONTINUOUS
 10
0.074028
 20
-0.283528
  0
SEQEND
  8
0
  0
POLYLINE
  8
EBENE_1
 62
    39
  6
CONTINUOUS
 66
     1
 40
0.003000
 41
0.003000
  0
VERTEX
  8
EBENE_1
 62
    39
  6
CONTINUOUS
 10
0.074028
 20
-0.283528
  0
VERTEX
  8
EBENE_1
 62
    39
  6
CONTINUOUS
 10
0.077044
 20
-0.281965
  0
VERTEX
  8
EBENE_1
 62
    39
  6
CONTINUOUS
 10
0.078632
 20
-0.279134
  0
VERTEX
  8
EBENE_1
 62
    39
  6
CONTINUOUS
 10
0.078315
 20
-0.275669
  0
SEQEND
  8
0
  0
POLYLINE
  8
EBENE_1
 62
    39
  6
CONTINUOUS
 66
     1
 40
0.003000
 41
0.003000
  0
VERTEX
  8
EBENE_1
 62
    39
  6
CONTINUOUS
 10
0.078315
 20
-0.275669
  0
VERTEX
  8
EBENE_1
 62
    39
  6
CONTINUOUS
 10
0.076726
 20
-0.272153
  0
VERTEX
  8
EBENE_1
 62
    39
  6
CONTINUOUS
 10
0.073711
 20
-0.270380
  0
VERTEX
  8
EBENE_1
 62
    39
  6
CONTINUOUS
 10
0.069744
 20
-0.270669
  0
SEQEND
  8
0
  0
POLYLINE
  8
EBENE_1
 62
    39
  6
CONTINUOUS
 66
     1
 40
0.003000
 41
0.003000
  0
VERTEX
  8
EBENE_1
 62
    39
  6
CONTINUOUS
 10
0.258291
 20
-0.215677
  0
VERTEX
  8
EBENE_1
 62
    39
  6
CONTINUOUS
 10
0.254772
 20
-0.217424
  0
VERTEX
  8
EBENE_1
 62
    39
  6
CONTINUOUS
 10
0.253000
 20
-0.220598
  0
VERTEX
  8
EBENE_1
 62
    39
  6
CONTINUOUS
 10
0.253291
 20
-0.224248
  0
SEQEND
  8
0
  0
POLYLINE
  8
EBENE_1
 62
    39
  6
CONTINUOUS
 66
     1
 40
0.003000
 41
0.003000
  0
VERTEX
  8
EBENE_1
 62
    39
  6
CONTINUOUS
 10
0.253291
 20
-0.224248
  0
VERTEX
  8
EBENE_1
 62
    39
  6
CONTINUOUS
 10
0.254877
 20
-0.227290
  0
VERTEX
  8
EBENE_1
 62
    39
  6
CONTINUOUS
 10
0.257893
 20
-0.229062
  0
VERTEX
  8
EBENE_1
 62
    39
  6
CONTINUOUS
 10
0.261862
 20
-0.229248
  0
SEQEND
  8
0
  0
POLYLINE
  8
EBENE_1
 62
    39
  6
CONTINUOUS
 66
     1
 40
0.003000
 41
0.003000
  0
VERTEX
  8
EBENE_1
 62
    39
  6
CONTINUOUS
 10
0.261862
 20
-0.229248
  0
VERTEX
  8
EBENE_1
 62
    39
  6
CONTINUOUS
 10
0.264904
 20
-0.227184
  0
VERTEX
  8
EBENE_1
 62
    39
  6
CONTINUOUS
 10
0.266675
 20
-0.224169
  0
VERTEX
  8
EBENE_1
 62
    39
  6
CONTINUOUS
 10
0.266858
 20
-0.220677
  0
SEQEND
  8
0
  0
POLYLINE
  8
EBENE_1
 62
    39
  6
CONTINUOUS
 66
     1
 40
0.003000
 41
0.003000
  0
VERTEX
  8
EBENE_1
 62
    39
  6
CONTINUOUS
 10
0.266858
 20
-0.220677
  0
VERTEX
  8
EBENE_1
 62
    39
  6
CONTINUOUS
 10
0.264797
 20
-0.217635
  0
VERTEX
  8
EBENE_1
 62
    39
  6
CONTINUOUS
 10
0.261783
 20
-0.215863
  0
VERTEX
  8
EBENE_1
 62
    39
  6
CONTINUOUS
 10
0.258291
 20
-0.215677
  0
SEQEND
  8
0
  0
POLYLINE
  8
EBENE_1
 62
    39
  6
CONTINUOUS
 66
     1
 40
0.003000
 41
0.003000
 70
     1
  0
VERTEX
  8
EBENE_1
 62
    39
  6
CONTINUOUS
 10
-0.298772
 20
-0.064984
  0
VERTEX
  8
EBENE_1
 62
    39
  6
CONTINUOUS
 10
-0.429469
 20
-0.418508
  0
VERTEX
  8
EBENE_1
 62
    39
  6
CONTINUOUS
 10
0.016181
 20
-0.422079
  0
VERTEX
  8
EBENE_1
 62
    39
  6
CONTINUOUS
 10
0.042129
 20
-0.416624
  0
VERTEX
  8
EBENE_1
 62
    39
  6
CONTINUOUS
 10
0.062417
 20
-0.407908
  0
VERTEX
  8
EBENE_1
 62
    39
  6
CONTINUOUS
 10
0.077946
 20
-0.397306
  0
VERTEX
  8
EBENE_1
 62
    39
  6
CONTINUOUS
 10
0.089614
 20
-0.386191
  0
VERTEX
  8
EBENE_1
 62
    39
  6
CONTINUOUS
 10
0.098322
 20
-0.375939
  0
VERTEX
  8
EBENE_1
 62
    39
  6
CONTINUOUS
 10
0.104968
 20
-0.367922
  0
VERTEX
  8
EBENE_1
 62
    39
  6
CONTINUOUS
 10
0.110453
 20
-0.363516
  0
VERTEX
  8
EBENE_1
 62
    39
  6
CONTINUOUS
 10
0.109759
 20
-0.361967
  0
VERTEX
  8
EBENE_1
 62
    39
  6
CONTINUOUS
 10
0.107590
 20
-0.357927
  0
VERTEX
  8
EBENE_1
 62
    39
  6
CONTINUOUS
 10
0.104052
 20
-0.351590
  0
VERTEX
  8
EBENE_1
 62
    39
  6
CONTINUOUS
 10
0.099251
 20
-0.343152
  0
VERTEX
  8
EBENE_1
 62
    39
  6
CONTINUOUS
 10
0.093293
 20
-0.332806
  0
VERTEX
  8
EBENE_1
 62
    39
  6
CONTINUOUS
 10
0.086284
 20
-0.320749
  0
VERTEX
  8
EBENE_1
 62
    39
  6
CONTINUOUS
 10
0.078330
 20
-0.307174
  0
VERTEX
  8
EBENE_1
 62
    39
  6
CONTINUOUS
 10
0.069536
 20
-0.292277
  0
VERTEX
  8
EBENE_1
 62
    39
  6
CONTINUOUS
 10
0.060010
 20
-0.276253
  0
VERTEX
  8
EBENE_1
 62
    39
  6
CONTINUOUS
 10
0.049857
 20
-0.259296
  0
VERTEX
  8
EBENE_1
 62
    39
  6
CONTINUOUS
 10
0.039183
 20
-0.241601
  0
VERTEX
  8
EBENE_1
 62
    39
  6
CONTINUOUS
 10
0.028094
 20
-0.223363
  0
VERTEX
  8
EBENE_1
 62
    39
  6
CONTINUOUS
 10
0.016696
 20
-0.204777
  0
VERTEX
  8
EBENE_1
 62
    39
  6
CONTINUOUS
 10
0.005095
 20
-0.186037
  0
VERTEX
  8
EBENE_1
 62
    39
  6
CONTINUOUS
 10
-0.006603
 20
-0.167339
  0
VERTEX
  8
EBENE_1
 62
    39
  6
CONTINUOUS
 10
-0.018292
 20
-0.148878
  0
VERTEX
  8
EBENE_1
 62
    39
  6
CONTINUOUS
 10
-0.029865
 20
-0.130848
  0
VERTEX
  8
EBENE_1
 62
    39
  6
CONTINUOUS
 10
-0.041217
 20
-0.113444
  0
VERTEX
  8
EBENE_1
 62
    39
  6
CONTINUOUS
 10
-0.052242
 20
-0.096861
  0
VERTEX
  8
EBENE_1
 62
    39
  6
CONTINUOUS
 10
-0.062834
 20
-0.081294
  0
VERTEX
  8
EBENE_1
 62
    39
  6
CONTINUOUS
 10
-0.072887
 20
-0.066937
  0
VERTEX
  8
EBENE_1
 62
    39
  6
CONTINUOUS
 10
-0.082294
 20
-0.053986
  0
VERTEX
  8
EBENE_1
 62
    39
  6
CONTINUOUS
 10
-0.090950
 20
-0.042636
  0
VERTEX
  8
EBENE_1
 62
    39
  6
CONTINUOUS
 10
-0.098749
 20
-0.033080
  0
VERTEX
  8
EBENE_1
 62
    39
  6
CONTINUOUS
 10
-0.105584
 20
-0.025515
  0
VERTEX
  8
EBENE_1
 62
    39
  6
CONTINUOUS
 10
-0.111350
 20
-0.020135
  0
VERTEX
  8
EBENE_1
 62
    39
  6
CONTINUOUS
 10
-0.115941
 20
-0.017134
  0
VERTEX
  8
EBENE_1
 62
    39
  6
CONTINUOUS
 10
-0.118083
 20
-0.018563
  0
VERTEX
  8
EBENE_1
 62
    39
  6
CONTINUOUS
 10
-0.133710
 20
-0.013404
  0
VERTEX
  8
EBENE_1
 62
    39
  6
CONTINUOUS
 10
-0.149043
 20
-0.009030
  0
VERTEX
  8
EBENE_1
 62
    39
  6
CONTINUOUS
 10
-0.164052
 20
-0.005571
  0
VERTEX
  8
EBENE_1
 62
    39
  6
CONTINUOUS
 10
-0.178704
 20
-0.003156
  0
VERTEX
  8
EBENE_1
 62
    39
  6
CONTINUOUS
 10
-0.192970
 20
-0.001916
  0
VERTEX
  8
EBENE_1
 62
    39
  6
CONTINUOUS
 10
-0.206816
 20
-0.001980
  0
VERTEX
  8
EBENE_1
 62
    39
  6
CONTINUOUS
 10
-0.220213
 20
-0.003478
  0
VERTEX
  8
EBENE_1
 62
    39
  6
CONTINUOUS
 10
-0.233129
 20
-0.006538
  0
VERTEX
  8
EBENE_1
 62
    39
  6
CONTINUOUS
 10
-0.245532
 20
-0.011292
  0
VERTEX
  8
EBENE_1
 62
    39
  6
CONTINUOUS
 10
-0.257392
 20
-0.017867
  0
VERTEX
  8
EBENE_1
 62
    39
  6
CONTINUOUS
 10
-0.268677
 20
-0.026395
  0
VERTEX
  8
EBENE_1
 62
    39
  6
CONTINUOUS
 10
-0.279356
 20
-0.037003
  0
VERTEX
  8
EBENE_1
 62
    39
  6
CONTINUOUS
 10
-0.289398
 20
-0.049824
  0
VERTEX
  8
EBENE_1
 62
    39
  6
CONTINUOUS
 10
-0.298772
 20
-0.064984
  0
SEQEND
  8
0
  0
POLYLINE
  8
EBENE_1
 62
    39
  6
CONTINUOUS
 66
     1
 40
0.003000
 41
0.003000
 70
     1
  0
VERTEX
  8
EBENE_1
 62
    39
  6
CONTINUOUS
 10
-0.299488
 20
-0.060701
  0
VERTEX
  8
EBENE_1
 62
    39
  6
CONTINUOUS
 10
-0.428039
 20
-0.411366
  0
VERTEX
  8
EBENE_1
 62
    39
  6
CONTINUOUS
 10
0.016894
 20
-0.417079
  0
VERTEX
  8
EBENE_1
 62
    39
  6
CONTINUOUS
 10
0.042155
 20
-0.411743
  0
VERTEX
  8
EBENE_1
 62
    39
  6
CONTINUOUS
 10
0.061657
 20
-0.403333
  0
VERTEX
  8
EBENE_1
 62
    39
  6
CONTINUOUS
 10
0.076374
 20
-0.393149
  0
VERTEX
  8
EBENE_1
 62
    39
  6
CONTINUOUS
 10
0.087280
 20
-0.382490
  0
VERTEX
  8
EBENE_1
 62
    39
  6
CONTINUOUS
 10
0.095351
 20
-0.372656
  0
VERTEX
  8
EBENE_1
 62
    39
  6
CONTINUOUS
 10
0.101560
 20
-0.364945
  0
VERTEX
  8
EBENE_1
 62
    39
  6
CONTINUOUS
 10
0.106882
 20
-0.360657
  0
VERTEX
  8
EBENE_1
 62
    39
  6
CONTINUOUS
 10
0.106147
 20
-0.359126
  0
VERTEX
  8
EBENE_1
 62
    39
  6
CONTINUOUS
 10
0.104005
 20
-0.355119
  0
VERTEX
  8
EBENE_1
 62
    39
  6
CONTINUOUS
 10
0.100556
 20
-0.348826
  0
VERTEX
  8
EBENE_1
 62
    39
  6
CONTINUOUS
 10
0.095894
 20
-0.340440
  0
VERTEX
  8
EBENE_1
 62
    39
  6
CONTINUOUS
 10
0.090119
 20
-0.330151
  0
VERTEX
  8
EBENE_1
 62
    39
  6
CONTINUOUS
 10
0.083327
 20
-0.318150
  0
VERTEX
  8
EBENE_1
 62
    39
  6
CONTINUOUS
 10
0.075614
 20
-0.304628
  0
VERTEX
  8
EBENE_1
 62
    39
  6
CONTINUOUS
 10
0.067080
 20
-0.289777
  0
VERTEX
  8
EBENE_1
 62
    39
  6
CONTINUOUS
 10
0.057820
 20
-0.273787
  0
VERTEX
  8
EBENE_1
 62
    39
  6
CONTINUOUS
 10
0.047931
 20
-0.256850
  0
VERTEX
  8
EBENE_1
 62
    39
  6
CONTINUOUS
 10
0.037512
 20
-0.239157
  0
VERTEX
  8
EBENE_1
 62
    39
  6
CONTINUOUS
 10
0.026659
 20
-0.220898
  0
VERTEX
  8
EBENE_1
 62
    39
  6
CONTINUOUS
 10
0.015470
 20
-0.202266
  0
VERTEX
  8
EBENE_1
 62
    39
  6
CONTINUOUS
 10
0.004041
 20
-0.183451
  0
VERTEX
  8
EBENE_1
 62
    39
  6
CONTINUOUS
 10
-0.007530
 20
-0.164644
  0
VERTEX
  8
EBENE_1
 62
    39
  6
CONTINUOUS
 10
-0.019146
 20
-0.146036
  0
VERTEX
  8
EBENE_1
 62
    39
  6
CONTINUOUS
 10
-0.030709
 20
-0.127819
  0
VERTEX
  8
EBENE_1
 62
    39
  6
CONTINUOUS
 10
-0.042123
 20
-0.110183
  0
VERTEX
  8
EBENE_1
 62
    39
  6
CONTINUOUS
 10
-0.053291
 20
-0.093320
  0
VERTEX
  8
EBENE_1
 62
    39
  6
CONTINUOUS
 10
-0.064114
 20
-0.077420
  0
VERTEX
  8
EBENE_1
 62
    39
  6
CONTINUOUS
 10
-0.074496
 20
-0.062675
  0
VERTEX
  8
EBENE_1
 62
    39
  6
CONTINUOUS
 10
-0.084340
 20
-0.049277
  0
VERTEX
  8
EBENE_1
 62
    39
  6
CONTINUOUS
 10
-0.093548
 20
-0.037415
  0
VERTEX
  8
EBENE_1
 62
    39
  6
CONTINUOUS
 10
-0.102024
 20
-0.027281
  0
VERTEX
  8
EBENE_1
 62
    39
  6
CONTINUOUS
 10
-0.109669
 20
-0.019067
  0
VERTEX
  8
EBENE_1
 62
    39
  6
CONTINUOUS
 10
-0.116387
 20
-0.012963
  0
VERTEX
  8
EBENE_1
 62
    39
  6
CONTINUOUS
 10
-0.122081
 20
-0.009160
  0
VERTEX
  8
EBENE_1
 62
    39
  6
CONTINUOUS
 10
-0.126654
 20
-0.007850
  0
VERTEX
  8
EBENE_1
 62
    39
  6
CONTINUOUS
 10
-0.124512
 20
-0.009280
  0
VERTEX
  8
EBENE_1
 62
    39
  6
CONTINUOUS
 10
-0.139812
 20
-0.004183
  0
VERTEX
  8
EBENE_1
 62
    39
  6
CONTINUOUS
 10
-0.154781
 20
0.000015
  0
VERTEX
  8
EBENE_1
 62
    39
  6
CONTINUOUS
 10
-0.169394
 20
0.003200
  0
VERTEX
  8
EBENE_1
 62
    39
  6
CONTINUOUS
 10
-0.183625
 20
0.005261
  0
VERTEX
  8
EBENE_1
 62
    39
  6
CONTINUOUS
 10
-0.197451
 20
0.006086
  0
VERTEX
  8
EBENE_1
 62
    39
  6
CONTINUOUS
 10
-0.210846
 20
0.005561
  0
VERTEX
  8
EBENE_1
 62
    39
  6
CONTINUOUS
 10
-0.223784
 20
0.003574
  0
VERTEX
  8
EBENE_1
 62
    39
  6
CONTINUOUS
 10
-0.236242
 20
0.000014
  0
VERTEX
  8
EBENE_1
 62
    39
  6
CONTINUOUS
 10
-0.248194
 20
-0.005233
  0
VERTEX
  8
EBENE_1
 62
    39
  6
CONTINUOUS
 10
-0.259615
 20
-0.012279
  0
VERTEX
  8
EBENE_1
 62
    39
  6
CONTINUOUS
 10
-0.270479
 20
-0.021236
  0
VERTEX
  8
EBENE_1
 62
    39
  6
CONTINUOUS
 10
-0.280763
 20
-0.032217
  0
VERTEX
  8
EBENE_1
 62
    39
  6
CONTINUOUS
 10
-0.290441
 20
-0.045335
  0
VERTEX
  8
EBENE_1
 62
    39
  6
CONTINUOUS
 10
-0.299488
 20
-0.060701
  0
SEQEND
  8
0
  0
POLYLINE
  8
EBENE_1
 62
    39
  6
CONTINUOUS
 66
     1
 40
0.003000
 41
0.003000
 70
     1
  0
VERTEX
  8
EBENE_1
 62
    39
  6
CONTINUOUS
 10
-0.254492
 20
-0.028563
  0
VERTEX
  8
EBENE_1
 62
    39
  6
CONTINUOUS
 10
-0.257535
 20
-0.030149
  0
VERTEX
  8
EBENE_1
 62
    39
  6
CONTINUOUS
 10
-0.259308
 20
-0.033163
  0
VERTEX
  8
EBENE_1
 62
    39
  6
CONTINUOUS
 10
-0.259492
 20
-0.037130
  0
VERTEX
  8
EBENE_1
 62
    39
  6
CONTINUOUS
 10
-0.257747
 20
-0.040146
  0
VERTEX
  8
EBENE_1
 62
    39
  6
CONTINUOUS
 10
-0.254572
 20
-0.041734
  0
VERTEX
  8
EBENE_1
 62
    39
  6
CONTINUOUS
 10
-0.250921
 20
-0.041417
  0
VERTEX
  8
EBENE_1
 62
    39
  6
CONTINUOUS
 10
-0.247906
 20
-0.039855
  0
VERTEX
  8
EBENE_1
 62
    39
  6
CONTINUOUS
 10
-0.246320
 20
-0.037024
  0
VERTEX
  8
EBENE_1
 62
    39
  6
CONTINUOUS
 10
-0.246638
 20
-0.033559
  0
VERTEX
  8
EBENE_1
 62
    39
  6
CONTINUOUS
 10
-0.248197
 20
-0.030359
  0
VERTEX
  8
EBENE_1
 62
    39
  6
CONTINUOUS
 10
-0.251027
 20
-0.028430
  0
SEQEND
  8
0
  0
POLYLINE
  8
EBENE_1
 62
    39
  6
CONTINUOUS
 66
     1
 40
0.003000
 41
0.003000
 70
     1
  0
VERTEX
  8
EBENE_1
 62
    39
  6
CONTINUOUS
 10
-0.290205
 20
-0.088555
  0
VERTEX
  8
EBENE_1
 62
    39
  6
CONTINUOUS
 10
-0.293246
 20
-0.090616
  0
VERTEX
  8
EBENE_1
 62
    39
  6
CONTINUOUS
 10
-0.295017
 20
-0.093631
  0
VERTEX
  8
EBENE_1
 62
    39
  6
CONTINUOUS
 10
-0.295201
 20
-0.097122
  0
VERTEX
  8
EBENE_1
 62
    39
  6
CONTINUOUS
 10
-0.293457
 20
-0.100165
  0
VERTEX
  8
EBENE_1
 62
    39
  6
CONTINUOUS
 10
-0.290284
 20
-0.101938
  0
VERTEX
  8
EBENE_1
 62
    39
  6
CONTINUOUS
 10
-0.286634
 20
-0.102122
  0
VERTEX
  8
EBENE_1
 62
    39
  6
CONTINUOUS
 10
-0.283618
 20
-0.100377
  0
VERTEX
  8
EBENE_1
 62
    39
  6
CONTINUOUS
 10
-0.282029
 20
-0.097202
  0
VERTEX
  8
EBENE_1
 62
    39
  6
CONTINUOUS
 10
-0.282346
 20
-0.093551
  0
VERTEX
  8
EBENE_1
 62
    39
  6
CONTINUOUS
 10
-0.283909
 20
-0.090510
  0
VERTEX
  8
EBENE_1
 62
    39
  6
CONTINUOUS
 10
-0.286740
 20
-0.088738
  0
SEQEND
  8
0
  0
POLYLINE
  8
EBENE_1
 62
    39
  6
CONTINUOUS
 66
     1
 40
0.003000
 41
0.003000
 70
     1
  0
VERTEX
  8
EBENE_1
 62
    39
  6
CONTINUOUS
 10
-0.109512
 20
-0.049988
  0
VERTEX
  8
EBENE_1
 62
    39
  6
CONTINUOUS
 10
-0.112554
 20
-0.051548
  0
VERTEX
  8
EBENE_1
 62
    39
  6
CONTINUOUS
 10
-0.114328
 20
-0.054378
  0
VERTEX
  8
EBENE_1
 62
    39
  6
CONTINUOUS
 10
-0.114512
 20
-0.057843
  0
VERTEX
  8
EBENE_1
 62
    39
  6
CONTINUOUS
 10
-0.112448
 20
-0.060884
  0
VERTEX
  8
EBENE_1
 62
    39
  6
CONTINUOUS
 10
-0.109432
 20
-0.062656
  0
VERTEX
  8
EBENE_1
 62
    39
  6
CONTINUOUS
 10
-0.105941
 20
-0.062843
  0
VERTEX
  8
EBENE_1
 62
    39
  6
CONTINUOUS
 10
-0.102899
 20
-0.061097
  0
VERTEX
  8
EBENE_1
 62
    39
  6
CONTINUOUS
 10
-0.101128
 20
-0.057922
  0
VERTEX
  8
EBENE_1
 62
    39
  6
CONTINUOUS
 10
-0.100945
 20
-0.054272
  0
VERTEX
  8
EBENE_1
 62
    39
  6
CONTINUOUS
 10
-0.103006
 20
-0.051256
  0
VERTEX
  8
EBENE_1
 62
    39
  6
CONTINUOUS
 10
-0.106020
 20
-0.049670
  0
SEQEND
  8
0
  0
POLYLINE
  8
EBENE_1
 62
    39
  6
CONTINUOUS
 66
     1
 40
0.003000
 41
0.003000
  0
VERTEX
  8
EBENE_1
 62
    39
  6
CONTINUOUS
 10
-0.533740
 20
-0.147114
  0
VERTEX
  8
EBENE_1
 62
    39
  6
CONTINUOUS
 10
-0.613016
 20
-0.418508
  0
VERTEX
  8
EBENE_1
 62
    39
  6
CONTINUOUS
 10
-0.416614
 20
-0.417079
  0
SEQEND
  8
0
  0
POLYLINE
  8
EBENE_1
 62
    39
  6
CONTINUOUS
 66
     1
 40
0.003000
 41
0.003000
  0
VERTEX
  8
EBENE_1
 62
    39
  6
CONTINUOUS
 10
-0.416614
 20
-0.417079
  0
VERTEX
  8
EBENE_1
 62
    39
  6
CONTINUOUS
 10
-0.408809
 20
-0.416383
  0
VERTEX
  8
EBENE_1
 62
    39
  6
CONTINUOUS
 10
-0.400430
 20
-0.414767
  0
VERTEX
  8
EBENE_1
 62
    39
  6
CONTINUOUS
 10
-0.391539
 20
-0.412253
  0
VERTEX
  8
EBENE_1
 62
    39
  6
CONTINUOUS
 10
-0.382196
 20
-0.408861
  0
VERTEX
  8
EBENE_1
 62
    39
  6
CONTINUOUS
 10
-0.372464
 20
-0.404611
  0
VERTEX
  8
EBENE_1
 62
    39
  6
CONTINUOUS
 10
-0.362401
 20
-0.399525
  0
VERTEX
  8
EBENE_1
 62
    39
  6
CONTINUOUS
 10
-0.352070
 20
-0.393622
  0
VERTEX
  8
EBENE_1
 62
    39
  6
CONTINUOUS
 10
-0.341532
 20
-0.386925
  0
VERTEX
  8
EBENE_1
 62
    39
  6
CONTINUOUS
 10
-0.330846
 20
-0.379453
  0
VERTEX
  8
EBENE_1
 62
    39
  6
CONTINUOUS
 10
-0.320075
 20
-0.371227
  0
VERTEX
  8
EBENE_1
 62
    39
  6
CONTINUOUS
 10
-0.309278
 20
-0.362268
  0
VERTEX
  8
EBENE_1
 62
    39
  6
CONTINUOUS
 10
-0.298518
 20
-0.352596
  0
VERTEX
  8
EBENE_1
 62
    39
  6
CONTINUOUS
 10
-0.287854
 20
-0.342232
  0
VERTEX
  8
EBENE_1
 62
    39
  6
CONTINUOUS
 10
-0.277348
 20
-0.331198
  0
VERTEX
  8
EBENE_1
 62
    39
  6
CONTINUOUS
 10
-0.267061
 20
-0.319513
  0
VERTEX
  8
EBENE_1
 62
    39
  6
CONTINUOUS
 10
-0.257053
 20
-0.307198
  0
VERTEX
  8
EBENE_1
 62
    39
  6
CONTINUOUS
 10
-0.247386
 20
-0.294274
  0
VERTEX
  8
EBENE_1
 62
    39
  6
CONTINUOUS
 10
-0.238120
 20
-0.280762
  0
VERTEX
  8
EBENE_1
 62
    39
  6
CONTINUOUS
 10
-0.229316
 20
-0.266682
  0
VERTEX
  8
EBENE_1
 62
    39
  6
CONTINUOUS
 10
-0.221036
 20
-0.252056
  0
VERTEX
  8
EBENE_1
 62
    39
  6
CONTINUOUS
 10
-0.213339
 20
-0.236903
  0
VERTEX
  8
EBENE_1
 62
    39
  6
CONTINUOUS
 10
-0.206287
 20
-0.221244
  0
VERTEX
  8
EBENE_1
 62
    39
  6
CONTINUOUS
 10
-0.199942
 20
-0.205101
  0
VERTEX
  8
EBENE_1
 62
    39
  6
CONTINUOUS
 10
-0.194363
 20
-0.188493
  0
VERTEX
  8
EBENE_1
 62
    39
  6
CONTINUOUS
 10
-0.189612
 20
-0.171442
  0
VERTEX
  8
EBENE_1
 62
    39
  6
CONTINUOUS
 10
-0.185749
 20
-0.153968
  0
VERTEX
  8
EBENE_1
 62
    39
  6
CONTINUOUS
 10
-0.182836
 20
-0.136092
  0
VERTEX
  8
EBENE_1
 62
    39
  6
CONTINUOUS
 10
-0.180933
 20
-0.117835
  0
SEQEND
  8
0
  0
POLYLINE
  8
EBENE_1
 62
    39
  6
CONTINUOUS
 66
     1
 40
0.003000
 41
0.003000
  0
VERTEX
  8
EBENE_1
 62
    39
  6
CONTINUOUS
 10
-0.180933
 20
-0.117835
  0
VERTEX
  8
EBENE_1
 62
    39
  6
CONTINUOUS
 10
-0.184025
 20
-0.098025
  0
VERTEX
  8
EBENE_1
 62
    39
  6
CONTINUOUS
 10
-0.190273
 20
-0.081344
  0
VERTEX
  8
EBENE_1
 62
    39
  6
CONTINUOUS
 10
-0.199149
 20
-0.067644
  0
VERTEX
  8
EBENE_1
 62
    39
  6
CONTINUOUS
 10
-0.210125
 20
-0.056772
  0
VERTEX
  8
EBENE_1
 62
    39
  6
CONTINUOUS
 10
-0.222675
 20
-0.048578
  0
VERTEX
  8
EBENE_1
 62
    39
  6
CONTINUOUS
 10
-0.236271
 20
-0.042911
  0
VERTEX
  8
EBENE_1
 62
    39
  6
CONTINUOUS
 10
-0.250386
 20
-0.039622
  0
VERTEX
  8
EBENE_1
 62
    39
  6
CONTINUOUS
 10
-0.264492
 20
-0.038559
  0
SEQEND
  8
0
  0
POLYLINE
  8
EBENE_1
 62
    39
  6
CONTINUOUS
 66
     1
 40
0.003000
 41
0.003000
  0
VERTEX
  8
EBENE_1
 62
    39
  6
CONTINUOUS
 10
-0.264492
 20
-0.038559
  0
VERTEX
  8
EBENE_1
 62
    39
  6
CONTINUOUS
 10
-0.456610
 20
-0.087839
  0
SEQEND
  8
0
  0
POLYLINE
  8
EBENE_1
 62
    39
  6
CONTINUOUS
 66
     1
 40
0.003000
 41
0.003000
  0
VERTEX
  8
EBENE_1
 62
    39
  6
CONTINUOUS
 10
-0.456610
 20
-0.087839
  0
VERTEX
  8
EBENE_1
 62
    39
  6
CONTINUOUS
 10
-0.478145
 20
-0.090643
  0
VERTEX
  8
EBENE_1
 62
    39
  6
CONTINUOUS
 10
-0.494383
 20
-0.098128
  0
VERTEX
  8
EBENE_1
 62
    39
  6
CONTINUOUS
 10
-0.506692
 20
-0.108907
  0
VERTEX
  8
EBENE_1
 62
    39
  6
CONTINUOUS
 10
-0.516443
 20
-0.121591
  0
VERTEX
  8
EBENE_1
 62
    39
  6
CONTINUOUS
 10
-0.525002
 20
-0.134789
  0
VERTEX
  8
EBENE_1
 62
    39
  6
CONTINUOUS
 10
-0.533740
 20
-0.147114
  0
SEQEND
  8
0
  0
POLYLINE
  8
EBENE_1
 62
    39
  6
CONTINUOUS
 66
     1
 40
0.003000
 41
0.003000
 70
     1
  0
VERTEX
  8
EBENE_1
 62
    39
  6
CONTINUOUS
 10
-0.529457
 20
-0.139260
  0
VERTEX
  8
EBENE_1
 62
    39
  6
CONTINUOUS
 10
-0.611587
 20
-0.414224
  0
VERTEX
  8
EBENE_1
 62
    39
  6
CONTINUOUS
 10
-0.418043
 20
-0.412795
  0
VERTEX
  8
EBENE_1
 62
    39
  6
CONTINUOUS
 10
-0.410098
 20
-0.412064
  0
VERTEX
  8
EBENE_1
 62
    39
  6
CONTINUOUS
 10
-0.401545
 20
-0.410363
  0
VERTEX
  8
EBENE_1
 62
    39
  6
CONTINUOUS
 10
-0.392450
 20
-0.407713
  0
VERTEX
  8
EBENE_1
 62
    39
  6
CONTINUOUS
 10
-0.382881
 20
-0.404138
  0
VERTEX
  8
EBENE_1
 62
    39
  6
CONTINUOUS
 10
-0.372905
 20
-0.399659
  0
VERTEX
  8
EBENE_1
 62
    39
  6
CONTINUOUS
 10
-0.362589
 20
-0.394301
  0
VERTEX
  8
EBENE_1
 62
    39
  6
CONTINUOUS
 10
-0.352001
 20
-0.388085
  0
VERTEX
  8
EBENE_1
 62
    39
  6
CONTINUOUS
 10
-0.341208
 20
-0.381034
  0
VERTEX
  8
EBENE_1
 62
    39
  6
CONTINUOUS
 10
-0.330277
 20
-0.373171
  0
VERTEX
  8
EBENE_1
 62
    39
  6
CONTINUOUS
 10
-0.319276
 20
-0.364518
  0
VERTEX
  8
EBENE_1
 62
    39
  6
CONTINUOUS
 10
-0.308271
 20
-0.355099
  0
VERTEX
  8
EBENE_1
 62
    39
  6
CONTINUOUS
 10
-0.297330
 20
-0.344935
  0
VERTEX
  8
EBENE_1
 62
    39
  6
CONTINUOUS
 10
-0.286521
 20
-0.334049
  0
VERTEX
  8
EBENE_1
 62
    39
  6
CONTINUOUS
 10
-0.275910
 20
-0.322464
  0
VERTEX
  8
EBENE_1
 62
    39
  6
CONTINUOUS
 10
-0.265565
 20
-0.310203
  0
VERTEX
  8
EBENE_1
 62
    39
  6
CONTINUOUS
 10
-0.255553
 20
-0.297288
  0
VERTEX
  8
EBENE_1
 62
    39
  6
CONTINUOUS
 10
-0.245942
 20
-0.283742
  0
VERTEX
  8
EBENE_1
 62
    39
  6
CONTINUOUS
 10
-0.236798
 20
-0.269587
  0
VERTEX
  8
EBENE_1
 62
    39
  6
CONTINUOUS
 10
-0.228189
 20
-0.254847
  0
VERTEX
  8
EBENE_1
 62
    39
  6
CONTINUOUS
 10
-0.220182
 20
-0.239543
  0
VERTEX
  8
EBENE_1
 62
    39
  6
CONTINUOUS
 10
-0.212845
 20
-0.223699
  0
VERTEX
  8
EBENE_1
 62
    39
  6
CONTINUOUS
 10
-0.206244
 20
-0.207337
  0
VERTEX
  8
EBENE_1
 62
    39
  6
CONTINUOUS
 10
-0.200447
 20
-0.190480
  0
VERTEX
  8
EBENE_1
 62
    39
  6
CONTINUOUS
 10
-0.195522
 20
-0.173150
  0
VERTEX
  8
EBENE_1
 62
    39
  6
CONTINUOUS
 10
-0.191535
 20
-0.155370
  0
VERTEX
  8
EBENE_1
 62
    39
  6
CONTINUOUS
 10
-0.188554
 20
-0.137163
  0
VERTEX
  8
EBENE_1
 62
    39
  6
CONTINUOUS
 10
-0.186646
 20
-0.118551
  0
VERTEX
  8
EBENE_1
 62
    39
  6
CONTINUOUS
 10
-0.186646
 20
-0.118551
  0
VERTEX
  8
EBENE_1
 62
    39
  6
CONTINUOUS
 10
-0.189696
 20
-0.096395
  0
VERTEX
  8
EBENE_1
 62
    39
  6
CONTINUOUS
 10
-0.195569
 20
-0.078161
  0
VERTEX
  8
EBENE_1
 62
    39
  6
CONTINUOUS
 10
-0.203942
 20
-0.063662
  0
VERTEX
  8
EBENE_1
 62
    39
  6
CONTINUOUS
 10
-0.214488
 20
-0.052712
  0
VERTEX
  8
EBENE_1
 62
    39
  6
CONTINUOUS
 10
-0.226883
 20
-0.045122
  0
VERTEX
  8
EBENE_1
 62
    39
  6
CONTINUOUS
 10
-0.240802
 20
-0.040706
  0
VERTEX
  8
EBENE_1
 62
    39
  6
CONTINUOUS
 10
-0.255921
 20
-0.039276
  0
VERTEX
  8
EBENE_1
 62
    39
  6
CONTINUOUS
 10
-0.446610
 20
-0.084268
  0
VERTEX
  8
EBENE_1
 62
    39
  6
CONTINUOUS
 10
-0.470792
 20
-0.089619
  0
VERTEX
  8
EBENE_1
 62
    39
  6
CONTINUOUS
 10
-0.488077
 20
-0.096275
  0
VERTEX
  8
EBENE_1
 62
    39
  6
CONTINUOUS
 10
-0.499939
 20
-0.103802
  0
VERTEX
  8
EBENE_1
 62
    39
  6
CONTINUOUS
 10
-0.507851
 20
-0.111764
  0
VERTEX
  8
EBENE_1
 62
    39
  6
CONTINUOUS
 10
-0.513286
 20
-0.119726
  0
VERTEX
  8
EBENE_1
 62
    39
  6
CONTINUOUS
 10
-0.517716
 20
-0.127252
  0
VERTEX
  8
EBENE_1
 62
    39
  6
CONTINUOUS
 10
-0.522615
 20
-0.133909
  0
SEQEND
  8
0
  0
POLYLINE
  8
EBENE_1
 62
    39
  6
CONTINUOUS
 66
     1
 40
0.003000
 41
0.003000
  0
VERTEX
  8
EBENE_1
 62
    39
  6
CONTINUOUS
 10
-0.437327
 20
-0.097122
  0
VERTEX
  8
EBENE_1
 62
    39
  6
CONTINUOUS
 10
-0.440342
 20
-0.098684
  0
VERTEX
  8
EBENE_1
 62
    39
  6
CONTINUOUS
 10
-0.441928
 20
-0.101515
  0
VERTEX
  8
EBENE_1
 62
    39
  6
CONTINUOUS
 10
-0.441610
 20
-0.104980
  0
SEQEND
  8
0
  0
POLYLINE
  8
EBENE_1
 62
    39
  6
CONTINUOUS
 66
     1
 40
0.003000
 41
0.003000
  0
VERTEX
  8
EBENE_1
 62
    39
  6
CONTINUOUS
 10
-0.441610
 20
-0.104980
  0
VERTEX
  8
EBENE_1
 62
    39
  6
CONTINUOUS
 10
-0.440051
 20
-0.108022
  0
VERTEX
  8
EBENE_1
 62
    39
  6
CONTINUOUS
 10
-0.437221
 20
-0.109794
  0
VERTEX
  8
EBENE_1
 62
    39
  6
CONTINUOUS
 10
-0.433756
 20
-0.109980
  0
SEQEND
  8
0
  0
POLYLINE
  8
EBENE_1
 62
    39
  6
CONTINUOUS
 66
     1
 40
0.003000
 41
0.003000
  0
VERTEX
  8
EBENE_1
 62
    39
  6
CONTINUOUS
 10
-0.433756
 20
-0.109980
  0
VERTEX
  8
EBENE_1
 62
    39
  6
CONTINUOUS
 10
-0.430740
 20
-0.107917
  0
VERTEX
  8
EBENE_1
 62
    39
  6
CONTINUOUS
 10
-0.429151
 20
-0.104901
  0
VERTEX
  8
EBENE_1
 62
    39
  6
CONTINUOUS
 10
-0.429469
 20
-0.101409
  0
SEQEND
  8
0
  0
POLYLINE
  8
EBENE_1
 62
    39
  6
CONTINUOUS
 66
     1
 40
0.003000
 41
0.003000
  0
VERTEX
  8
EBENE_1
 62
    39
  6
CONTINUOUS
 10
-0.429469
 20
-0.101409
  0
VERTEX
  8
EBENE_1
 62
    39
  6
CONTINUOUS
 10
-0.431031
 20
-0.098869
  0
VERTEX
  8
EBENE_1
 62
    39
  6
CONTINUOUS
 10
-0.433862
 20
-0.097282
  0
VERTEX
  8
EBENE_1
 62
    39
  6
CONTINUOUS
 10
-0.437327
 20
-0.097122
  0
SEQEND
  8
0
  0
POLYLINE
  8
EBENE_1
 62
    39
  6
CONTINUOUS
 66
     1
 40
0.003000
 41
0.003000
  0
VERTEX
  8
EBENE_1
 62
    39
  6
CONTINUOUS
 10
-0.350197
 20
-0.072126
  0
VERTEX
  8
EBENE_1
 62
    39
  6
CONTINUOUS
 10
-0.353238
 20
-0.073688
  0
VERTEX
  8
EBENE_1
 62
    39
  6
CONTINUOUS
 10
-0.355010
 20
-0.076519
  0
VERTEX
  8
EBENE_1
 62
    39
  6
CONTINUOUS
 10
-0.355193
 20
-0.079984
  0
SEQEND
  8
0
  0
POLYLINE
  8
EBENE_1
 62
    39
  6
CONTINUOUS
 66
     1
 40
0.003000
 41
0.003000
  0
VERTEX
  8
EBENE_1
 62
    39
  6
CONTINUOUS
 10
-0.355193
 20
-0.079984
  0
VERTEX
  8
EBENE_1
 62
    39
  6
CONTINUOUS
 10
-0.353132
 20
-0.082999
  0
VERTEX
  8
EBENE_1
 62
    39
  6
CONTINUOUS
 10
-0.350117
 20
-0.084586
  0
VERTEX
  8
EBENE_1
 62
    39
  6
CONTINUOUS
 10
-0.346626
 20
-0.084268
  0
SEQEND
  8
0
  0
POLYLINE
  8
EBENE_1
 62
    39
  6
CONTINUOUS
 66
     1
 40
0.003000
 41
0.003000
  0
VERTEX
  8
EBENE_1
 62
    39
  6
CONTINUOUS
 10
-0.346626
 20
-0.084268
  0
VERTEX
  8
EBENE_1
 62
    39
  6
CONTINUOUS
 10
-0.343769
 20
-0.082708
  0
VERTEX
  8
EBENE_1
 62
    39
  6
CONTINUOUS
 10
-0.342340
 20
-0.079878
  0
VERTEX
  8
EBENE_1
 62
    39
  6
CONTINUOUS
 10
-0.342339
 20
-0.076413
  0
SEQEND
  8
0
  0
POLYLINE
  8
EBENE_1
 62
    39
  6
CONTINUOUS
 66
     1
 40
0.003000
 41
0.003000
  0
VERTEX
  8
EBENE_1
 62
    39
  6
CONTINUOUS
 10
-0.342339
 20
-0.076413
  0
VERTEX
  8
EBENE_1
 62
    39
  6
CONTINUOUS
 10
-0.343901
 20
-0.073397
  0
VERTEX
  8
EBENE_1
 62
    39
  6
CONTINUOUS
 10
-0.346732
 20
-0.071809
  0
VERTEX
  8
EBENE_1
 62
    39
  6
CONTINUOUS
 10
-0.350197
 20
-0.072126
  0
SEQEND
  8
0
  0
POLYLINE
  8
EBENE_1
 62
    39
  6
CONTINUOUS
 66
     1
 40
0.003000
 41
0.003000
  0
VERTEX
  8
EBENE_1
 62
    39
  6
CONTINUOUS
 10
-0.508744
 20
-0.146402
  0
VERTEX
  8
EBENE_1
 62
    39
  6
CONTINUOUS
 10
-0.511759
 20
-0.147961
  0
VERTEX
  8
EBENE_1
 62
    39
  6
CONTINUOUS
 10
-0.513347
 20
-0.150792
  0
VERTEX
  8
EBENE_1
 62
    39
  6
CONTINUOUS
 10
-0.513031
 20
-0.154260
  0
SEQEND
  8
0
  0
POLYLINE
  8
EBENE_1
 62
    39
  6
CONTINUOUS
 66
     1
 40
0.003000
 41
0.003000
  0
VERTEX
  8
EBENE_1
 62
    39
  6
CONTINUOUS
 10
-0.513031
 20
-0.154260
  0
VERTEX
  8
EBENE_1
 62
    39
  6
CONTINUOUS
 10
-0.511469
 20
-0.157273
  0
VERTEX
  8
EBENE_1
 62
    39
  6
CONTINUOUS
 10
-0.508638
 20
-0.158861
  0
VERTEX
  8
EBENE_1
 62
    39
  6
CONTINUOUS
 10
-0.505173
 20
-0.158543
  0
SEQEND
  8
0
  0
POLYLINE
  8
EBENE_1
 62
    39
  6
CONTINUOUS
 66
     1
 40
0.003000
 41
0.003000
  0
VERTEX
  8
EBENE_1
 62
    39
  6
CONTINUOUS
 10
-0.505173
 20
-0.158543
  0
VERTEX
  8
EBENE_1
 62
    39
  6
CONTINUOUS
 10
-0.502158
 20
-0.156982
  0
VERTEX
  8
EBENE_1
 62
    39
  6
CONTINUOUS
 10
-0.500572
 20
-0.154152
  0
VERTEX
  8
EBENE_1
 62
    39
  6
CONTINUOUS
 10
-0.500890
 20
-0.150685
  0
SEQEND
  8
0
  0
POLYLINE
  8
EBENE_1
 62
    39
  6
CONTINUOUS
 66
     1
 40
0.003000
 41
0.003000
  0
VERTEX
  8
EBENE_1
 62
    39
  6
CONTINUOUS
 10
-0.500890
 20
-0.150685
  0
VERTEX
  8
EBENE_1
 62
    39
  6
CONTINUOUS
 10
-0.502449
 20
-0.147671
  0
VERTEX
  8
EBENE_1
 62
    39
  6
CONTINUOUS
 10
-0.505279
 20
-0.146085
  0
VERTEX
  8
EBENE_1
 62
    39
  6
CONTINUOUS
 10
-0.508744
 20
-0.146402
  0
SEQEND
  8
0
  0
POLYLINE
  8
EBENE_1
 62
    39
  6
CONTINUOUS
 66
     1
 40
0.003000
 41
0.003000
  0
VERTEX
  8
EBENE_1
 62
    39
  6
CONTINUOUS
 10
-0.757280
 20
-0.189969
  0
VERTEX
  8
EBENE_1
 62
    39
  6
CONTINUOUS
 10
-0.824413
 20
-0.420650
  0
VERTEX
  8
EBENE_1
 62
    39
  6
CONTINUOUS
 10
-0.628012
 20
-0.419220
  0
SEQEND
  8
0
  0
POLYLINE
  8
EBENE_1
 62
    39
  6
CONTINUOUS
 66
     1
 40
0.003000
 41
0.003000
  0
VERTEX
  8
EBENE_1
 62
    39
  6
CONTINUOUS
 10
-0.628012
 20
-0.419220
  0
VERTEX
  8
EBENE_1
 62
    39
  6
CONTINUOUS
 10
-0.620206
 20
-0.418451
  0
VERTEX
  8
EBENE_1
 62
    39
  6
CONTINUOUS
 10
-0.611827
 20
-0.416767
  0
VERTEX
  8
EBENE_1
 62
    39
  6
CONTINUOUS
 10
-0.602936
 20
-0.414190
  0
VERTEX
  8
EBENE_1
 62
    39
  6
CONTINUOUS
 10
-0.593594
 20
-0.410741
  0
VERTEX
  8
EBENE_1
 62
    39
  6
CONTINUOUS
 10
-0.583861
 20
-0.406439
  0
VERTEX
  8
EBENE_1
 62
    39
  6
CONTINUOUS
 10
-0.573799
 20
-0.401306
  0
VERTEX
  8
EBENE_1
 62
    39
  6
CONTINUOUS
 10
-0.563468
 20
-0.395363
  0
VERTEX
  8
EBENE_1
 62
    39
  6
CONTINUOUS
 10
-0.552929
 20
-0.388630
  0
VERTEX
  8
EBENE_1
 62
    39
  6
CONTINUOUS
 10
-0.542244
 20
-0.381128
  0
VERTEX
  8
EBENE_1
 62
    39
  6
CONTINUOUS
 10
-0.531473
 20
-0.372878
  0
VERTEX
  8
EBENE_1
 62
    39
  6
CONTINUOUS
 10
-0.520676
 20
-0.363899
  0
VERTEX
  8
EBENE_1
 62
    39
  6
CONTINUOUS
 10
-0.509916
 20
-0.354214
  0
VERTEX
  8
EBENE_1
 62
    39
  6
CONTINUOUS
 10
-0.499252
 20
-0.343842
  0
VERTEX
  8
EBENE_1
 62
    39
  6
CONTINUOUS
 10
-0.488746
 20
-0.332805
  0
VERTEX
  8
EBENE_1
 62
    39
  6
CONTINUOUS
 10
-0.478459
 20
-0.321123
  0
VERTEX
  8
EBENE_1
 62
    39
  6
CONTINUOUS
 10
-0.468451
 20
-0.308816
  0
VERTEX
  8
EBENE_1
 62
    39
  6
CONTINUOUS
 10
-0.458784
 20
-0.295906
  0
VERTEX
  8
EBENE_1
 62
    39
  6
CONTINUOUS
 10
-0.449518
 20
-0.282413
  0
VERTEX
  8
EBENE_1
 62
    39
  6
CONTINUOUS
 10
-0.440714
 20
-0.268358
  0
VERTEX
  8
EBENE_1
 62
    39
  6
CONTINUOUS
 10
-0.432433
 20
-0.253761
  0
VERTEX
  8
EBENE_1
 62
    39
  6
CONTINUOUS
 10
-0.424737
 20
-0.238644
  0
VERTEX
  8
EBENE_1
 62
    39
  6
CONTINUOUS
 10
-0.417685
 20
-0.223026
  0
VERTEX
  8
EBENE_1
 62
    39
  6
CONTINUOUS
 10
-0.411339
 20
-0.206929
  0
VERTEX
  8
EBENE_1
 62
    39
  6
CONTINUOUS
 10
-0.405761
 20
-0.190373
  0
VERTEX
  8
EBENE_1
 62
    39
  6
CONTINUOUS
 10
-0.401009
 20
-0.173379
  0
VERTEX
  8
EBENE_1
 62
    39
  6
CONTINUOUS
 10
-0.397147
 20
-0.155968
  0
VERTEX
  8
EBENE_1
 62
    39
  6
CONTINUOUS
 10
-0.394233
 20
-0.138160
  0
VERTEX
  8
EBENE_1
 62
    39
  6
CONTINUOUS
 10
-0.392331
 20
-0.119976
  0
SEQEND
  8
0
  0
POLYLINE
  8
EBENE_1
 62
    39
  6
CONTINUOUS
 66
     1
 40
0.003000
 41
0.003000
  0
VERTEX
  8
EBENE_1
 62
    39
  6
CONTINUOUS
 10
-0.392331
 20
-0.119976
  0
VERTEX
  8
EBENE_1
 62
    39
  6
CONTINUOUS
 10
-0.395360
 20
-0.102437
  0
VERTEX
  8
EBENE_1
 62
    39
  6
CONTINUOUS
 10
-0.401437
 20
-0.091744
  0
VERTEX
  8
EBENE_1
 62
    39
  6
CONTINUOUS
 10
-0.410058
 20
-0.086508
  0
VERTEX
  8
EBENE_1
 62
    39
  6
CONTINUOUS
 10
-0.420720
 20
-0.085339
  0
VERTEX
  8
EBENE_1
 62
    39
  6
CONTINUOUS
 10
-0.432923
 20
-0.086848
  0
VERTEX
  8
EBENE_1
 62
    39
  6
CONTINUOUS
 10
-0.446164
 20
-0.089646
  0
VERTEX
  8
EBENE_1
 62
    39
  6
CONTINUOUS
 10
-0.459939
 20
-0.092343
  0
VERTEX
  8
EBENE_1
 62
    39
  6
CONTINUOUS
 10
-0.473748
 20
-0.093551
  0
SEQEND
  8
0
  0
POLYLINE
  8
EBENE_1
 62
    39
  6
CONTINUOUS
 66
     1
 40
0.003000
 41
0.003000
  0
VERTEX
  8
EBENE_1
 62
    39
  6
CONTINUOUS
 10
-0.473748
 20
-0.093551
  0
VERTEX
  8
EBENE_1
 62
    39
  6
CONTINUOUS
 10
-0.696575
 20
-0.146402
  0
SEQEND
  8
0
  0
POLYLINE
  8
EBENE_1
 62
    39
  6
CONTINUOUS
 66
     1
 40
0.003000
 41
0.003000
  0
VERTEX
  8
EBENE_1
 62
    39
  6
CONTINUOUS
 10
-0.696575
 20
-0.146402
  0
VERTEX
  8
EBENE_1
 62
    39
  6
CONTINUOUS
 10
-0.720029
 20
-0.148739
  0
VERTEX
  8
EBENE_1
 62
    39
  6
CONTINUOUS
 10
-0.733884
 20
-0.155155
  0
VERTEX
  8
EBENE_1
 62
    39
  6
CONTINUOUS
 10
-0.742083
 20
-0.164760
  0
VERTEX
  8
EBENE_1
 62
    39
  6
CONTINUOUS
 10
-0.748567
 20
-0.176661
  0
VERTEX
  8
EBENE_1
 62
    39
  6
CONTINUOUS
 10
-0.757280
 20
-0.189969
  0
SEQEND
  8
0
  0
POLYLINE
  8
EBENE_1
 62
    39
  6
CONTINUOUS
 66
     1
 40
0.003000
 41
0.003000
 70
     1
  0
VERTEX
  8
EBENE_1
 62
    39
  6
CONTINUOUS
 10
-0.755854
 20
-0.187110
  0
VERTEX
  8
EBENE_1
 62
    39
  6
CONTINUOUS
 10
-0.822272
 20
-0.416366
  0
VERTEX
  8
EBENE_1
 62
    39
  6
CONTINUOUS
 10
-0.629441
 20
-0.414937
  0
VERTEX
  8
EBENE_1
 62
    39
  6
CONTINUOUS
 10
-0.621423
 20
-0.414129
  0
VERTEX
  8
EBENE_1
 62
    39
  6
CONTINUOUS
 10
-0.612806
 20
-0.412357
  0
VERTEX
  8
EBENE_1
 62
    39
  6
CONTINUOUS
 10
-0.603659
 20
-0.409642
  0
VERTEX
  8
EBENE_1
 62
    39
  6
CONTINUOUS
 10
-0.594046
 20
-0.406008
  0
VERTEX
  8
EBENE_1
 62
    39
  6
CONTINUOUS
 10
-0.584035
 20
-0.401477
  0
VERTEX
  8
EBENE_1
 62
    39
  6
CONTINUOUS
 10
-0.573691
 20
-0.396072
  0
VERTEX
  8
EBENE_1
 62
    39
  6
CONTINUOUS
 10
-0.563082
 20
-0.389815
  0
VERTEX
  8
EBENE_1
 62
    39
  6
CONTINUOUS
 10
-0.552273
 20
-0.382729
  0
VERTEX
  8
EBENE_1
 62
    39
  6
CONTINUOUS
 10
-0.541332
 20
-0.374836
  0
VERTEX
  8
EBENE_1
 62
    39
  6
CONTINUOUS
 10
-0.530323
 20
-0.366160
  0
VERTEX
  8
EBENE_1
 62
    39
  6
CONTINUOUS
 10
-0.519315
 20
-0.356723
  0
VERTEX
  8
EBENE_1
 62
    39
  6
CONTINUOUS
 10
-0.508372
 20
-0.346547
  0
VERTEX
  8
EBENE_1
 62
    39
  6
CONTINUOUS
 10
-0.497562
 20
-0.335655
  0
VERTEX
  8
EBENE_1
 62
    39
  6
CONTINUOUS
 10
-0.486951
 20
-0.324071
  0
VERTEX
  8
EBENE_1
 62
    39
  6
CONTINUOUS
 10
-0.476606
 20
-0.311816
  0
VERTEX
  8
EBENE_1
 62
    39
  6
CONTINUOUS
 10
-0.466592
 20
-0.298912
  0
VERTEX
  8
EBENE_1
 62
    39
  6
CONTINUOUS
 10
-0.456977
 20
-0.285384
  0
VERTEX
  8
EBENE_1
 62
    39
  6
CONTINUOUS
 10
-0.447826
 20
-0.271253
  0
VERTEX
  8
EBENE_1
 62
    39
  6
CONTINUOUS
 10
-0.439206
 20
-0.256542
  0
VERTEX
  8
EBENE_1
 62
    39
  6
CONTINUOUS
 10
-0.431183
 20
-0.241274
  0
VERTEX
  8
EBENE_1
 62
    39
  6
CONTINUOUS
 10
-0.423825
 20
-0.225471
  0
VERTEX
  8
EBENE_1
 62
    39
  6
CONTINUOUS
 10
-0.417196
 20
-0.209156
  0
VERTEX
  8
EBENE_1
 62
    39
  6
CONTINUOUS
 10
-0.411364
 20
-0.192352
  0
VERTEX
  8
EBENE_1
 62
    39
  6
CONTINUOUS
 10
-0.406395
 20
-0.175081
  0
VERTEX
  8
EBENE_1
 62
    39
  6
CONTINUOUS
 10
-0.402356
 20
-0.157365
  0
VERTEX
  8
EBENE_1
 62
    39
  6
CONTINUOUS
 10
-0.399312
 20
-0.139229
  0
VERTEX
  8
EBENE_1
 62
    39
  6
CONTINUOUS
 10
-0.397331
 20
-0.120693
  0
VERTEX
  8
EBENE_1
 62
    39
  6
CONTINUOUS
 10
-0.397331
 20
-0.120693
  0
VERTEX
  8
EBENE_1
 62
    39
  6
CONTINUOUS
 10
-0.400207
 20
-0.103481
  0
VERTEX
  8
EBENE_1
 62
    39
  6
CONTINUOUS
 10
-0.405878
 20
-0.093207
  0
VERTEX
  8
EBENE_1
 62
    39
  6
CONTINUOUS
 10
-0.413927
 20
-0.088440
  0
VERTEX
  8
EBENE_1
 62
    39
  6
CONTINUOUS
 10
-0.423934
 20
-0.087750
  0
VERTEX
  8
EBENE_1
 62
    39
  6
CONTINUOUS
 10
-0.435480
 20
-0.089703
  0
VERTEX
  8
EBENE_1
 62
    39
  6
CONTINUOUS
 10
-0.448149
 20
-0.092871
  0
VERTEX
  8
EBENE_1
 62
    39
  6
CONTINUOUS
 10
-0.461521
 20
-0.095821
  0
VERTEX
  8
EBENE_1
 62
    39
  6
CONTINUOUS
 10
-0.475177
 20
-0.097122
  0
VERTEX
  8
EBENE_1
 62
    39
  6
CONTINUOUS
 10
-0.700146
 20
-0.143543
  0
VERTEX
  8
EBENE_1
 62
    39
  6
CONTINUOUS
 10
-0.725343
 20
-0.150612
  0
VERTEX
  8
EBENE_1
 62
    39
  6
CONTINUOUS
 10
-0.741455
 20
-0.162377
  0
VERTEX
  8
EBENE_1
 62
    39
  6
CONTINUOUS
 10
-0.750539
 20
-0.174964
  0
VERTEX
  8
EBENE_1
 62
    39
  6
CONTINUOUS
 10
-0.754654
 20
-0.184499
  0
SEQEND
  8
0
  0
POLYLINE
  8
EBENE_1
 62
    39
  6
CONTINUOUS
 66
     1
 40
0.003000
 41
0.003000
  0
VERTEX
  8
EBENE_1
 62
    39
  6
CONTINUOUS
 10
-0.543740
 20
-0.117835
  0
VERTEX
  8
EBENE_1
 62
    39
  6
CONTINUOUS
 10
-0.546782
 20
-0.119898
  0
VERTEX
  8
EBENE_1
 62
    39
  6
CONTINUOUS
 10
-0.548554
 20
-0.122914
  0
VERTEX
  8
EBENE_1
 62
    39
  6
CONTINUOUS
 10
-0.548740
 20
-0.126406
  0
SEQEND
  8
0
  0
POLYLINE
  8
EBENE_1
 62
    39
  6
CONTINUOUS
 66
     1
 40
0.003000
 41
0.003000
  0
VERTEX
  8
EBENE_1
 62
    39
  6
CONTINUOUS
 10
-0.548740
 20
-0.126406
  0
VERTEX
  8
EBENE_1
 62
    39
  6
CONTINUOUS
 10
-0.547178
 20
-0.128946
  0
VERTEX
  8
EBENE_1
 62
    39
  6
CONTINUOUS
 10
-0.544347
 20
-0.130532
  0
VERTEX
  8
EBENE_1
 62
    39
  6
CONTINUOUS
 10
-0.540882
 20
-0.130689
  0
SEQEND
  8
0
  0
POLYLINE
  8
EBENE_1
 62
    39
  6
CONTINUOUS
 66
     1
 40
0.003000
 41
0.003000
  0
VERTEX
  8
EBENE_1
 62
    39
  6
CONTINUOUS
 10
-0.540882
 20
-0.130689
  0
VERTEX
  8
EBENE_1
 62
    39
  6
CONTINUOUS
 10
-0.537840
 20
-0.129129
  0
VERTEX
  8
EBENE_1
 62
    39
  6
CONTINUOUS
 10
-0.536069
 20
-0.126300
  0
VERTEX
  8
EBENE_1
 62
    39
  6
CONTINUOUS
 10
-0.535886
 20
-0.122835
  0
SEQEND
  8
0
  0
POLYLINE
  8
EBENE_1
 62
    39
  6
CONTINUOUS
 66
     1
 40
0.003000
 41
0.003000
  0
VERTEX
  8
EBENE_1
 62
    39
  6
CONTINUOUS
 10
-0.535886
 20
-0.122835
  0
VERTEX
  8
EBENE_1
 62
    39
  6
CONTINUOUS
 10
-0.537920
 20
-0.119793
  0
VERTEX
  8
EBENE_1
 62
    39
  6
CONTINUOUS
 10
-0.540750
 20
-0.118021
  0
VERTEX
  8
EBENE_1
 62
    39
  6
CONTINUOUS
 10
-0.543740
 20
-0.117835
  0
SEQEND
  8
0
  0
POLYLINE
  8
EBENE_1
 62
    39
  6
CONTINUOUS
 66
     1
 40
0.003000
 41
0.003000
  0
VERTEX
  8
EBENE_1
 62
    39
  6
CONTINUOUS
 10
-0.649441
 20
-0.144260
  0
VERTEX
  8
EBENE_1
 62
    39
  6
CONTINUOUS
 10
-0.652483
 20
-0.145821
  0
VERTEX
  8
EBENE_1
 62
    39
  6
CONTINUOUS
 10
-0.654254
 20
-0.148650
  0
VERTEX
  8
EBENE_1
 62
    39
  6
CONTINUOUS
 10
-0.654437
 20
-0.152114
  0
SEQEND
  8
0
  0
POLYLINE
  8
EBENE_1
 62
    39
  6
CONTINUOUS
 66
     1
 40
0.003000
 41
0.003000
  0
VERTEX
  8
EBENE_1
 62
    39
  6
CONTINUOUS
 10
-0.654437
 20
-0.152114
  0
VERTEX
  8
EBENE_1
 62
    39
  6
CONTINUOUS
 10
-0.652878
 20
-0.155129
  0
VERTEX
  8
EBENE_1
 62
    39
  6
CONTINUOUS
 10
-0.650048
 20
-0.156717
  0
VERTEX
  8
EBENE_1
 62
    39
  6
CONTINUOUS
 10
-0.646583
 20
-0.156402
  0
SEQEND
  8
0
  0
POLYLINE
  8
EBENE_1
 62
    39
  6
CONTINUOUS
 66
     1
 40
0.003000
 41
0.003000
  0
VERTEX
  8
EBENE_1
 62
    39
  6
CONTINUOUS
 10
-0.646583
 20
-0.156402
  0
VERTEX
  8
EBENE_1
 62
    39
  6
CONTINUOUS
 10
-0.643541
 20
-0.154839
  0
VERTEX
  8
EBENE_1
 62
    39
  6
CONTINUOUS
 10
-0.641769
 20
-0.152008
  0
VERTEX
  8
EBENE_1
 62
    39
  6
CONTINUOUS
 10
-0.641583
 20
-0.148543
  0
SEQEND
  8
0
  0
POLYLINE
  8
EBENE_1
 62
    39
  6
CONTINUOUS
 66
     1
 40
0.003000
 41
0.003000
  0
VERTEX
  8
EBENE_1
 62
    39
  6
CONTINUOUS
 10
-0.641583
 20
-0.148543
  0
VERTEX
  8
EBENE_1
 62
    39
  6
CONTINUOUS
 10
-0.643145
 20
-0.145530
  0
VERTEX
  8
EBENE_1
 62
    39
  6
CONTINUOUS
 10
-0.645976
 20
-0.143943
  0
VERTEX
  8
EBENE_1
 62
    39
  6
CONTINUOUS
 10
-0.649441
 20
-0.144260
  0
SEQEND
  8
0
  0
POLYLINE
  8
EBENE_1
 62
    39
  6
CONTINUOUS
 66
     1
 40
0.003000
 41
0.003000
  0
VERTEX
  8
EBENE_1
 62
    39
  6
CONTINUOUS
 10
-0.952969
 20
-0.114264
  0
VERTEX
  8
EBENE_1
 62
    39
  6
CONTINUOUS
 10
-1.237929
 20
-0.401366
  0
SEQEND
  8
0
  0
POLYLINE
  8
EBENE_1
 62
    39
  6
CONTINUOUS
 66
     1
 40
0.003000
 41
0.003000
  0
VERTEX
  8
EBENE_1
 62
    39
  6
CONTINUOUS
 10
-1.237929
 20
-0.401366
  0
VERTEX
  8
EBENE_1
 62
    39
  6
CONTINUOUS
 10
-1.243035
 20
-0.405626
  0
VERTEX
  8
EBENE_1
 62
    39
  6
CONTINUOUS
 10
-1.243062
 20
-0.411630
  0
VERTEX
  8
EBENE_1
 62
    39
  6
CONTINUOUS
 10
-1.238646
 20
-0.417795
  0
SEQEND
  8
0
  0
POLYLINE
  8
EBENE_1
 62
    39
  6
CONTINUOUS
 66
     1
 40
0.003000
 41
0.003000
  0
VERTEX
  8
EBENE_1
 62
    39
  6
CONTINUOUS
 10
-1.238646
 20
-0.417795
  0
VERTEX
  8
EBENE_1
 62
    39
  6
CONTINUOUS
 10
-0.777280
 20
-0.421366
  0
SEQEND
  8
0
  0
POLYLINE
  8
EBENE_1
 62
    39
  6
CONTINUOUS
 66
     1
 40
0.003000
 41
0.003000
  0
VERTEX
  8
EBENE_1
 62
    39
  6
CONTINUOUS
 10
-0.777280
 20
-0.421366
  0
VERTEX
  8
EBENE_1
 62
    39
  6
CONTINUOUS
 10
-0.767956
 20
-0.420680
  0
VERTEX
  8
EBENE_1
 62
    39
  6
CONTINUOUS
 10
-0.758275
 20
-0.419348
  0
VERTEX
  8
EBENE_1
 62
    39
  6
CONTINUOUS
 10
-0.748287
 20
-0.417340
  0
VERTEX
  8
EBENE_1
 62
    39
  6
CONTINUOUS
 10
-0.738040
 20
-0.414623
  0
VERTEX
  8
EBENE_1
 62
    39
  6
CONTINUOUS
 10
-0.727582
 20
-0.411169
  0
VERTEX
  8
EBENE_1
 62
    39
  6
CONTINUOUS
 10
-0.716963
 20
-0.406945
  0
VERTEX
  8
EBENE_1
 62
    39
  6
CONTINUOUS
 10
-0.706229
 20
-0.401922
  0
VERTEX
  8
EBENE_1
 62
    39
  6
CONTINUOUS
 10
-0.695431
 20
-0.396070
  0
VERTEX
  8
EBENE_1
 62
    39
  6
CONTINUOUS
 10
-0.684617
 20
-0.389356
  0
VERTEX
  8
EBENE_1
 62
    39
  6
CONTINUOUS
 10
-0.673835
 20
-0.381751
  0
VERTEX
  8
EBENE_1
 62
    39
  6
CONTINUOUS
 10
-0.663135
 20
-0.373224
  0
VERTEX
  8
EBENE_1
 62
    39
  6
CONTINUOUS
 10
-0.652563
 20
-0.363744
  0
VERTEX
  8
EBENE_1
 62
    39
  6
CONTINUOUS
 10
-0.642170
 20
-0.353281
  0
VERTEX
  8
EBENE_1
 62
    39
  6
CONTINUOUS
 10
-0.632004
 20
-0.341804
  0
VERTEX
  8
EBENE_1
 62
    39
  6
CONTINUOUS
 10
-0.622114
 20
-0.329282
  0
VERTEX
  8
EBENE_1
 62
    39
  6
CONTINUOUS
 10
-0.612547
 20
-0.315685
  0
VERTEX
  8
EBENE_1
 62
    39
  6
CONTINUOUS
 10
-0.603353
 20
-0.300983
  0
VERTEX
  8
EBENE_1
 62
    39
  6
CONTINUOUS
 10
-0.594580
 20
-0.285143
  0
VERTEX
  8
EBENE_1
 62
    39
  6
CONTINUOUS
 10
-0.586277
 20
-0.268137
  0
VERTEX
  8
EBENE_1
 62
    39
  6
CONTINUOUS
 10
-0.578493
 20
-0.249933
  0
VERTEX
  8
EBENE_1
 62
    39
  6
CONTINUOUS
 10
-0.571275
 20
-0.230500
  0
VERTEX
  8
EBENE_1
 62
    39
  6
CONTINUOUS
 10
-0.564674
 20
-0.209808
  0
VERTEX
  8
EBENE_1
 62
    39
  6
CONTINUOUS
 10
-0.558736
 20
-0.187827
  0
SEQEND
  8
0
  0
POLYLINE
  8
EBENE_1
 62
    39
  6
CONTINUOUS
 66
     1
 40
0.003000
 41
0.003000
  0
VERTEX
  8
EBENE_1
 62
    39
  6
CONTINUOUS
 10
-0.558736
 20
-0.187827
  0
VERTEX
  8
EBENE_1
 62
    39
  6
CONTINUOUS
 10
-0.562006
 20
-0.170917
  0
VERTEX
  8
EBENE_1
 62
    39
  6
CONTINUOUS
 10
-0.568968
 20
-0.157933
  0
VERTEX
  8
EBENE_1
 62
    39
  6
CONTINUOUS
 10
-0.578921
 20
-0.148360
  0
VERTEX
  8
EBENE_1
 62
    39
  6
CONTINUOUS
 10
-0.591166
 20
-0.141678
  0
VERTEX
  8
EBENE_1
 62
    39
  6
CONTINUOUS
 10
-0.605004
 20
-0.137372
  0
VERTEX
  8
EBENE_1
 62
    39
  6
CONTINUOUS
 10
-0.619735
 20
-0.134922
  0
VERTEX
  8
EBENE_1
 62
    39
  6
CONTINUOUS
 10
-0.634661
 20
-0.133814
  0
VERTEX
  8
EBENE_1
 62
    39
  6
CONTINUOUS
 10
-0.649080
 20
-0.133528
  0
VERTEX
  8
EBENE_1
 62
    39
  6
CONTINUOUS
 10
-0.662295
 20
-0.133547
  0
SEQEND
  8
0
  0
POLYLINE
  8
EBENE_1
 62
    39
  6
CONTINUOUS
 66
     1
 40
0.003000
 41
0.003000
  0
VERTEX
  8
EBENE_1
 62
    39
  6
CONTINUOUS
 10
-0.662295
 20
-0.133547
  0
VERTEX
  8
EBENE_1
 62
    39
  6
CONTINUOUS
 10
-0.875839
 20
-0.115693
  0
SEQEND
  8
0
  0
POLYLINE
  8
EBENE_1
 62
    39
  6
CONTINUOUS
 66
     1
 40
0.003000
 41
0.003000
  0
VERTEX
  8
EBENE_1
 62
    39
  6
CONTINUOUS
 10
-0.875839
 20
-0.115693
  0
VERTEX
  8
EBENE_1
 62
    39
  6
CONTINUOUS
 10
-0.898365
 20
-0.116976
  0
VERTEX
  8
EBENE_1
 62
    39
  6
CONTINUOUS
 10
-0.914880
 20
-0.114053
  0
VERTEX
  8
EBENE_1
 62
    39
  6
CONTINUOUS
 10
-0.926991
 20
-0.109622
  0
VERTEX
  8
EBENE_1
 62
    39
  6
CONTINUOUS
 10
-0.936305
 20
-0.106381
  0
VERTEX
  8
EBENE_1
 62
    39
  6
CONTINUOUS
 10
-0.944429
 20
-0.107029
  0
VERTEX
  8
EBENE_1
 62
    39
  6
CONTINUOUS
 10
-0.952969
 20
-0.114264
  0
SEQEND
  8
0
  0
POLYLINE
  8
EBENE_1
 62
    39
  6
CONTINUOUS
 66
     1
 40
0.003000
 41
0.003000
 70
     1
  0
VERTEX
  8
EBENE_1
 62
    39
  6
CONTINUOUS
 10
-0.994394
 20
-0.167114
  0
VERTEX
  8
EBENE_1
 62
    39
  6
CONTINUOUS
 10
-1.230787
 20
-0.401366
  0
VERTEX
  8
EBENE_1
 62
    39
  6
CONTINUOUS
 10
-1.231635
 20
-0.405097
  0
VERTEX
  8
EBENE_1
 62
    39
  6
CONTINUOUS
 10
-1.231371
 20
-0.408350
  0
VERTEX
  8
EBENE_1
 62
    39
  6
CONTINUOUS
 10
-1.227933
 20
-0.412079
  0
VERTEX
  8
EBENE_1
 62
    39
  6
CONTINUOUS
 10
-0.770138
 20
-0.414224
  0
VERTEX
  8
EBENE_1
 62
    39
  6
CONTINUOUS
 10
-0.760237
 20
-0.413502
  0
VERTEX
  8
EBENE_1
 62
    39
  6
CONTINUOUS
 10
-0.750145
 20
-0.412116
  0
VERTEX
  8
EBENE_1
 62
    39
  6
CONTINUOUS
 10
-0.739896
 20
-0.410018
  0
VERTEX
  8
EBENE_1
 62
    39
  6
CONTINUOUS
 10
-0.729522
 20
-0.407156
  0
VERTEX
  8
EBENE_1
 62
    39
  6
CONTINUOUS
 10
-0.719055
 20
-0.403480
  0
VERTEX
  8
EBENE_1
 62
    39
  6
CONTINUOUS
 10
-0.708530
 20
-0.398940
  0
VERTEX
  8
EBENE_1
 62
    39
  6
CONTINUOUS
 10
-0.697978
 20
-0.393485
  0
VERTEX
  8
EBENE_1
 62
    39
  6
CONTINUOUS
 10
-0.687432
 20
-0.387065
  0
VERTEX
  8
EBENE_1
 62
    39
  6
CONTINUOUS
 10
-0.676926
 20
-0.379630
  0
VERTEX
  8
EBENE_1
 62
    39
  6
CONTINUOUS
 10
-0.666493
 20
-0.371128
  0
VERTEX
  8
EBENE_1
 62
    39
  6
CONTINUOUS
 10
-0.656164
 20
-0.361510
  0
VERTEX
  8
EBENE_1
 62
    39
  6
CONTINUOUS
 10
-0.645973
 20
-0.350725
  0
VERTEX
  8
EBENE_1
 62
    39
  6
CONTINUOUS
 10
-0.635953
 20
-0.338722
  0
VERTEX
  8
EBENE_1
 62
    39
  6
CONTINUOUS
 10
-0.626136
 20
-0.325452
  0
VERTEX
  8
EBENE_1
 62
    39
  6
CONTINUOUS
 10
-0.616556
 20
-0.310863
  0
VERTEX
  8
EBENE_1
 62
    39
  6
CONTINUOUS
 10
-0.607246
 20
-0.294906
  0
VERTEX
  8
EBENE_1
 62
    39
  6
CONTINUOUS
 10
-0.598237
 20
-0.277529
  0
VERTEX
  8
EBENE_1
 62
    39
  6
CONTINUOUS
 10
-0.589564
 20
-0.258683
  0
VERTEX
  8
EBENE_1
 62
    39
  6
CONTINUOUS
 10
-0.581258
 20
-0.238317
  0
VERTEX
  8
EBENE_1
 62
    39
  6
CONTINUOUS
 10
-0.573353
 20
-0.216380
  0
VERTEX
  8
EBENE_1
 62
    39
  6
CONTINUOUS
 10
-0.565882
 20
-0.192823
  0
VERTEX
  8
EBENE_1
 62
    39
  6
CONTINUOUS
 10
-0.565882
 20
-0.192823
  0
VERTEX
  8
EBENE_1
 62
    39
  6
CONTINUOUS
 10
-0.569003
 20
-0.176103
  0
VERTEX
  8
EBENE_1
 62
    39
  6
CONTINUOUS
 10
-0.575563
 20
-0.163221
  0
VERTEX
  8
EBENE_1
 62
    39
  6
CONTINUOUS
 10
-0.584926
 20
-0.153677
  0
VERTEX
  8
EBENE_1
 62
    39
  6
CONTINUOUS
 10
-0.596458
 20
-0.146972
  0
VERTEX
  8
EBENE_1
 62
    39
  6
CONTINUOUS
 10
-0.609524
 20
-0.142607
  0
VERTEX
  8
EBENE_1
 62
    39
  6
CONTINUOUS
 10
-0.623490
 20
-0.140082
  0
VERTEX
  8
EBENE_1
 62
    39
  6
CONTINUOUS
 10
-0.637721
 20
-0.138896
  0
VERTEX
  8
EBENE_1
 62
    39
  6
CONTINUOUS
 10
-0.651581
 20
-0.138551
  0
VERTEX
  8
EBENE_1
 62
    39
  6
CONTINUOUS
 10
-0.664437
 20
-0.138547
  0
VERTEX
  8
EBENE_1
 62
    39
  6
CONTINUOUS
 10
-0.892976
 20
-0.107835
  0
VERTEX
  8
EBENE_1
 62
    39
  6
CONTINUOUS
 10
-0.912724
 20
-0.109919
  0
VERTEX
  8
EBENE_1
 62
    39
  6
CONTINUOUS
 10
-0.930884
 20
-0.115589
  0
VERTEX
  8
EBENE_1
 62
    39
  6
CONTINUOUS
 10
-0.947359
 20
-0.123970
  0
VERTEX
  8
EBENE_1
 62
    39
  6
CONTINUOUS
 10
-0.962047
 20
-0.134188
  0
VERTEX
  8
EBENE_1
 62
    39
  6
CONTINUOUS
 10
-0.974848
 20
-0.145367
  0
VERTEX
  8
EBENE_1
 62
    39
  6
CONTINUOUS
 10
-0.985664
 20
-0.156634
  0
SEQEND
  8
0
  0
POLYLINE
  8
EBENE_1
 62
    39
  6
CONTINUOUS
 66
     1
 40
0.003000
 41
0.003000
 70
     1
  0
VERTEX
  8
EBENE_1
 62
    39
  6
CONTINUOUS
 10
0.147591
 20
-0.014276
  0
VERTEX
  8
EBENE_1
 62
    39
  6
CONTINUOUS
 10
0.336850
 20
-0.324236
  0
VERTEX
  8
EBENE_1
 62
    39
  6
CONTINUOUS
 10
0.139020
 20
-0.375657
  0
VERTEX
  8
EBENE_1
 62
    39
  6
CONTINUOUS
 10
0.131298
 20
-0.376924
  0
VERTEX
  8
EBENE_1
 62
    39
  6
CONTINUOUS
 10
0.122801
 20
-0.377477
  0
VERTEX
  8
EBENE_1
 62
    39
  6
CONTINUOUS
 10
0.113589
 20
-0.377319
  0
VERTEX
  8
EBENE_1
 62
    39
  6
CONTINUOUS
 10
0.103722
 20
-0.376455
  0
VERTEX
  8
EBENE_1
 62
    39
  6
CONTINUOUS
 10
0.093263
 20
-0.374888
  0
VERTEX
  8
EBENE_1
 62
    39
  6
CONTINUOUS
 10
0.082269
 20
-0.372624
  0
VERTEX
  8
EBENE_1
 62
    39
  6
CONTINUOUS
 10
0.070803
 20
-0.369665
  0
VERTEX
  8
EBENE_1
 62
    39
  6
CONTINUOUS
 10
0.058924
 20
-0.366016
  0
VERTEX
  8
EBENE_1
 62
    39
  6
CONTINUOUS
 10
0.046693
 20
-0.361681
  0
VERTEX
  8
EBENE_1
 62
    39
  6
CONTINUOUS
 10
0.034170
 20
-0.356664
  0
VERTEX
  8
EBENE_1
 62
    39
  6
CONTINUOUS
 10
0.021416
 20
-0.350968
  0
VERTEX
  8
EBENE_1
 62
    39
  6
CONTINUOUS
 10
0.008492
 20
-0.344599
  0
VERTEX
  8
EBENE_1
 62
    39
  6
CONTINUOUS
 10
-0.004543
 20
-0.337560
  0
VERTEX
  8
EBENE_1
 62
    39
  6
CONTINUOUS
 10
-0.017628
 20
-0.329855
  0
VERTEX
  8
EBENE_1
 62
    39
  6
CONTINUOUS
 10
-0.030702
 20
-0.321488
  0
VERTEX
  8
EBENE_1
 62
    39
  6
CONTINUOUS
 10
-0.043706
 20
-0.312463
  0
VERTEX
  8
EBENE_1
 62
    39
  6
CONTINUOUS
 10
-0.056578
 20
-0.302785
  0
VERTEX
  8
EBENE_1
 62
    39
  6
CONTINUOUS
 10
-0.069258
 20
-0.292456
  0
VERTEX
  8
EBENE_1
 62
    39
  6
CONTINUOUS
 10
-0.081686
 20
-0.281482
  0
VERTEX
  8
EBENE_1
 62
    39
  6
CONTINUOUS
 10
-0.093801
 20
-0.269867
  0
VERTEX
  8
EBENE_1
 62
    39
  6
CONTINUOUS
 10
-0.105542
 20
-0.257614
  0
VERTEX
  8
EBENE_1
 62
    39
  6
CONTINUOUS
 10
-0.116851
 20
-0.244727
  0
VERTEX
  8
EBENE_1
 62
    39
  6
CONTINUOUS
 10
-0.127665
 20
-0.231210
  0
VERTEX
  8
EBENE_1
 62
    39
  6
CONTINUOUS
 10
-0.137925
 20
-0.217068
  0
VERTEX
  8
EBENE_1
 62
    39
  6
CONTINUOUS
 10
-0.147570
 20
-0.202305
  0
VERTEX
  8
EBENE_1
 62
    39
  6
CONTINUOUS
 10
-0.156539
 20
-0.186924
  0
VERTEX
  8
EBENE_1
 62
    39
  6
CONTINUOUS
 10
-0.164773
 20
-0.170930
  0
VERTEX
  8
EBENE_1
 62
    39
  6
CONTINUOUS
 10
-0.172210
 20
-0.154327
  0
VERTEX
  8
EBENE_1
 62
    39
  6
CONTINUOUS
 10
-0.178791
 20
-0.137118
  0
VERTEX
  8
EBENE_1
 62
    39
  6
CONTINUOUS
 10
-0.178791
 20
-0.137118
  0
VERTEX
  8
EBENE_1
 62
    39
  6
CONTINUOUS
 10
-0.181447
 20
-0.116164
  0
VERTEX
  8
EBENE_1
 62
    39
  6
CONTINUOUS
 10
-0.181022
 20
-0.096833
  0
VERTEX
  8
EBENE_1
 62
    39
  6
CONTINUOUS
 10
-0.177785
 20
-0.079344
  0
VERTEX
  8
EBENE_1
 62
    39
  6
CONTINUOUS
 10
-0.172004
 20
-0.063913
  0
VERTEX
  8
EBENE_1
 62
    39
  6
CONTINUOUS
 10
-0.163947
 20
-0.050760
  0
VERTEX
  8
EBENE_1
 62
    39
  6
CONTINUOUS
 10
-0.153881
 20
-0.040100
  0
VERTEX
  8
EBENE_1
 62
    39
  6
CONTINUOUS
 10
-0.142075
 20
-0.032152
  0
VERTEX
  8
EBENE_1
 62
    39
  6
CONTINUOUS
 10
-0.128795
 20
-0.027134
  0
VERTEX
  8
EBENE_1
 62
    39
  6
CONTINUOUS
 10
0.076886
 20
0.028571
  0
VERTEX
  8
EBENE_1
 62
    39
  6
CONTINUOUS
 10
0.097498
 20
0.031149
  0
VERTEX
  8
EBENE_1
 62
    39
  6
CONTINUOUS
 10
0.111564
 20
0.027301
  0
VERTEX
  8
EBENE_1
 62
    39
  6
CONTINUOUS
 10
0.121344
 20
0.018929
  0
VERTEX
  8
EBENE_1
 62
    39
  6
CONTINUOUS
 10
0.129101
 20
0.007939
  0
VERTEX
  8
EBENE_1
 62
    39
  6
CONTINUOUS
 10
0.137096
 20
-0.003764
  0
SEQEND
  8
0
  0
POLYLINE
  8
EBENE_1
 62
    39
  6
CONTINUOUS
 66
     1
 40
0.003000
 41
0.003000
 70
     1
  0
VERTEX
  8
EBENE_1
 62
    39
  6
CONTINUOUS
 10
0.147591
 20
-0.015705
  0
VERTEX
  8
EBENE_1
 62
    39
  6
CONTINUOUS
 10
0.333280
 20
-0.319949
  0
VERTEX
  8
EBENE_1
 62
    39
  6
CONTINUOUS
 10
0.139020
 20
-0.370657
  0
VERTEX
  8
EBENE_1
 62
    39
  6
CONTINUOUS
 10
0.131381
 20
-0.371929
  0
VERTEX
  8
EBENE_1
 62
    39
  6
CONTINUOUS
 10
0.122987
 20
-0.372497
  0
VERTEX
  8
EBENE_1
 62
    39
  6
CONTINUOUS
 10
0.113896
 20
-0.372365
  0
VERTEX
  8
EBENE_1
 62
    39
  6
CONTINUOUS
 10
0.104167
 20
-0.371536
  0
VERTEX
  8
EBENE_1
 62
    39
  6
CONTINUOUS
 10
0.093860
 20
-0.370016
  0
VERTEX
  8
EBENE_1
 62
    39
  6
CONTINUOUS
 10
0.083034
 20
-0.367807
  0
VERTEX
  8
EBENE_1
 62
    39
  6
CONTINUOUS
 10
0.071748
 20
-0.364915
  0
VERTEX
  8
EBENE_1
 62
    39
  6
CONTINUOUS
 10
0.060061
 20
-0.361342
  0
VERTEX
  8
EBENE_1
 62
    39
  6
CONTINUOUS
 10
0.048033
 20
-0.357094
  0
VERTEX
  8
EBENE_1
 62
    39
  6
CONTINUOUS
 10
0.035722
 20
-0.352173
  0
VERTEX
  8
EBENE_1
 62
    39
  6
CONTINUOUS
 10
0.023188
 20
-0.346585
  0
VERTEX
  8
EBENE_1
 62
    39
  6
CONTINUOUS
 10
0.010491
 20
-0.340333
  0
VERTEX
  8
EBENE_1
 62
    39
  6
CONTINUOUS
 10
-0.002312
 20
-0.333422
  0
VERTEX
  8
EBENE_1
 62
    39
  6
CONTINUOUS
 10
-0.015160
 20
-0.325854
  0
VERTEX
  8
EBENE_1
 62
    39
  6
CONTINUOUS
 10
-0.027994
 20
-0.317635
  0
VERTEX
  8
EBENE_1
 62
    39
  6
CONTINUOUS
 10
-0.040755
 20
-0.308768
  0
VERTEX
  8
EBENE_1
 62
    39
  6
CONTINUOUS
 10
-0.053384
 20
-0.299258
  0
VERTEX
  8
EBENE_1
 62
    39
  6
CONTINUOUS
 10
-0.065822
 20
-0.289108
  0
VERTEX
  8
EBENE_1
 62
    39
  6
CONTINUOUS
 10
-0.078009
 20
-0.278323
  0
VERTEX
  8
EBENE_1
 62
    39
  6
CONTINUOUS
 10
-0.089887
 20
-0.266906
  0
VERTEX
  8
EBENE_1
 62
    39
  6
CONTINUOUS
 10
-0.101395
 20
-0.254862
  0
VERTEX
  8
EBENE_1
 62
    39
  6
CONTINUOUS
 10
-0.112475
 20
-0.242194
  0
VERTEX
  8
EBENE_1
 62
    39
  6
CONTINUOUS
 10
-0.123068
 20
-0.228907
  0
VERTEX
  8
EBENE_1
 62
    39
  6
CONTINUOUS
 10
-0.133115
 20
-0.215005
  0
VERTEX
  8
EBENE_1
 62
    39
  6
CONTINUOUS
 10
-0.142555
 20
-0.200491
  0
VERTEX
  8
EBENE_1
 62
    39
  6
CONTINUOUS
 10
-0.151331
 20
-0.185371
  0
VERTEX
  8
EBENE_1
 62
    39
  6
CONTINUOUS
 10
-0.159382
 20
-0.169647
  0
VERTEX
  8
EBENE_1
 62
    39
  6
CONTINUOUS
 10
-0.166650
 20
-0.153324
  0
VERTEX
  8
EBENE_1
 62
    39
  6
CONTINUOUS
 10
-0.173075
 20
-0.136406
  0
VERTEX
  8
EBENE_1
 62
    39
  6
CONTINUOUS
 10
-0.173075
 20
-0.136406
  0
VERTEX
  8
EBENE_1
 62
    39
  6
CONTINUOUS
 10
-0.175764
 20
-0.115746
  0
VERTEX
  8
EBENE_1
 62
    39
  6
CONTINUOUS
 10
-0.175431
 20
-0.096744
  0
VERTEX
  8
EBENE_1
 62
    39
  6
CONTINUOUS
 10
-0.172336
 20
-0.079584
  0
VERTEX
  8
EBENE_1
 62
    39
  6
CONTINUOUS
 10
-0.166739
 20
-0.064449
  0
VERTEX
  8
EBENE_1
 62
    39
  6
CONTINUOUS
 10
-0.158898
 20
-0.051524
  0
VERTEX
  8
EBENE_1
 62
    39
  6
CONTINUOUS
 10
-0.149074
 20
-0.040993
  0
VERTEX
  8
EBENE_1
 62
    39
  6
CONTINUOUS
 10
-0.137525
 20
-0.033039
  0
VERTEX
  8
EBENE_1
 62
    39
  6
CONTINUOUS
 10
-0.124512
 20
-0.027846
  0
VERTEX
  8
EBENE_1
 62
    39
  6
CONTINUOUS
 10
0.077598
 20
0.026429
  0
VERTEX
  8
EBENE_1
 62
    39
  6
CONTINUOUS
 10
0.097960
 20
0.029061
  0
VERTEX
  8
EBENE_1
 62
    39
  6
CONTINUOUS
 10
0.111934
 20
0.025344
  0
VERTEX
  8
EBENE_1
 62
    39
  6
CONTINUOUS
 10
0.121701
 20
0.017144
  0
VERTEX
  8
EBENE_1
 62
    39
  6
CONTINUOUS
 10
0.129444
 20
0.006326
  0
VERTEX
  8
EBENE_1
 62
    39
  6
CONTINUOUS
 10
0.137347
 20
-0.005246
  0
SEQEND
  8
0
  0
POLYLINE
  8
EBENE_1
 62
    39
  6
CONTINUOUS
 66
     1
 40
0.003000
 41
0.003000
 70
     1
  0
VERTEX
  8
EBENE_1
 62
    39
  6
CONTINUOUS
 10
-0.017382
 20
-0.029276
  0
VERTEX
  8
EBENE_1
 62
    39
  6
CONTINUOUS
 10
-0.014129
 20
-0.028402
  0
VERTEX
  8
EBENE_1
 62
    39
  6
CONTINUOUS
 10
-0.011829
 20
-0.026100
  0
VERTEX
  8
EBENE_1
 62
    39
  6
CONTINUOUS
 10
-0.010957
 20
-0.022846
  0
VERTEX
  8
EBENE_1
 62
    39
  6
CONTINUOUS
 10
-0.011829
 20
-0.019408
  0
VERTEX
  8
EBENE_1
 62
    39
  6
CONTINUOUS
 10
-0.014129
 20
-0.016763
  0
VERTEX
  8
EBENE_1
 62
    39
  6
CONTINUOUS
 10
-0.017382
 20
-0.015705
  0
VERTEX
  8
EBENE_1
 62
    39
  6
CONTINUOUS
 10
-0.020823
 20
-0.016763
  0
VERTEX
  8
EBENE_1
 62
    39
  6
CONTINUOUS
 10
-0.023469
 20
-0.019408
  0
VERTEX
  8
EBENE_1
 62
    39
  6
CONTINUOUS
 10
-0.024528
 20
-0.022846
  0
VERTEX
  8
EBENE_1
 62
    39
  6
CONTINUOUS
 10
-0.023469
 20
-0.026100
  0
VERTEX
  8
EBENE_1
 62
    39
  6
CONTINUOUS
 10
-0.020823
 20
-0.028402
  0
SEQEND
  8
0
  0
POLYLINE
  8
EBENE_1
 62
    39
  6
CONTINUOUS
 66
     1
 40
0.003000
 41
0.003000
 70
     1
  0
VERTEX
  8
EBENE_1
 62
    39
  6
CONTINUOUS
 10
0.054744
 20
-0.014276
  0
VERTEX
  8
EBENE_1
 62
    39
  6
CONTINUOUS
 10
0.058183
 20
-0.013218
  0
VERTEX
  8
EBENE_1
 62
    39
  6
CONTINUOUS
 10
0.060828
 20
-0.010572
  0
VERTEX
  8
EBENE_1
 62
    39
  6
CONTINUOUS
 10
0.061886
 20
-0.007134
  0
VERTEX
  8
EBENE_1
 62
    39
  6
CONTINUOUS
 10
0.060828
 20
-0.003881
  0
VERTEX
  8
EBENE_1
 62
    39
  6
CONTINUOUS
 10
0.058183
 20
-0.001581
  0
VERTEX
  8
EBENE_1
 62
    39
  6
CONTINUOUS
 10
0.054744
 20
-0.000709
  0
VERTEX
  8
EBENE_1
 62
    39
  6
CONTINUOUS
 10
0.051491
 20
-0.001581
  0
VERTEX
  8
EBENE_1
 62
    39
  6
CONTINUOUS
 10
0.049191
 20
-0.003881
  0
VERTEX
  8
EBENE_1
 62
    39
  6
CONTINUOUS
 10
0.048319
 20
-0.007134
  0
VERTEX
  8
EBENE_1
 62
    39
  6
CONTINUOUS
 10
0.049191
 20
-0.010572
  0
VERTEX
  8
EBENE_1
 62
    39
  6
CONTINUOUS
 10
0.051491
 20
-0.013218
  0
SEQEND
  8
0
  0
POLYLINE
  8
EBENE_1
 62
    39
  6
CONTINUOUS
 66
     1
 40
0.003000
 41
0.003000
 70
     1
  0
VERTEX
  8
EBENE_1
 62
    39
  6
CONTINUOUS
 10
0.125449
 20
-0.041417
  0
VERTEX
  8
EBENE_1
 62
    39
  6
CONTINUOUS
 10
0.128887
 20
-0.040359
  0
VERTEX
  8
EBENE_1
 62
    39
  6
CONTINUOUS
 10
0.131533
 20
-0.037714
  0
VERTEX
  8
EBENE_1
 62
    39
  6
CONTINUOUS
 10
0.132591
 20
-0.034276
  0
VERTEX
  8
EBENE_1
 62
    39
  6
CONTINUOUS
 10
0.131533
 20
-0.031022
  0
VERTEX
  8
EBENE_1
 62
    39
  6
CONTINUOUS
 10
0.128887
 20
-0.028720
  0
VERTEX
  8
EBENE_1
 62
    39
  6
CONTINUOUS
 10
0.125449
 20
-0.027846
  0
VERTEX
  8
EBENE_1
 62
    39
  6
CONTINUOUS
 10
0.122198
 20
-0.028720
  0
VERTEX
  8
EBENE_1
 62
    39
  6
CONTINUOUS
 10
0.119897
 20
-0.031022
  0
VERTEX
  8
EBENE_1
 62
    39
  6
CONTINUOUS
 10
0.119024
 20
-0.034276
  0
VERTEX
  8
EBENE_1
 62
    39
  6
CONTINUOUS
 10
0.119897
 20
-0.037714
  0
VERTEX
  8
EBENE_1
 62
    39
  6
CONTINUOUS
 10
0.122198
 20
-0.040359
  0
SEQEND
  8
0
  0
POLYLINE
  8
EBENE_1
 62
    39
  6
CONTINUOUS
 66
     1
 40
0.003000
 41
0.003000
 70
     1
  0
VERTEX
  8
EBENE_1
 62
    39
  6
CONTINUOUS
 10
0.349705
 20
0.038567
  0
VERTEX
  8
EBENE_1
 62
    39
  6
CONTINUOUS
 10
0.538252
 20
-0.271386
  0
VERTEX
  8
EBENE_1
 62
    39
  6
CONTINUOUS
 10
0.340421
 20
-0.322807
  0
VERTEX
  8
EBENE_1
 62
    39
  6
CONTINUOUS
 10
0.332702
 20
-0.324076
  0
VERTEX
  8
EBENE_1
 62
    39
  6
CONTINUOUS
 10
0.324212
 20
-0.324636
  0
VERTEX
  8
EBENE_1
 62
    39
  6
CONTINUOUS
 10
0.315011
 20
-0.324490
  0
VERTEX
  8
EBENE_1
 62
    39
  6
CONTINUOUS
 10
0.305161
 20
-0.323641
  0
VERTEX
  8
EBENE_1
 62
    39
  6
CONTINUOUS
 10
0.294720
 20
-0.322094
  0
VERTEX
  8
EBENE_1
 62
    39
  6
CONTINUOUS
 10
0.283749
 20
-0.319852
  0
VERTEX
  8
EBENE_1
 62
    39
  6
CONTINUOUS
 10
0.272308
 20
-0.316919
  0
VERTEX
  8
EBENE_1
 62
    39
  6
CONTINUOUS
 10
0.260458
 20
-0.313298
  0
VERTEX
  8
EBENE_1
 62
    39
  6
CONTINUOUS
 10
0.248257
 20
-0.308994
  0
VERTEX
  8
EBENE_1
 62
    39
  6
CONTINUOUS
 10
0.235767
 20
-0.304009
  0
VERTEX
  8
EBENE_1
 62
    39
  6
CONTINUOUS
 10
0.223047
 20
-0.298348
  0
VERTEX
  8
EBENE_1
 62
    39
  6
CONTINUOUS
 10
0.210157
 20
-0.292014
  0
VERTEX
  8
EBENE_1
 62
    39
  6
CONTINUOUS
 10
0.197158
 20
-0.285011
  0
VERTEX
  8
EBENE_1
 62
    39
  6
CONTINUOUS
 10
0.184110
 20
-0.277343
  0
VERTEX
  8
EBENE_1
 62
    39
  6
CONTINUOUS
 10
0.171072
 20
-0.269013
  0
VERTEX
  8
EBENE_1
 62
    39
  6
CONTINUOUS
 10
0.158106
 20
-0.260025
  0
VERTEX
  8
EBENE_1
 62
    39
  6
CONTINUOUS
 10
0.145270
 20
-0.250383
  0
VERTEX
  8
EBENE_1
 62
    39
  6
CONTINUOUS
 10
0.132625
 20
-0.240090
  0
VERTEX
  8
EBENE_1
 62
    39
  6
CONTINUOUS
 10
0.120231
 20
-0.229150
  0
VERTEX
  8
EBENE_1
 62
    39
  6
CONTINUOUS
 10
0.108149
 20
-0.217567
  0
VERTEX
  8
EBENE_1
 62
    39
  6
CONTINUOUS
 10
0.096437
 20
-0.205345
  0
VERTEX
  8
EBENE_1
 62
    39
  6
CONTINUOUS
 10
0.085157
 20
-0.192486
  0
VERTEX
  8
EBENE_1
 62
    39
  6
CONTINUOUS
 10
0.074369
 20
-0.178996
  0
VERTEX
  8
EBENE_1
 62
    39
  6
CONTINUOUS
 10
0.064132
 20
-0.164877
  0
VERTEX
  8
EBENE_1
 62
    39
  6
CONTINUOUS
 10
0.054506
 20
-0.150133
  0
VERTEX
  8
EBENE_1
 62
    39
  6
CONTINUOUS
 10
0.045553
 20
-0.134768
  0
VERTEX
  8
EBENE_1
 62
    39
  6
CONTINUOUS
 10
0.037331
 20
-0.118786
  0
VERTEX
  8
EBENE_1
 62
    39
  6
CONTINUOUS
 10
0.029901
 20
-0.102190
  0
VERTEX
  8
EBENE_1
 62
    39
  6
CONTINUOUS
 10
0.023323
 20
-0.084984
  0
VERTEX
  8
EBENE_1
 62
    39
  6
CONTINUOUS
 10
0.023323
 20
-0.084984
  0
VERTEX
  8
EBENE_1
 62
    39
  6
CONTINUOUS
 10
0.020636
 20
-0.063823
  0
VERTEX
  8
EBENE_1
 62
    39
  6
CONTINUOUS
 10
0.020978
 20
-0.044386
  0
VERTEX
  8
EBENE_1
 62
    39
  6
CONTINUOUS
 10
0.024099
 20
-0.026857
  0
VERTEX
  8
EBENE_1
 62
    39
  6
CONTINUOUS
 10
0.029749
 20
-0.011422
  0
VERTEX
  8
EBENE_1
 62
    39
  6
CONTINUOUS
 10
0.037674
 20
0.001737
  0
VERTEX
  8
EBENE_1
 62
    39
  6
CONTINUOUS
 10
0.047626
 20
0.012435
  0
VERTEX
  8
EBENE_1
 62
    39
  6
CONTINUOUS
 10
0.059352
 20
0.020488
  0
VERTEX
  8
EBENE_1
 62
    39
  6
CONTINUOUS
 10
0.072602
 20
0.025713
  0
VERTEX
  8
EBENE_1
 62
    39
  6
CONTINUOUS
 10
0.279000
 20
0.080705
  0
VERTEX
  8
EBENE_1
 62
    39
  6
CONTINUOUS
 10
0.299364
 20
0.083585
  0
VERTEX
  8
EBENE_1
 62
    39
  6
CONTINUOUS
 10
0.313360
 20
0.079938
  0
VERTEX
  8
EBENE_1
 62
    39
  6
CONTINUOUS
 10
0.323190
 20
0.071689
  0
VERTEX
  8
EBENE_1
 62
    39
  6
CONTINUOUS
 10
0.331056
 20
0.060761
  0
VERTEX
  8
EBENE_1
 62
    39
  6
CONTINUOUS
 10
0.339161
 20
0.049079
  0
SEQEND
  8
0
  0
POLYLINE
  8
EBENE_1
 62
    39
  6
CONTINUOUS
 66
     1
 40
0.003000
 41
0.003000
 70
     1
  0
VERTEX
  8
EBENE_1
 62
    39
  6
CONTINUOUS
 10
0.349705
 20
0.037138
  0
VERTEX
  8
EBENE_1
 62
    39
  6
CONTINUOUS
 10
0.535394
 20
-0.267815
  0
VERTEX
  8
EBENE_1
 62
    39
  6
CONTINUOUS
 10
0.341134
 20
-0.317807
  0
VERTEX
  8
EBENE_1
 62
    39
  6
CONTINUOUS
 10
0.333496
 20
-0.319150
  0
VERTEX
  8
EBENE_1
 62
    39
  6
CONTINUOUS
 10
0.325102
 20
-0.319784
  0
VERTEX
  8
EBENE_1
 62
    39
  6
CONTINUOUS
 10
0.316011
 20
-0.319714
  0
VERTEX
  8
EBENE_1
 62
    39
  6
CONTINUOUS
 10
0.306283
 20
-0.318942
  0
VERTEX
  8
EBENE_1
 62
    39
  6
CONTINUOUS
 10
0.295976
 20
-0.317474
  0
VERTEX
  8
EBENE_1
 62
    39
  6
CONTINUOUS
 10
0.285150
 20
-0.315314
  0
VERTEX
  8
EBENE_1
 62
    39
  6
CONTINUOUS
 10
0.273864
 20
-0.312466
  0
VERTEX
  8
EBENE_1
 62
    39
  6
CONTINUOUS
 10
0.262177
 20
-0.308934
  0
VERTEX
  8
EBENE_1
 62
    39
  6
CONTINUOUS
 10
0.250149
 20
-0.304722
  0
VERTEX
  8
EBENE_1
 62
    39
  6
CONTINUOUS
 10
0.237838
 20
-0.299835
  0
VERTEX
  8
EBENE_1
 62
    39
  6
CONTINUOUS
 10
0.225304
 20
-0.294277
  0
VERTEX
  8
EBENE_1
 62
    39
  6
CONTINUOUS
 10
0.212606
 20
-0.288052
  0
VERTEX
  8
EBENE_1
 62
    39
  6
CONTINUOUS
 10
0.199804
 20
-0.281164
  0
VERTEX
  8
EBENE_1
 62
    39
  6
CONTINUOUS
 10
0.186956
 20
-0.273618
  0
VERTEX
  8
EBENE_1
 62
    39
  6
CONTINUOUS
 10
0.174121
 20
-0.265417
  0
VERTEX
  8
EBENE_1
 62
    39
  6
CONTINUOUS
 10
0.161360
 20
-0.256566
  0
VERTEX
  8
EBENE_1
 62
    39
  6
CONTINUOUS
 10
0.148730
 20
-0.247070
  0
VERTEX
  8
EBENE_1
 62
    39
  6
CONTINUOUS
 10
0.136292
 20
-0.236932
  0
VERTEX
  8
EBENE_1
 62
    39
  6
CONTINUOUS
 10
0.124105
 20
-0.226156
  0
VERTEX
  8
EBENE_1
 62
    39
  6
CONTINUOUS
 10
0.112227
 20
-0.214747
  0
VERTEX
  8
EBENE_1
 62
    39
  6
CONTINUOUS
 10
0.100718
 20
-0.202709
  0
VERTEX
  8
EBENE_1
 62
    39
  6
CONTINUOUS
 10
0.089638
 20
-0.190046
  0
VERTEX
  8
EBENE_1
 62
    39
  6
CONTINUOUS
 10
0.079044
 20
-0.176763
  0
VERTEX
  8
EBENE_1
 62
    39
  6
CONTINUOUS
 10
0.068998
 20
-0.162863
  0
VERTEX
  8
EBENE_1
 62
    39
  6
CONTINUOUS
 10
0.059557
 20
-0.148352
  0
VERTEX
  8
EBENE_1
 62
    39
  6
CONTINUOUS
 10
0.050781
 20
-0.133232
  0
VERTEX
  8
EBENE_1
 62
    39
  6
CONTINUOUS
 10
0.042729
 20
-0.117509
  0
VERTEX
  8
EBENE_1
 62
    39
  6
CONTINUOUS
 10
0.035461
 20
-0.101186
  0
VERTEX
  8
EBENE_1
 62
    39
  6
CONTINUOUS
 10
0.029035
 20
-0.084268
  0
VERTEX
  8
EBENE_1
 62
    39
  6
CONTINUOUS
 10
0.029035
 20
-0.084268
  0
VERTEX
  8
EBENE_1
 62
    39
  6
CONTINUOUS
 10
0.026347
 20
-0.063373
  0
VERTEX
  8
EBENE_1
 62
    39
  6
CONTINUOUS
 10
0.026680
 20
-0.044195
  0
VERTEX
  8
EBENE_1
 62
    39
  6
CONTINUOUS
 10
0.029775
 20
-0.026909
  0
VERTEX
  8
EBENE_1
 62
    39
  6
CONTINUOUS
 10
0.035373
 20
-0.011690
  0
VERTEX
  8
EBENE_1
 62
    39
  6
CONTINUOUS
 10
0.043214
 20
0.001286
  0
VERTEX
  8
EBENE_1
 62
    39
  6
CONTINUOUS
 10
0.053038
 20
0.011843
  0
VERTEX
  8
EBENE_1
 62
    39
  6
CONTINUOUS
 10
0.064586
 20
0.019807
  0
VERTEX
  8
EBENE_1
 62
    39
  6
CONTINUOUS
 10
0.077598
 20
0.025000
  0
VERTEX
  8
EBENE_1
 62
    39
  6
CONTINUOUS
 10
0.279717
 20
0.079276
  0
VERTEX
  8
EBENE_1
 62
    39
  6
CONTINUOUS
 10
0.300077
 20
0.081859
  0
VERTEX
  8
EBENE_1
 62
    39
  6
CONTINUOUS
 10
0.314049
 20
0.078033
  0
VERTEX
  8
EBENE_1
 62
    39
  6
CONTINUOUS
 10
0.323815
 20
0.069724
  0
VERTEX
  8
EBENE_1
 62
    39
  6
CONTINUOUS
 10
0.331559
 20
0.058855
  0
VERTEX
  8
EBENE_1
 62
    39
  6
CONTINUOUS
 10
0.339461
 20
0.047351
  0
SEQEND
  8
0
  0
POLYLINE
  8
EBENE_1
 62
    39
  6
CONTINUOUS
 66
     1
 40
0.003000
 41
0.003000
 70
     1
  0
VERTEX
  8
EBENE_1
 62
    39
  6
CONTINUOUS
 10
0.184728
 20
0.022858
  0
VERTEX
  8
EBENE_1
 62
    39
  6
CONTINUOUS
 10
0.187981
 20
0.023916
  0
VERTEX
  8
EBENE_1
 62
    39
  6
CONTINUOUS
 10
0.190281
 20
0.026561
  0
VERTEX
  8
EBENE_1
 62
    39
  6
CONTINUOUS
 10
0.191154
 20
0.030000
  0
VERTEX
  8
EBENE_1
 62
    39
  6
CONTINUOUS
 10
0.190281
 20
0.033251
  0
VERTEX
  8
EBENE_1
 62
    39
  6
CONTINUOUS
 10
0.187981
 20
0.035552
  0
VERTEX
  8
EBENE_1
 62
    39
  6
CONTINUOUS
 10
0.184728
 20
0.036425
  0
VERTEX
  8
EBENE_1
 62
    39
  6
CONTINUOUS
 10
0.180971
 20
0.035552
  0
VERTEX
  8
EBENE_1
 62
    39
  6
CONTINUOUS
 10
0.178485
 20
0.033251
  0
VERTEX
  8
EBENE_1
 62
    39
  6
CONTINUOUS
 10
0.177587
 20
0.030000
  0
VERTEX
  8
EBENE_1
 62
    39
  6
CONTINUOUS
 10
0.178485
 20
0.026561
  0
VERTEX
  8
EBENE_1
 62
    39
  6
CONTINUOUS
 10
0.180971
 20
0.023916
  0
SEQEND
  8
0
  0
POLYLINE
  8
EBENE_1
 62
    39
  6
CONTINUOUS
 66
     1
 40
0.003000
 41
0.003000
 70
     1
  0
VERTEX
  8
EBENE_1
 62
    39
  6
CONTINUOUS
 10
0.256862
 20
0.038567
  0
VERTEX
  8
EBENE_1
 62
    39
  6
CONTINUOUS
 10
0.260115
 20
0.039467
  0
VERTEX
  8
EBENE_1
 62
    39
  6
CONTINUOUS
 10
0.262415
 20
0.041953
  0
VERTEX
  8
EBENE_1
 62
    39
  6
CONTINUOUS
 10
0.263287
 20
0.045709
  0
VERTEX
  8
EBENE_1
 62
    39
  6
CONTINUOUS
 10
0.262415
 20
0.048963
  0
VERTEX
  8
EBENE_1
 62
    39
  6
CONTINUOUS
 10
0.260115
 20
0.051265
  0
VERTEX
  8
EBENE_1
 62
    39
  6
CONTINUOUS
 10
0.256862
 20
0.052138
  0
VERTEX
  8
EBENE_1
 62
    39
  6
CONTINUOUS
 10
0.253424
 20
0.051265
  0
VERTEX
  8
EBENE_1
 62
    39
  6
CONTINUOUS
 10
0.250779
 20
0.048963
  0
VERTEX
  8
EBENE_1
 62
    39
  6
CONTINUOUS
 10
0.249720
 20
0.045709
  0
VERTEX
  8
EBENE_1
 62
    39
  6
CONTINUOUS
 10
0.250779
 20
0.041953
  0
VERTEX
  8
EBENE_1
 62
    39
  6
CONTINUOUS
 10
0.253424
 20
0.039467
  0
SEQEND
  8
0
  0
POLYLINE
  8
EBENE_1
 62
    39
  6
CONTINUOUS
 66
     1
 40
0.003000
 41
0.003000
 70
     1
  0
VERTEX
  8
EBENE_1
 62
    39
  6
CONTINUOUS
 10
0.327563
 20
0.011429
  0
VERTEX
  8
EBENE_1
 62
    39
  6
CONTINUOUS
 10
0.330817
 20
0.012329
  0
VERTEX
  8
EBENE_1
 62
    39
  6
CONTINUOUS
 10
0.333119
 20
0.014816
  0
VERTEX
  8
EBENE_1
 62
    39
  6
CONTINUOUS
 10
0.333992
 20
0.018571
  0
VERTEX
  8
EBENE_1
 62
    39
  6
CONTINUOUS
 10
0.333119
 20
0.021825
  0
VERTEX
  8
EBENE_1
 62
    39
  6
CONTINUOUS
 10
0.330817
 20
0.024127
  0
VERTEX
  8
EBENE_1
 62
    39
  6
CONTINUOUS
 10
0.327563
 20
0.025000
  0
VERTEX
  8
EBENE_1
 62
    39
  6
CONTINUOUS
 10
0.324124
 20
0.024127
  0
VERTEX
  8
EBENE_1
 62
    39
  6
CONTINUOUS
 10
0.321479
 20
0.021825
  0
VERTEX
  8
EBENE_1
 62
    39
  6
CONTINUOUS
 10
0.320421
 20
0.018571
  0
VERTEX
  8
EBENE_1
 62
    39
  6
CONTINUOUS
 10
0.321479
 20
0.014816
  0
VERTEX
  8
EBENE_1
 62
    39
  6
CONTINUOUS
 10
0.324124
 20
0.012329
  0
SEQEND
  8
0
  0
POLYLINE
  8
EBENE_1
 62
    39
  6
CONTINUOUS
 66
     1
 40
0.003000
 41
0.003000
 70
     1
  0
VERTEX
  8
EBENE_1
 62
    39
  6
CONTINUOUS
 10
0.551819
 20
0.091417
  0
VERTEX
  8
EBENE_1
 62
    39
  6
CONTINUOUS
 10
0.740366
 20
-0.218535
  0
VERTEX
  8
EBENE_1
 62
    39
  6
CONTINUOUS
 10
0.542535
 20
-0.269957
  0
VERTEX
  8
EBENE_1
 62
    39
  6
CONTINUOUS
 10
0.534816
 20
-0.271295
  0
VERTEX
  8
EBENE_1
 62
    39
  6
CONTINUOUS
 10
0.526326
 20
-0.271914
  0
VERTEX
  8
EBENE_1
 62
    39
  6
CONTINUOUS
 10
0.517126
 20
-0.271817
  0
VERTEX
  8
EBENE_1
 62
    39
  6
CONTINUOUS
 10
0.507275
 20
-0.271010
  0
VERTEX
  8
EBENE_1
 62
    39
  6
CONTINUOUS
 10
0.496834
 20
-0.269496
  0
VERTEX
  8
EBENE_1
 62
    39
  6
CONTINUOUS
 10
0.485864
 20
-0.267280
  0
VERTEX
  8
EBENE_1
 62
    39
  6
CONTINUOUS
 10
0.474423
 20
-0.264366
  0
VERTEX
  8
EBENE_1
 62
    39
  6
CONTINUOUS
 10
0.462572
 20
-0.260757
  0
VERTEX
  8
EBENE_1
 62
    39
  6
CONTINUOUS
 10
0.450372
 20
-0.256459
  0
VERTEX
  8
EBENE_1
 62
    39
  6
CONTINUOUS
 10
0.437882
 20
-0.251475
  0
VERTEX
  8
EBENE_1
 62
    39
  6
CONTINUOUS
 10
0.425162
 20
-0.245810
  0
VERTEX
  8
EBENE_1
 62
    39
  6
CONTINUOUS
 10
0.412273
 20
-0.239468
  0
VERTEX
  8
EBENE_1
 62
    39
  6
CONTINUOUS
 10
0.399274
 20
-0.232452
  0
VERTEX
  8
EBENE_1
 62
    39
  6
CONTINUOUS
 10
0.386226
 20
-0.224769
  0
VERTEX
  8
EBENE_1
 62
    39
  6
CONTINUOUS
 10
0.373188
 20
-0.216420
  0
VERTEX
  8
EBENE_1
 62
    39
  6
CONTINUOUS
 10
0.360221
 20
-0.207412
  0
VERTEX
  8
EBENE_1
 62
    39
  6
CONTINUOUS
 10
0.347386
 20
-0.197747
  0
VERTEX
  8
EBENE_1
 62
    39
  6
CONTINUOUS
 10
0.334741
 20
-0.187430
  0
VERTEX
  8
EBENE_1
 62
    39
  6
CONTINUOUS
 10
0.322347
 20
-0.176466
  0
VERTEX
  8
EBENE_1
 62
    39
  6
CONTINUOUS
 10
0.310264
 20
-0.164859
  0
VERTEX
  8
EBENE_1
 62
    39
  6
CONTINUOUS
 10
0.298553
 20
-0.152612
  0
VERTEX
  8
EBENE_1
 62
    39
  6
CONTINUOUS
 10
0.287273
 20
-0.139730
  0
VERTEX
  8
EBENE_1
 62
    39
  6
CONTINUOUS
 10
0.276484
 20
-0.126218
  0
VERTEX
  8
EBENE_1
 62
    39
  6
CONTINUOUS
 10
0.266247
 20
-0.112079
  0
VERTEX
  8
EBENE_1
 62
    39
  6
CONTINUOUS
 10
0.256622
 20
-0.097318
  0
VERTEX
  8
EBENE_1
 62
    39
  6
CONTINUOUS
 10
0.247668
 20
-0.081938
  0
VERTEX
  8
EBENE_1
 62
    39
  6
CONTINUOUS
 10
0.239446
 20
-0.065945
  0
VERTEX
  8
EBENE_1
 62
    39
  6
CONTINUOUS
 10
0.232015
 20
-0.049342
  0
VERTEX
  8
EBENE_1
 62
    39
  6
CONTINUOUS
 10
0.225437
 20
-0.032134
  0
VERTEX
  8
EBENE_1
 62
    39
  6
CONTINUOUS
 10
0.225437
 20
-0.032134
  0
VERTEX
  8
EBENE_1
 62
    39
  6
CONTINUOUS
 10
0.222750
 20
-0.010974
  0
VERTEX
  8
EBENE_1
 62
    39
  6
CONTINUOUS
 10
0.223093
 20
0.008463
  0
VERTEX
  8
EBENE_1
 62
    39
  6
CONTINUOUS
 10
0.226215
 20
0.025990
  0
VERTEX
  8
EBENE_1
 62
    39
  6
CONTINUOUS
 10
0.231864
 20
0.041426
  0
VERTEX
  8
EBENE_1
 62
    39
  6
CONTINUOUS
 10
0.239790
 20
0.054585
  0
VERTEX
  8
EBENE_1
 62
    39
  6
CONTINUOUS
 10
0.249742
 20
0.065283
  0
VERTEX
  8
EBENE_1
 62
    39
  6
CONTINUOUS
 10
0.261468
 20
0.073337
  0
VERTEX
  8
EBENE_1
 62
    39
  6
CONTINUOUS
 10
0.274717
 20
0.078563
  0
VERTEX
  8
EBENE_1
 62
    39
  6
CONTINUOUS
 10
0.480402
 20
0.133555
  0
VERTEX
  8
EBENE_1
 62
    39
  6
CONTINUOUS
 10
0.501067
 20
0.136386
  0
VERTEX
  8
EBENE_1
 62
    39
  6
CONTINUOUS
 10
0.515265
 20
0.132630
  0
VERTEX
  8
EBENE_1
 62
    39
  6
CONTINUOUS
 10
0.525217
 20
0.124271
  0
VERTEX
  8
EBENE_1
 62
    39
  6
CONTINUOUS
 10
0.533145
 20
0.113293
  0
VERTEX
  8
EBENE_1
 62
    39
  6
CONTINUOUS
 10
0.541272
 20
0.101680
  0
SEQEND
  8
0
  0
POLYLINE
  8
EBENE_1
 62
    39
  6
CONTINUOUS
 66
     1
 40
0.003000
 41
0.003000
 70
     1
  0
VERTEX
  8
EBENE_1
 62
    39
  6
CONTINUOUS
 10
0.551819
 20
0.089988
  0
VERTEX
  8
EBENE_1
 62
    39
  6
CONTINUOUS
 10
0.737508
 20
-0.214965
  0
VERTEX
  8
EBENE_1
 62
    39
  6
CONTINUOUS
 10
0.542535
 20
-0.265673
  0
VERTEX
  8
EBENE_1
 62
    39
  6
CONTINUOUS
 10
0.534684
 20
-0.266978
  0
VERTEX
  8
EBENE_1
 62
    39
  6
CONTINUOUS
 10
0.526018
 20
-0.267527
  0
VERTEX
  8
EBENE_1
 62
    39
  6
CONTINUOUS
 10
0.516604
 20
-0.267325
  0
VERTEX
  8
EBENE_1
 62
    39
  6
CONTINUOUS
 10
0.506508
 20
-0.266377
  0
VERTEX
  8
EBENE_1
 62
    39
  6
CONTINUOUS
 10
0.495794
 20
-0.264687
  0
VERTEX
  8
EBENE_1
 62
    39
  6
CONTINUOUS
 10
0.484530
 20
-0.262260
  0
VERTEX
  8
EBENE_1
 62
    39
  6
CONTINUOUS
 10
0.472780
 20
-0.259100
  0
VERTEX
  8
EBENE_1
 62
    39
  6
CONTINUOUS
 10
0.460611
 20
-0.255212
  0
VERTEX
  8
EBENE_1
 62
    39
  6
CONTINUOUS
 10
0.448087
 20
-0.250600
  0
VERTEX
  8
EBENE_1
 62
    39
  6
CONTINUOUS
 10
0.435276
 20
-0.245269
  0
VERTEX
  8
EBENE_1
 62
    39
  6
CONTINUOUS
 10
0.422243
 20
-0.239222
  0
VERTEX
  8
EBENE_1
 62
    39
  6
CONTINUOUS
 10
0.409054
 20
-0.232466
  0
VERTEX
  8
EBENE_1
 62
    39
  6
CONTINUOUS
 10
0.395774
 20
-0.225003
  0
VERTEX
  8
EBENE_1
 62
    39
  6
CONTINUOUS
 10
0.382469
 20
-0.216840
  0
VERTEX
  8
EBENE_1
 62
    39
  6
CONTINUOUS
 10
0.369205
 20
-0.207979
  0
VERTEX
  8
EBENE_1
 62
    39
  6
CONTINUOUS
 10
0.356048
 20
-0.198426
  0
VERTEX
  8
EBENE_1
 62
    39
  6
CONTINUOUS
 10
0.343064
 20
-0.188185
  0
VERTEX
  8
EBENE_1
 62
    39
  6
CONTINUOUS
 10
0.330317
 20
-0.177260
  0
VERTEX
  8
EBENE_1
 62
    39
  6
CONTINUOUS
 10
0.317875
 20
-0.165657
  0
VERTEX
  8
EBENE_1
 62
    39
  6
CONTINUOUS
 10
0.305803
 20
-0.153379
  0
VERTEX
  8
EBENE_1
 62
    39
  6
CONTINUOUS
 10
0.294167
 20
-0.140432
  0
VERTEX
  8
EBENE_1
 62
    39
  6
CONTINUOUS
 10
0.283032
 20
-0.126819
  0
VERTEX
  8
EBENE_1
 62
    39
  6
CONTINUOUS
 10
0.272464
 20
-0.112545
  0
VERTEX
  8
EBENE_1
 62
    39
  6
CONTINUOUS
 10
0.262529
 20
-0.097614
  0
VERTEX
  8
EBENE_1
 62
    39
  6
CONTINUOUS
 10
0.253294
 20
-0.082032
  0
VERTEX
  8
EBENE_1
 62
    39
  6
CONTINUOUS
 10
0.244822
 20
-0.065802
  0
VERTEX
  8
EBENE_1
 62
    39
  6
CONTINUOUS
 10
0.237182
 20
-0.048929
  0
VERTEX
  8
EBENE_1
 62
    39
  6
CONTINUOUS
 10
0.230437
 20
-0.031417
  0
VERTEX
  8
EBENE_1
 62
    39
  6
CONTINUOUS
 10
0.230437
 20
-0.031417
  0
VERTEX
  8
EBENE_1
 62
    39
  6
CONTINUOUS
 10
0.227750
 20
-0.010731
  0
VERTEX
  8
EBENE_1
 62
    39
  6
CONTINUOUS
 10
0.228093
 20
0.008340
  0
VERTEX
  8
EBENE_1
 62
    39
  6
CONTINUOUS
 10
0.231215
 20
0.025587
  0
VERTEX
  8
EBENE_1
 62
    39
  6
CONTINUOUS
 10
0.236864
 20
0.040801
  0
VERTEX
  8
EBENE_1
 62
    39
  6
CONTINUOUS
 10
0.244790
 20
0.053771
  0
VERTEX
  8
EBENE_1
 62
    39
  6
CONTINUOUS
 10
0.254742
 20
0.064290
  0
VERTEX
  8
EBENE_1
 62
    39
  6
CONTINUOUS
 10
0.266468
 20
0.072147
  0
VERTEX
  8
EBENE_1
 62
    39
  6
CONTINUOUS
 10
0.279717
 20
0.077134
  0
VERTEX
  8
EBENE_1
 62
    39
  6
CONTINUOUS
 10
0.481831
 20
0.131413
  0
VERTEX
  8
EBENE_1
 62
    39
  6
CONTINUOUS
 10
0.502141
 20
0.134048
  0
VERTEX
  8
EBENE_1
 62
    39
  6
CONTINUOUS
 10
0.516005
 20
0.130355
  0
VERTEX
  8
EBENE_1
 62
    39
  6
CONTINUOUS
 10
0.525662
 20
0.122218
  0
VERTEX
  8
EBENE_1
 62
    39
  6
CONTINUOUS
 10
0.533356
 20
0.111522
  0
VERTEX
  8
EBENE_1
 62
    39
  6
CONTINUOUS
 10
0.541328
 20
0.100150
  0
SEQEND
  8
0
  0
POLYLINE
  8
EBENE_1
 62
    39
  6
CONTINUOUS
 66
     1
 40
0.003000
 41
0.003000
 70
     1
  0
VERTEX
  8
EBENE_1
 62
    39
  6
CONTINUOUS
 10
0.386130
 20
0.075705
  0
VERTEX
  8
EBENE_1
 62
    39
  6
CONTINUOUS
 10
0.389885
 20
0.076604
  0
VERTEX
  8
EBENE_1
 62
    39
  6
CONTINUOUS
 10
0.392372
 20
0.079091
  0
VERTEX
  8
EBENE_1
 62
    39
  6
CONTINUOUS
 10
0.393272
 20
0.082846
  0
VERTEX
  8
EBENE_1
 62
    39
  6
CONTINUOUS
 10
0.392372
 20
0.086100
  0
VERTEX
  8
EBENE_1
 62
    39
  6
CONTINUOUS
 10
0.389885
 20
0.088402
  0
VERTEX
  8
EBENE_1
 62
    39
  6
CONTINUOUS
 10
0.386130
 20
0.089276
  0
VERTEX
  8
EBENE_1
 62
    39
  6
CONTINUOUS
 10
0.382876
 20
0.088402
  0
VERTEX
  8
EBENE_1
 62
    39
  6
CONTINUOUS
 10
0.380574
 20
0.086100
  0
VERTEX
  8
EBENE_1
 62
    39
  6
CONTINUOUS
 10
0.379701
 20
0.082846
  0
VERTEX
  8
EBENE_1
 62
    39
  6
CONTINUOUS
 10
0.380574
 20
0.079091
  0
VERTEX
  8
EBENE_1
 62
    39
  6
CONTINUOUS
 10
0.382876
 20
0.076604
  0
SEQEND
  8
0
  0
POLYLINE
  8
EBENE_1
 62
    39
  6
CONTINUOUS
 66
     1
 40
0.003000
 41
0.003000
 70
     1
  0
VERTEX
  8
EBENE_1
 62
    39
  6
CONTINUOUS
 10
0.458976
 20
0.091417
  0
VERTEX
  8
EBENE_1
 62
    39
  6
CONTINUOUS
 10
0.462230
 20
0.092291
  0
VERTEX
  8
EBENE_1
 62
    39
  6
CONTINUOUS
 10
0.464532
 20
0.094593
  0
VERTEX
  8
EBENE_1
 62
    39
  6
CONTINUOUS
 10
0.465406
 20
0.097846
  0
VERTEX
  8
EBENE_1
 62
    39
  6
CONTINUOUS
 10
0.464532
 20
0.101602
  0
VERTEX
  8
EBENE_1
 62
    39
  6
CONTINUOUS
 10
0.462230
 20
0.104089
  0
VERTEX
  8
EBENE_1
 62
    39
  6
CONTINUOUS
 10
0.458976
 20
0.104988
  0
VERTEX
  8
EBENE_1
 62
    39
  6
CONTINUOUS
 10
0.455221
 20
0.104089
  0
VERTEX
  8
EBENE_1
 62
    39
  6
CONTINUOUS
 10
0.452734
 20
0.101602
  0
VERTEX
  8
EBENE_1
 62
    39
  6
CONTINUOUS
 10
0.451835
 20
0.097846
  0
VERTEX
  8
EBENE_1
 62
    39
  6
CONTINUOUS
 10
0.452734
 20
0.094593
  0
VERTEX
  8
EBENE_1
 62
    39
  6
CONTINUOUS
 10
0.455221
 20
0.092291
  0
SEQEND
  8
0
  0
POLYLINE
  8
EBENE_1
 62
    39
  6
CONTINUOUS
 66
     1
 40
0.003000
 41
0.003000
 70
     1
  0
VERTEX
  8
EBENE_1
 62
    39
  6
CONTINUOUS
 10
0.529681
 20
0.064280
  0
VERTEX
  8
EBENE_1
 62
    39
  6
CONTINUOUS
 10
0.532934
 20
0.065152
  0
VERTEX
  8
EBENE_1
 62
    39
  6
CONTINUOUS
 10
0.535234
 20
0.067452
  0
VERTEX
  8
EBENE_1
 62
    39
  6
CONTINUOUS
 10
0.536106
 20
0.070705
  0
VERTEX
  8
EBENE_1
 62
    39
  6
CONTINUOUS
 10
0.535234
 20
0.074462
  0
VERTEX
  8
EBENE_1
 62
    39
  6
CONTINUOUS
 10
0.532934
 20
0.076948
  0
VERTEX
  8
EBENE_1
 62
    39
  6
CONTINUOUS
 10
0.529681
 20
0.077846
  0
VERTEX
  8
EBENE_1
 62
    39
  6
CONTINUOUS
 10
0.525924
 20
0.076948
  0
VERTEX
  8
EBENE_1
 62
    39
  6
CONTINUOUS
 10
0.523438
 20
0.074462
  0
VERTEX
  8
EBENE_1
 62
    39
  6
CONTINUOUS
 10
0.522539
 20
0.070705
  0
VERTEX
  8
EBENE_1
 62
    39
  6
CONTINUOUS
 10
0.523438
 20
0.067452
  0
VERTEX
  8
EBENE_1
 62
    39
  6
CONTINUOUS
 10
0.525924
 20
0.065152
  0
SEQEND
  8
0
  0
POLYLINE
  8
EBENE_1
 62
    39
  6
CONTINUOUS
 66
     1
 40
0.003000
 41
0.003000
 70
     1
  0
VERTEX
  8
EBENE_1
 62
    39
  6
CONTINUOUS
 10
0.753220
 20
0.143555
  0
VERTEX
  8
EBENE_1
 62
    39
  6
CONTINUOUS
 10
0.942480
 20
-0.165685
  0
VERTEX
  8
EBENE_1
 62
    39
  6
CONTINUOUS
 10
0.744650
 20
-0.217106
  0
VERTEX
  8
EBENE_1
 62
    39
  6
CONTINUOUS
 10
0.736928
 20
-0.218444
  0
VERTEX
  8
EBENE_1
 62
    39
  6
CONTINUOUS
 10
0.728431
 20
-0.219063
  0
VERTEX
  8
EBENE_1
 62
    39
  6
CONTINUOUS
 10
0.719219
 20
-0.218967
  0
VERTEX
  8
EBENE_1
 62
    39
  6
CONTINUOUS
 10
0.709354
 20
-0.218160
  0
VERTEX
  8
EBENE_1
 62
    39
  6
CONTINUOUS
 10
0.698896
 20
-0.216646
  0
VERTEX
  8
EBENE_1
 62
    39
  6
CONTINUOUS
 10
0.687905
 20
-0.214430
  0
VERTEX
  8
EBENE_1
 62
    39
  6
CONTINUOUS
 10
0.676442
 20
-0.211515
  0
VERTEX
  8
EBENE_1
 62
    39
  6
CONTINUOUS
 10
0.664568
 20
-0.207907
  0
VERTEX
  8
EBENE_1
 62
    39
  6
CONTINUOUS
 10
0.652343
 20
-0.203609
  0
VERTEX
  8
EBENE_1
 62
    39
  6
CONTINUOUS
 10
0.639828
 20
-0.198625
  0
VERTEX
  8
EBENE_1
 62
    39
  6
CONTINUOUS
 10
0.627084
 20
-0.192960
  0
VERTEX
  8
EBENE_1
 62
    39
  6
CONTINUOUS
 10
0.614171
 20
-0.186618
  0
VERTEX
  8
EBENE_1
 62
    39
  6
CONTINUOUS
 10
0.601150
 20
-0.179602
  0
VERTEX
  8
EBENE_1
 62
    39
  6
CONTINUOUS
 10
0.588081
 20
-0.171919
  0
VERTEX
  8
EBENE_1
 62
    39
  6
CONTINUOUS
 10
0.575025
 20
-0.163570
  0
VERTEX
  8
EBENE_1
 62
    39
  6
CONTINUOUS
 10
0.562042
 20
-0.154562
  0
VERTEX
  8
EBENE_1
 62
    39
  6
CONTINUOUS
 10
0.549194
 20
-0.144897
  0
VERTEX
  8
EBENE_1
 62
    39
  6
CONTINUOUS
 10
0.536541
 20
-0.134581
  0
VERTEX
  8
EBENE_1
 62
    39
  6
CONTINUOUS
 10
0.524143
 20
-0.123617
  0
VERTEX
  8
EBENE_1
 62
    39
  6
CONTINUOUS
 10
0.512061
 20
-0.112010
  0
VERTEX
  8
EBENE_1
 62
    39
  6
CONTINUOUS
 10
0.500356
 20
-0.099763
  0
VERTEX
  8
EBENE_1
 62
    39
  6
CONTINUOUS
 10
0.489089
 20
-0.086882
  0
VERTEX
  8
EBENE_1
 62
    39
  6
CONTINUOUS
 10
0.478319
 20
-0.073369
  0
VERTEX
  8
EBENE_1
 62
    39
  6
CONTINUOUS
 10
0.468108
 20
-0.059231
  0
VERTEX
  8
EBENE_1
 62
    39
  6
CONTINUOUS
 10
0.458516
 20
-0.044470
  0
VERTEX
  8
EBENE_1
 62
    39
  6
CONTINUOUS
 10
0.449603
 20
-0.029091
  0
VERTEX
  8
EBENE_1
 62
    39
  6
CONTINUOUS
 10
0.441431
 20
-0.013098
  0
VERTEX
  8
EBENE_1
 62
    39
  6
CONTINUOUS
 10
0.434060
 20
0.003505
  0
VERTEX
  8
EBENE_1
 62
    39
  6
CONTINUOUS
 10
0.427551
 20
0.020713
  0
VERTEX
  8
EBENE_1
 62
    39
  6
CONTINUOUS
 10
0.427551
 20
0.020713
  0
VERTEX
  8
EBENE_1
 62
    39
  6
CONTINUOUS
 10
0.424659
 20
0.041873
  0
VERTEX
  8
EBENE_1
 62
    39
  6
CONTINUOUS
 10
0.424906
 20
0.061310
  0
VERTEX
  8
EBENE_1
 62
    39
  6
CONTINUOUS
 10
0.428016
 20
0.078838
  0
VERTEX
  8
EBENE_1
 62
    39
  6
CONTINUOUS
 10
0.433711
 20
0.094274
  0
VERTEX
  8
EBENE_1
 62
    39
  6
CONTINUOUS
 10
0.441717
 20
0.107434
  0
VERTEX
  8
EBENE_1
 62
    39
  6
CONTINUOUS
 10
0.451756
 20
0.118133
  0
VERTEX
  8
EBENE_1
 62
    39
  6
CONTINUOUS
 10
0.463553
 20
0.126188
  0
VERTEX
  8
EBENE_1
 62
    39
  6
CONTINUOUS
 10
0.476831
 20
0.131413
  0
VERTEX
  8
EBENE_1
 62
    39
  6
CONTINUOUS
 10
0.682516
 20
0.186406
  0
VERTEX
  8
EBENE_1
 62
    39
  6
CONTINUOUS
 10
0.703178
 20
0.188984
  0
VERTEX
  8
EBENE_1
 62
    39
  6
CONTINUOUS
 10
0.717352
 20
0.185135
  0
VERTEX
  8
EBENE_1
 62
    39
  6
CONTINUOUS
 10
0.727242
 20
0.176763
  0
VERTEX
  8
EBENE_1
 62
    39
  6
CONTINUOUS
 10
0.735048
 20
0.165773
  0
VERTEX
  8
EBENE_1
 62
    39
  6
CONTINUOUS
 10
0.742974
 20
0.154069
  0
SEQEND
  8
0
  0
POLYLINE
  8
EBENE_1
 62
    39
  6
CONTINUOUS
 66
     1
 40
0.003000
 41
0.003000
 70
     1
  0
VERTEX
  8
EBENE_1
 62
    39
  6
CONTINUOUS
 10
0.753220
 20
0.142839
  0
VERTEX
  8
EBENE_1
 62
    39
  6
CONTINUOUS
 10
0.939626
 20
-0.162114
  0
VERTEX
  8
EBENE_1
 62
    39
  6
CONTINUOUS
 10
0.744650
 20
-0.212823
  0
VERTEX
  8
EBENE_1
 62
    39
  6
CONTINUOUS
 10
0.737080
 20
-0.214095
  0
VERTEX
  8
EBENE_1
 62
    39
  6
CONTINUOUS
 10
0.728745
 20
-0.214663
  0
VERTEX
  8
EBENE_1
 62
    39
  6
CONTINUOUS
 10
0.719705
 20
-0.214530
  0
VERTEX
  8
EBENE_1
 62
    39
  6
CONTINUOUS
 10
0.710017
 20
-0.213702
  0
VERTEX
  8
EBENE_1
 62
    39
  6
CONTINUOUS
 10
0.699744
 20
-0.212181
  0
VERTEX
  8
EBENE_1
 62
    39
  6
CONTINUOUS
 10
0.688943
 20
-0.209973
  0
VERTEX
  8
EBENE_1
 62
    39
  6
CONTINUOUS
 10
0.677676
 20
-0.207080
  0
VERTEX
  8
EBENE_1
 62
    39
  6
CONTINUOUS
 10
0.666001
 20
-0.203507
  0
VERTEX
  8
EBENE_1
 62
    39
  6
CONTINUOUS
 10
0.653979
 20
-0.199259
  0
VERTEX
  8
EBENE_1
 62
    39
  6
CONTINUOUS
 10
0.641669
 20
-0.194339
  0
VERTEX
  8
EBENE_1
 62
    39
  6
CONTINUOUS
 10
0.629131
 20
-0.188751
  0
VERTEX
  8
EBENE_1
 62
    39
  6
CONTINUOUS
 10
0.616425
 20
-0.182499
  0
VERTEX
  8
EBENE_1
 62
    39
  6
CONTINUOUS
 10
0.603610
 20
-0.175587
  0
VERTEX
  8
EBENE_1
 62
    39
  6
CONTINUOUS
 10
0.590746
 20
-0.168019
  0
VERTEX
  8
EBENE_1
 62
    39
  6
CONTINUOUS
 10
0.577893
 20
-0.159800
  0
VERTEX
  8
EBENE_1
 62
    39
  6
CONTINUOUS
 10
0.565111
 20
-0.150934
  0
VERTEX
  8
EBENE_1
 62
    39
  6
CONTINUOUS
 10
0.552459
 20
-0.141423
  0
VERTEX
  8
EBENE_1
 62
    39
  6
CONTINUOUS
 10
0.539997
 20
-0.131274
  0
VERTEX
  8
EBENE_1
 62
    39
  6
CONTINUOUS
 10
0.527785
 20
-0.120488
  0
VERTEX
  8
EBENE_1
 62
    39
  6
CONTINUOUS
 10
0.515883
 20
-0.109071
  0
VERTEX
  8
EBENE_1
 62
    39
  6
CONTINUOUS
 10
0.504350
 20
-0.097027
  0
VERTEX
  8
EBENE_1
 62
    39
  6
CONTINUOUS
 10
0.493246
 20
-0.084360
  0
VERTEX
  8
EBENE_1
 62
    39
  6
CONTINUOUS
 10
0.482631
 20
-0.071073
  0
VERTEX
  8
EBENE_1
 62
    39
  6
CONTINUOUS
 10
0.472565
 20
-0.057170
  0
VERTEX
  8
EBENE_1
 62
    39
  6
CONTINUOUS
 10
0.463106
 20
-0.042657
  0
VERTEX
  8
EBENE_1
 62
    39
  6
CONTINUOUS
 10
0.454316
 20
-0.027536
  0
VERTEX
  8
EBENE_1
 62
    39
  6
CONTINUOUS
 10
0.446254
 20
-0.011812
  0
VERTEX
  8
EBENE_1
 62
    39
  6
CONTINUOUS
 10
0.438979
 20
0.004511
  0
VERTEX
  8
EBENE_1
 62
    39
  6
CONTINUOUS
 10
0.432551
 20
0.021429
  0
VERTEX
  8
EBENE_1
 62
    39
  6
CONTINUOUS
 10
0.432551
 20
0.021429
  0
VERTEX
  8
EBENE_1
 62
    39
  6
CONTINUOUS
 10
0.429864
 20
0.042087
  0
VERTEX
  8
EBENE_1
 62
    39
  6
CONTINUOUS
 10
0.430197
 20
0.061088
  0
VERTEX
  8
EBENE_1
 62
    39
  6
CONTINUOUS
 10
0.433293
 20
0.078248
  0
VERTEX
  8
EBENE_1
 62
    39
  6
CONTINUOUS
 10
0.438890
 20
0.093382
  0
VERTEX
  8
EBENE_1
 62
    39
  6
CONTINUOUS
 10
0.446731
 20
0.106307
  0
VERTEX
  8
EBENE_1
 62
    39
  6
CONTINUOUS
 10
0.456554
 20
0.116838
  0
VERTEX
  8
EBENE_1
 62
    39
  6
CONTINUOUS
 10
0.468102
 20
0.124792
  0
VERTEX
  8
EBENE_1
 62
    39
  6
CONTINUOUS
 10
0.481114
 20
0.129984
  0
VERTEX
  8
EBENE_1
 62
    39
  6
CONTINUOUS
 10
0.683945
 20
0.184264
  0
VERTEX
  8
EBENE_1
 62
    39
  6
CONTINUOUS
 10
0.704005
 20
0.186898
  0
VERTEX
  8
EBENE_1
 62
    39
  6
CONTINUOUS
 10
0.717776
 20
0.183205
  0
VERTEX
  8
EBENE_1
 62
    39
  6
CONTINUOUS
 10
0.727420
 20
0.175067
  0
VERTEX
  8
EBENE_1
 62
    39
  6
CONTINUOUS
 10
0.735101
 20
0.164370
  0
VERTEX
  8
EBENE_1
 62
    39
  6
CONTINUOUS
 10
0.742980
 20
0.152999
  0
SEQEND
  8
0
  0
POLYLINE
  8
EBENE_1
 62
    39
  6
CONTINUOUS
 66
     1
 40
0.003000
 41
0.003000
 70
     1
  0
VERTEX
  8
EBENE_1
 62
    39
  6
CONTINUOUS
 10
0.588244
 20
0.128555
  0
VERTEX
  8
EBENE_1
 62
    39
  6
CONTINUOUS
 10
0.591683
 20
0.129428
  0
VERTEX
  8
EBENE_1
 62
    39
  6
CONTINUOUS
 10
0.594328
 20
0.131730
  0
VERTEX
  8
EBENE_1
 62
    39
  6
CONTINUOUS
 10
0.595386
 20
0.134984
  0
VERTEX
  8
EBENE_1
 62
    39
  6
CONTINUOUS
 10
0.594328
 20
0.138740
  0
VERTEX
  8
EBENE_1
 62
    39
  6
CONTINUOUS
 10
0.591683
 20
0.141226
  0
VERTEX
  8
EBENE_1
 62
    39
  6
CONTINUOUS
 10
0.588244
 20
0.142126
  0
VERTEX
  8
EBENE_1
 62
    39
  6
CONTINUOUS
 10
0.584990
 20
0.141226
  0
VERTEX
  8
EBENE_1
 62
    39
  6
CONTINUOUS
 10
0.582688
 20
0.138740
  0
VERTEX
  8
EBENE_1
 62
    39
  6
CONTINUOUS
 10
0.581815
 20
0.134984
  0
VERTEX
  8
EBENE_1
 62
    39
  6
CONTINUOUS
 10
0.582688
 20
0.131730
  0
VERTEX
  8
EBENE_1
 62
    39
  6
CONTINUOUS
 10
0.584990
 20
0.129428
  0
SEQEND
  8
0
  0
POLYLINE
  8
EBENE_1
 62
    39
  6
CONTINUOUS
 66
     1
 40
0.003000
 41
0.003000
 70
     1
  0
VERTEX
  8
EBENE_1
 62
    39
  6
CONTINUOUS
 10
0.660378
 20
0.144268
  0
VERTEX
  8
EBENE_1
 62
    39
  6
CONTINUOUS
 10
0.664133
 20
0.145141
  0
VERTEX
  8
EBENE_1
 62
    39
  6
CONTINUOUS
 10
0.666620
 20
0.147443
  0
VERTEX
  8
EBENE_1
 62
    39
  6
CONTINUOUS
 10
0.667520
 20
0.150697
  0
VERTEX
  8
EBENE_1
 62
    39
  6
CONTINUOUS
 10
0.666620
 20
0.154135
  0
VERTEX
  8
EBENE_1
 62
    39
  6
CONTINUOUS
 10
0.664133
 20
0.156781
  0
VERTEX
  8
EBENE_1
 62
    39
  6
CONTINUOUS
 10
0.660378
 20
0.157839
  0
VERTEX
  8
EBENE_1
 62
    39
  6
CONTINUOUS
 10
0.657124
 20
0.156781
  0
VERTEX
  8
EBENE_1
 62
    39
  6
CONTINUOUS
 10
0.654822
 20
0.154135
  0
VERTEX
  8
EBENE_1
 62
    39
  6
CONTINUOUS
 10
0.653949
 20
0.150697
  0
VERTEX
  8
EBENE_1
 62
    39
  6
CONTINUOUS
 10
0.654822
 20
0.147443
  0
VERTEX
  8
EBENE_1
 62
    39
  6
CONTINUOUS
 10
0.657124
 20
0.145141
  0
SEQEND
  8
0
  0
POLYLINE
  8
EBENE_1
 62
    39
  6
CONTINUOUS
 66
     1
 40
0.003000
 41
0.003000
 70
     1
  0
VERTEX
  8
EBENE_1
 62
    39
  6
CONTINUOUS
 10
0.731083
 20
0.117130
  0
VERTEX
  8
EBENE_1
 62
    39
  6
CONTINUOUS
 10
0.734838
 20
0.118002
  0
VERTEX
  8
EBENE_1
 62
    39
  6
CONTINUOUS
 10
0.737325
 20
0.120302
  0
VERTEX
  8
EBENE_1
 62
    39
  6
CONTINUOUS
 10
0.738224
 20
0.123555
  0
VERTEX
  8
EBENE_1
 62
    39
  6
CONTINUOUS
 10
0.737325
 20
0.126994
  0
VERTEX
  8
EBENE_1
 62
    39
  6
CONTINUOUS
 10
0.734838
 20
0.129639
  0
VERTEX
  8
EBENE_1
 62
    39
  6
CONTINUOUS
 10
0.731083
 20
0.130697
  0
VERTEX
  8
EBENE_1
 62
    39
  6
CONTINUOUS
 10
0.727829
 20
0.129639
  0
VERTEX
  8
EBENE_1
 62
    39
  6
CONTINUOUS
 10
0.725527
 20
0.126994
  0
VERTEX
  8
EBENE_1
 62
    39
  6
CONTINUOUS
 10
0.724654
 20
0.123555
  0
VERTEX
  8
EBENE_1
 62
    39
  6
CONTINUOUS
 10
0.725527
 20
0.120302
  0
VERTEX
  8
EBENE_1
 62
    39
  6
CONTINUOUS
 10
0.727829
 20
0.118002
  0
SEQEND
  8
0
  0
POLYLINE
  8
EBENE_1
 62
    39
  6
CONTINUOUS
 66
     1
 40
0.003000
 41
0.003000
 70
     1
  0
VERTEX
  8
EBENE_1
 62
    39
  6
CONTINUOUS
 10
0.957480
 20
0.192835
  0
VERTEX
  8
EBENE_1
 62
    39
  6
CONTINUOUS
 10
1.146024
 20
-0.116406
  0
VERTEX
  8
EBENE_1
 62
    39
  6
CONTINUOUS
 10
0.948193
 20
-0.167827
  0
VERTEX
  8
EBENE_1
 62
    39
  6
CONTINUOUS
 10
0.940471
 20
-0.169165
  0
VERTEX
  8
EBENE_1
 62
    39
  6
CONTINUOUS
 10
0.931974
 20
-0.169784
  0
VERTEX
  8
EBENE_1
 62
    39
  6
CONTINUOUS
 10
0.922763
 20
-0.169688
  0
VERTEX
  8
EBENE_1
 62
    39
  6
CONTINUOUS
 10
0.912897
 20
-0.168880
  0
VERTEX
  8
EBENE_1
 62
    39
  6
CONTINUOUS
 10
0.902439
 20
-0.167367
  0
VERTEX
  8
EBENE_1
 62
    39
  6
CONTINUOUS
 10
0.891448
 20
-0.165151
  0
VERTEX
  8
EBENE_1
 62
    39
  6
CONTINUOUS
 10
0.879985
 20
-0.162236
  0
VERTEX
  8
EBENE_1
 62
    39
  6
CONTINUOUS
 10
0.868111
 20
-0.158628
  0
VERTEX
  8
EBENE_1
 62
    39
  6
CONTINUOUS
 10
0.855887
 20
-0.154330
  0
VERTEX
  8
EBENE_1
 62
    39
  6
CONTINUOUS
 10
0.843372
 20
-0.149346
  0
VERTEX
  8
EBENE_1
 62
    39
  6
CONTINUOUS
 10
0.830627
 20
-0.143681
  0
VERTEX
  8
EBENE_1
 62
    39
  6
CONTINUOUS
 10
0.817714
 20
-0.137339
  0
VERTEX
  8
EBENE_1
 62
    39
  6
CONTINUOUS
 10
0.804693
 20
-0.130324
  0
VERTEX
  8
EBENE_1
 62
    39
  6
CONTINUOUS
 10
0.791624
 20
-0.122641
  0
VERTEX
  8
EBENE_1
 62
    39
  6
CONTINUOUS
 10
0.778568
 20
-0.114292
  0
VERTEX
  8
EBENE_1
 62
    39
  6
CONTINUOUS
 10
0.765586
 20
-0.105284
  0
VERTEX
  8
EBENE_1
 62
    39
  6
CONTINUOUS
 10
0.752737
 20
-0.095619
  0
VERTEX
  8
EBENE_1
 62
    39
  6
CONTINUOUS
 10
0.740084
 20
-0.085303
  0
VERTEX
  8
EBENE_1
 62
    39
  6
CONTINUOUS
 10
0.727686
 20
-0.074339
  0
VERTEX
  8
EBENE_1
 62
    39
  6
CONTINUOUS
 10
0.715605
 20
-0.062732
  0
VERTEX
  8
EBENE_1
 62
    39
  6
CONTINUOUS
 10
0.703900
 20
-0.050485
  0
VERTEX
  8
EBENE_1
 62
    39
  6
CONTINUOUS
 10
0.692632
 20
-0.037604
  0
VERTEX
  8
EBENE_1
 62
    39
  6
CONTINUOUS
 10
0.681862
 20
-0.024091
  0
VERTEX
  8
EBENE_1
 62
    39
  6
CONTINUOUS
 10
0.671651
 20
-0.009953
  0
VERTEX
  8
EBENE_1
 62
    39
  6
CONTINUOUS
 10
0.662059
 20
0.004809
  0
VERTEX
  8
EBENE_1
 62
    39
  6
CONTINUOUS
 10
0.653147
 20
0.020188
  0
VERTEX
  8
EBENE_1
 62
    39
  6
CONTINUOUS
 10
0.644975
 20
0.036181
  0
VERTEX
  8
EBENE_1
 62
    39
  6
CONTINUOUS
 10
0.637604
 20
0.052784
  0
VERTEX
  8
EBENE_1
 62
    39
  6
CONTINUOUS
 10
0.631094
 20
0.069992
  0
VERTEX
  8
EBENE_1
 62
    39
  6
CONTINUOUS
 10
0.631094
 20
0.069992
  0
VERTEX
  8
EBENE_1
 62
    39
  6
CONTINUOUS
 10
0.628203
 20
0.090948
  0
VERTEX
  8
EBENE_1
 62
    39
  6
CONTINUOUS
 10
0.628450
 20
0.110289
  0
VERTEX
  8
EBENE_1
 62
    39
  6
CONTINUOUS
 10
0.631559
 20
0.127804
  0
VERTEX
  8
EBENE_1
 62
    39
  6
CONTINUOUS
 10
0.637254
 20
0.143286
  0
VERTEX
  8
EBENE_1
 62
    39
  6
CONTINUOUS
 10
0.645260
 20
0.156525
  0
VERTEX
  8
EBENE_1
 62
    39
  6
CONTINUOUS
 10
0.655299
 20
0.167312
  0
VERTEX
  8
EBENE_1
 62
    39
  6
CONTINUOUS
 10
0.667096
 20
0.175438
  0
VERTEX
  8
EBENE_1
 62
    39
  6
CONTINUOUS
 10
0.680374
 20
0.180693
  0
VERTEX
  8
EBENE_1
 62
    39
  6
CONTINUOUS
 10
0.886059
 20
0.235685
  0
VERTEX
  8
EBENE_1
 62
    39
  6
CONTINUOUS
 10
0.906725
 20
0.238264
  0
VERTEX
  8
EBENE_1
 62
    39
  6
CONTINUOUS
 10
0.920923
 20
0.234415
  0
VERTEX
  8
EBENE_1
 62
    39
  6
CONTINUOUS
 10
0.930876
 20
0.226043
  0
VERTEX
  8
EBENE_1
 62
    39
  6
CONTINUOUS
 10
0.938805
 20
0.215052
  0
VERTEX
  8
EBENE_1
 62
    39
  6
CONTINUOUS
 10
0.946933
 20
0.203348
  0
SEQEND
  8
0
  0
POLYLINE
  8
EBENE_1
 62
    39
  6
CONTINUOUS
 66
     1
 40
0.003000
 41
0.003000
 70
     1
  0
VERTEX
  8
EBENE_1
 62
    39
  6
CONTINUOUS
 10
0.957480
 20
0.191406
  0
VERTEX
  8
EBENE_1
 62
    39
  6
CONTINUOUS
 10
1.143169
 20
-0.112835
  0
VERTEX
  8
EBENE_1
 62
    39
  6
CONTINUOUS
 10
0.948193
 20
-0.163543
  0
VERTEX
  8
EBENE_1
 62
    39
  6
CONTINUOUS
 10
0.940342
 20
-0.164848
  0
VERTEX
  8
EBENE_1
 62
    39
  6
CONTINUOUS
 10
0.931676
 20
-0.165397
  0
VERTEX
  8
EBENE_1
 62
    39
  6
CONTINUOUS
 10
0.922262
 20
-0.165195
  0
VERTEX
  8
EBENE_1
 62
    39
  6
CONTINUOUS
 10
0.912165
 20
-0.164247
  0
VERTEX
  8
EBENE_1
 62
    39
  6
CONTINUOUS
 10
0.901452
 20
-0.162558
  0
VERTEX
  8
EBENE_1
 62
    39
  6
CONTINUOUS
 10
0.890187
 20
-0.160131
  0
VERTEX
  8
EBENE_1
 62
    39
  6
CONTINUOUS
 10
0.878437
 20
-0.156971
  0
VERTEX
  8
EBENE_1
 62
    39
  6
CONTINUOUS
 10
0.866268
 20
-0.153083
  0
VERTEX
  8
EBENE_1
 62
    39
  6
CONTINUOUS
 10
0.853745
 20
-0.148471
  0
VERTEX
  8
EBENE_1
 62
    39
  6
CONTINUOUS
 10
0.840934
 20
-0.143140
  0
VERTEX
  8
EBENE_1
 62
    39
  6
CONTINUOUS
 10
0.827901
 20
-0.137094
  0
VERTEX
  8
EBENE_1
 62
    39
  6
CONTINUOUS
 10
0.814711
 20
-0.130338
  0
VERTEX
  8
EBENE_1
 62
    39
  6
CONTINUOUS
 10
0.801431
 20
-0.122876
  0
VERTEX
  8
EBENE_1
 62
    39
  6
CONTINUOUS
 10
0.788126
 20
-0.114712
  0
VERTEX
  8
EBENE_1
 62
    39
  6
CONTINUOUS
 10
0.774863
 20
-0.105852
  0
VERTEX
  8
EBENE_1
 62
    39
  6
CONTINUOUS
 10
0.761706
 20
-0.096299
  0
VERTEX
  8
EBENE_1
 62
    39
  6
CONTINUOUS
 10
0.748721
 20
-0.086058
  0
VERTEX
  8
EBENE_1
 62
    39
  6
CONTINUOUS
 10
0.735975
 20
-0.075134
  0
VERTEX
  8
EBENE_1
 62
    39
  6
CONTINUOUS
 10
0.723533
 20
-0.063531
  0
VERTEX
  8
EBENE_1
 62
    39
  6
CONTINUOUS
 10
0.711461
 20
-0.051254
  0
VERTEX
  8
EBENE_1
 62
    39
  6
CONTINUOUS
 10
0.699824
 20
-0.038307
  0
VERTEX
  8
EBENE_1
 62
    39
  6
CONTINUOUS
 10
0.688689
 20
-0.024694
  0
VERTEX
  8
EBENE_1
 62
    39
  6
CONTINUOUS
 10
0.678122
 20
-0.010420
  0
VERTEX
  8
EBENE_1
 62
    39
  6
CONTINUOUS
 10
0.668187
 20
0.004510
  0
VERTEX
  8
EBENE_1
 62
    39
  6
CONTINUOUS
 10
0.658951
 20
0.020092
  0
VERTEX
  8
EBENE_1
 62
    39
  6
CONTINUOUS
 10
0.650480
 20
0.036321
  0
VERTEX
  8
EBENE_1
 62
    39
  6
CONTINUOUS
 10
0.642839
 20
0.053194
  0
VERTEX
  8
EBENE_1
 62
    39
  6
CONTINUOUS
 10
0.636094
 20
0.070705
  0
VERTEX
  8
EBENE_1
 62
    39
  6
CONTINUOUS
 10
0.636094
 20
0.070705
  0
VERTEX
  8
EBENE_1
 62
    39
  6
CONTINUOUS
 10
0.633407
 20
0.091364
  0
VERTEX
  8
EBENE_1
 62
    39
  6
CONTINUOUS
 10
0.633741
 20
0.110366
  0
VERTEX
  8
EBENE_1
 62
    39
  6
CONTINUOUS
 10
0.636836
 20
0.127526
  0
VERTEX
  8
EBENE_1
 62
    39
  6
CONTINUOUS
 10
0.642434
 20
0.142661
  0
VERTEX
  8
EBENE_1
 62
    39
  6
CONTINUOUS
 10
0.650274
 20
0.155586
  0
VERTEX
  8
EBENE_1
 62
    39
  6
CONTINUOUS
 10
0.660098
 20
0.166118
  0
VERTEX
  8
EBENE_1
 62
    39
  6
CONTINUOUS
 10
0.671645
 20
0.174072
  0
VERTEX
  8
EBENE_1
 62
    39
  6
CONTINUOUS
 10
0.684657
 20
0.179264
  0
VERTEX
  8
EBENE_1
 62
    39
  6
CONTINUOUS
 10
0.887488
 20
0.233539
  0
VERTEX
  8
EBENE_1
 62
    39
  6
CONTINUOUS
 10
0.907800
 20
0.236172
  0
VERTEX
  8
EBENE_1
 62
    39
  6
CONTINUOUS
 10
0.921665
 20
0.232457
  0
VERTEX
  8
EBENE_1
 62
    39
  6
CONTINUOUS
 10
0.931323
 20
0.224257
  0
VERTEX
  8
EBENE_1
 62
    39
  6
CONTINUOUS
 10
0.939017
 20
0.213438
  0
VERTEX
  8
EBENE_1
 62
    39
  6
CONTINUOUS
 10
0.946989
 20
0.201866
  0
SEQEND
  8
0
  0
POLYLINE
  8
EBENE_1
 62
    39
  6
CONTINUOUS
 66
     1
 40
0.003000
 41
0.003000
 70
     1
  0
VERTEX
  8
EBENE_1
 62
    39
  6
CONTINUOUS
 10
0.791787
 20
0.177835
  0
VERTEX
  8
EBENE_1
 62
    39
  6
CONTINUOUS
 10
0.795226
 20
0.178708
  0
VERTEX
  8
EBENE_1
 62
    39
  6
CONTINUOUS
 10
0.797871
 20
0.181010
  0
VERTEX
  8
EBENE_1
 62
    39
  6
CONTINUOUS
 10
0.798929
 20
0.184264
  0
VERTEX
  8
EBENE_1
 62
    39
  6
CONTINUOUS
 10
0.797871
 20
0.187702
  0
VERTEX
  8
EBENE_1
 62
    39
  6
CONTINUOUS
 10
0.795226
 20
0.190347
  0
VERTEX
  8
EBENE_1
 62
    39
  6
CONTINUOUS
 10
0.791787
 20
0.191406
  0
VERTEX
  8
EBENE_1
 62
    39
  6
CONTINUOUS
 10
0.788534
 20
0.190347
  0
VERTEX
  8
EBENE_1
 62
    39
  6
CONTINUOUS
 10
0.786232
 20
0.187702
  0
VERTEX
  8
EBENE_1
 62
    39
  6
CONTINUOUS
 10
0.785358
 20
0.184264
  0
VERTEX
  8
EBENE_1
 62
    39
  6
CONTINUOUS
 10
0.786232
 20
0.181010
  0
VERTEX
  8
EBENE_1
 62
    39
  6
CONTINUOUS
 10
0.788534
 20
0.178708
  0
SEQEND
  8
0
  0
POLYLINE
  8
EBENE_1
 62
    39
  6
CONTINUOUS
 66
     1
 40
0.003000
 41
0.003000
 70
     1
  0
VERTEX
  8
EBENE_1
 62
    39
  6
CONTINUOUS
 10
0.864634
 20
0.192835
  0
VERTEX
  8
EBENE_1
 62
    39
  6
CONTINUOUS
 10
0.867888
 20
0.193893
  0
VERTEX
  8
EBENE_1
 62
    39
  6
CONTINUOUS
 10
0.870190
 20
0.196538
  0
VERTEX
  8
EBENE_1
 62
    39
  6
CONTINUOUS
 10
0.871063
 20
0.199976
  0
VERTEX
  8
EBENE_1
 62
    39
  6
CONTINUOUS
 10
0.870190
 20
0.203227
  0
VERTEX
  8
EBENE_1
 62
    39
  6
CONTINUOUS
 10
0.867888
 20
0.205528
  0
VERTEX
  8
EBENE_1
 62
    39
  6
CONTINUOUS
 10
0.864634
 20
0.206402
  0
VERTEX
  8
EBENE_1
 62
    39
  6
CONTINUOUS
 10
0.860879
 20
0.205528
  0
VERTEX
  8
EBENE_1
 62
    39
  6
CONTINUOUS
 10
0.858392
 20
0.203227
  0
VERTEX
  8
EBENE_1
 62
    39
  6
CONTINUOUS
 10
0.857492
 20
0.199976
  0
VERTEX
  8
EBENE_1
 62
    39
  6
CONTINUOUS
 10
0.858392
 20
0.196538
  0
VERTEX
  8
EBENE_1
 62
    39
  6
CONTINUOUS
 10
0.860879
 20
0.193893
  0
SEQEND
  8
0
  0
POLYLINE
  8
EBENE_1
 62
    39
  6
CONTINUOUS
 66
     1
 40
0.003000
 41
0.003000
 70
     1
  0
VERTEX
  8
EBENE_1
 62
    39
  6
CONTINUOUS
 10
0.935339
 20
0.165693
  0
VERTEX
  8
EBENE_1
 62
    39
  6
CONTINUOUS
 10
0.938592
 20
0.166751
  0
VERTEX
  8
EBENE_1
 62
    39
  6
CONTINUOUS
 10
0.940894
 20
0.169396
  0
VERTEX
  8
EBENE_1
 62
    39
  6
CONTINUOUS
 10
0.941768
 20
0.172835
  0
VERTEX
  8
EBENE_1
 62
    39
  6
CONTINUOUS
 10
0.940894
 20
0.176089
  0
VERTEX
  8
EBENE_1
 62
    39
  6
CONTINUOUS
 10
0.938592
 20
0.178390
  0
VERTEX
  8
EBENE_1
 62
    39
  6
CONTINUOUS
 10
0.935339
 20
0.179264
  0
VERTEX
  8
EBENE_1
 62
    39
  6
CONTINUOUS
 10
0.931583
 20
0.178390
  0
VERTEX
  8
EBENE_1
 62
    39
  6
CONTINUOUS
 10
0.929097
 20
0.176089
  0
VERTEX
  8
EBENE_1
 62
    39
  6
CONTINUOUS
 10
0.928197
 20
0.172835
  0
VERTEX
  8
EBENE_1
 62
    39
  6
CONTINUOUS
 10
0.929097
 20
0.169396
  0
VERTEX
  8
EBENE_1
 62
    39
  6
CONTINUOUS
 10
0.931583
 20
0.166751
  0
SEQEND
  8
0
  0
POLYLINE
  8
EBENE_1
 62
    39
  6
CONTINUOUS
 66
     1
 40
0.003000
 41
0.003000
 70
     1
  0
VERTEX
  8
EBENE_1
 62
    39
  6
CONTINUOUS
 10
-0.661579
 20
0.099276
  0
VERTEX
  8
EBENE_1
 62
    39
  6
CONTINUOUS
 10
-0.657823
 20
0.100148
  0
VERTEX
  8
EBENE_1
 62
    39
  6
CONTINUOUS
 10
-0.655337
 20
0.102448
  0
VERTEX
  8
EBENE_1
 62
    39
  6
CONTINUOUS
 10
-0.654437
 20
0.105701
  0
VERTEX
  8
EBENE_1
 62
    39
  6
CONTINUOUS
 10
-0.655337
 20
0.109458
  0
VERTEX
  8
EBENE_1
 62
    39
  6
CONTINUOUS
 10
-0.657823
 20
0.111944
  0
VERTEX
  8
EBENE_1
 62
    39
  6
CONTINUOUS
 10
-0.661579
 20
0.112843
  0
VERTEX
  8
EBENE_1
 62
    39
  6
CONTINUOUS
 10
-0.664834
 20
0.111944
  0
VERTEX
  8
EBENE_1
 62
    39
  6
CONTINUOUS
 10
-0.667135
 20
0.109458
  0
VERTEX
  8
EBENE_1
 62
    39
  6
CONTINUOUS
 10
-0.668008
 20
0.105701
  0
VERTEX
  8
EBENE_1
 62
    39
  6
CONTINUOUS
 10
-0.667135
 20
0.102448
  0
VERTEX
  8
EBENE_1
 62
    39
  6
CONTINUOUS
 10
-0.664834
 20
0.100148
  0
SEQEND
  8
0
  0
POLYLINE
  8
EBENE_1
 62
    39
  6
CONTINUOUS
 66
     1
 40
0.003000
 41
0.003000
 70
     1
  0
VERTEX
  8
EBENE_1
 62
    39
  6
CONTINUOUS
 10
-0.590161
 20
0.072134
  0
VERTEX
  8
EBENE_1
 62
    39
  6
CONTINUOUS
 10
-0.586908
 20
0.073007
  0
VERTEX
  8
EBENE_1
 62
    39
  6
CONTINUOUS
 10
-0.584606
 20
0.075309
  0
VERTEX
  8
EBENE_1
 62
    39
  6
CONTINUOUS
 10
-0.583732
 20
0.078563
  0
VERTEX
  8
EBENE_1
 62
    39
  6
CONTINUOUS
 10
-0.584606
 20
0.082002
  0
VERTEX
  8
EBENE_1
 62
    39
  6
CONTINUOUS
 10
-0.586908
 20
0.084647
  0
VERTEX
  8
EBENE_1
 62
    39
  6
CONTINUOUS
 10
-0.590161
 20
0.085705
  0
VERTEX
  8
EBENE_1
 62
    39
  6
CONTINUOUS
 10
-0.593917
 20
0.084647
  0
VERTEX
  8
EBENE_1
 62
    39
  6
CONTINUOUS
 10
-0.596403
 20
0.082002
  0
VERTEX
  8
EBENE_1
 62
    39
  6
CONTINUOUS
 10
-0.597303
 20
0.078563
  0
VERTEX
  8
EBENE_1
 62
    39
  6
CONTINUOUS
 10
-0.596403
 20
0.075309
  0
VERTEX
  8
EBENE_1
 62
    39
  6
CONTINUOUS
 10
-0.593917
 20
0.073007
  0
SEQEND
  8
0
  0
POLYLINE
  8
EBENE_1
 62
    39
  6
CONTINUOUS
 66
     1
 40
0.003000
 41
0.003000
 70
     1
  0
VERTEX
  8
EBENE_1
 62
    39
  6
CONTINUOUS
 10
-1.079382
 20
-0.284957
  0
VERTEX
  8
EBENE_1
 62
    39
  6
CONTINUOUS
 10
-1.040098
 20
-0.327807
  0
VERTEX
  8
EBENE_1
 62
    39
  6
CONTINUOUS
 10
-1.033143
 20
-0.335018
  0
VERTEX
  8
EBENE_1
 62
    39
  6
CONTINUOUS
 10
-1.021907
 20
-0.340845
  0
VERTEX
  8
EBENE_1
 62
    39
  6
CONTINUOUS
 10
-1.007338
 20
-0.345361
  0
VERTEX
  8
EBENE_1
 62
    39
  6
CONTINUOUS
 10
-0.990381
 20
-0.348638
  0
VERTEX
  8
EBENE_1
 62
    39
  6
CONTINUOUS
 10
-0.971984
 20
-0.350750
  0
VERTEX
  8
EBENE_1
 62
    39
  6
CONTINUOUS
 10
-0.953095
 20
-0.351769
  0
VERTEX
  8
EBENE_1
 62
    39
  6
CONTINUOUS
 10
-0.934660
 20
-0.351768
  0
VERTEX
  8
EBENE_1
 62
    39
  6
CONTINUOUS
 10
-0.917626
 20
-0.350820
  0
VERTEX
  8
EBENE_1
 62
    39
  6
CONTINUOUS
 10
-0.902941
 20
-0.348998
  0
VERTEX
  8
EBENE_1
 62
    39
  6
CONTINUOUS
 10
-0.891551
 20
-0.346374
  0
VERTEX
  8
EBENE_1
 62
    39
  6
CONTINUOUS
 10
-0.699433
 20
-0.292098
  0
VERTEX
  8
EBENE_1
 62
    39
  6
CONTINUOUS
 10
-0.862980
 20
-0.029276
  0
VERTEX
  8
EBENE_1
 62
    39
  6
CONTINUOUS
 10
-1.018673
 20
-0.182827
  0
VERTEX
  8
EBENE_1
 62
    39
  6
CONTINUOUS
 10
-1.029308
 20
-0.189675
  0
VERTEX
  8
EBENE_1
 62
    39
  6
CONTINUOUS
 10
-1.041215
 20
-0.200792
  0
VERTEX
  8
EBENE_1
 62
    39
  6
CONTINUOUS
 10
-1.053323
 20
-0.214889
  0
VERTEX
  8
EBENE_1
 62
    39
  6
CONTINUOUS
 10
-1.064561
 20
-0.230676
  0
VERTEX
  8
EBENE_1
 62
    39
  6
CONTINUOUS
 10
-1.073856
 20
-0.246866
  0
VERTEX
  8
EBENE_1
 62
    39
  6
CONTINUOUS
 10
-1.080139
 20
-0.262168
  0
VERTEX
  8
EBENE_1
 62
    39
  6
CONTINUOUS
 10
-1.082338
 20
-0.275295
  0
SEQEND
  8
0
  0
POLYLINE
  8
EBENE_1
 62
    39
  6
CONTINUOUS
 66
     1
 40
0.003000
 41
0.003000
 70
     1
  0
VERTEX
  8
EBENE_1
 62
    39
  6
CONTINUOUS
 10
-1.066524
 20
-0.282811
  0
VERTEX
  8
EBENE_1
 62
    39
  6
CONTINUOUS
 10
-1.027961
 20
-0.324236
  0
VERTEX
  8
EBENE_1
 62
    39
  6
CONTINUOUS
 10
-1.020532
 20
-0.331713
  0
VERTEX
  8
EBENE_1
 62
    39
  6
CONTINUOUS
 10
-1.008524
 20
-0.337550
  0
VERTEX
  8
EBENE_1
 62
    39
  6
CONTINUOUS
 10
-0.993071
 20
-0.341853
  0
VERTEX
  8
EBENE_1
 62
    39
  6
CONTINUOUS
 10
-0.975308
 20
-0.344727
  0
VERTEX
  8
EBENE_1
 62
    39
  6
CONTINUOUS
 10
-0.956370
 20
-0.346279
  0
VERTEX
  8
EBENE_1
 62
    39
  6
CONTINUOUS
 10
-0.937391
 20
-0.346613
  0
VERTEX
  8
EBENE_1
 62
    39
  6
CONTINUOUS
 10
-0.919505
 20
-0.345837
  0
VERTEX
  8
EBENE_1
 62
    39
  6
CONTINUOUS
 10
-0.903847
 20
-0.344055
  0
VERTEX
  8
EBENE_1
 62
    39
  6
CONTINUOUS
 10
-0.891551
 20
-0.341374
  0
VERTEX
  8
EBENE_1
 62
    39
  6
CONTINUOUS
 10
-0.704433
 20
-0.288528
  0
VERTEX
  8
EBENE_1
 62
    39
  6
CONTINUOUS
 10
-0.863697
 20
-0.034988
  0
VERTEX
  8
EBENE_1
 62
    39
  6
CONTINUOUS
 10
-1.014390
 20
-0.182827
  0
VERTEX
  8
EBENE_1
 62
    39
  6
CONTINUOUS
 10
-1.025935
 20
-0.190951
  0
VERTEX
  8
EBENE_1
 62
    39
  6
CONTINUOUS
 10
-1.038280
 20
-0.204272
  0
VERTEX
  8
EBENE_1
 62
    39
  6
CONTINUOUS
 10
-1.050126
 20
-0.220904
  0
VERTEX
  8
EBENE_1
 62
    39
  6
CONTINUOUS
 10
-1.060172
 20
-0.238960
  0
VERTEX
  8
EBENE_1
 62
    39
  6
CONTINUOUS
 10
-1.067120
 20
-0.256555
  0
VERTEX
  8
EBENE_1
 62
    39
  6
CONTINUOUS
 10
-1.069671
 20
-0.271800
  0
SEQEND
  8
0
  0
POLYLINE
  8
EBENE_1
 62
    39
  6
CONTINUOUS
 66
     1
 40
0.003000
 41
0.003000
 70
     1
  0
VERTEX
  8
EBENE_1
 62
    39
  6
CONTINUOUS
 10
-0.900118
 20
-0.114264
  0
VERTEX
  8
EBENE_1
 62
    39
  6
CONTINUOUS
 10
-0.821559
 20
-0.256386
  0
VERTEX
  8
EBENE_1
 62
    39
  6
CONTINUOUS
 10
-0.814063
 20
-0.264948
  0
VERTEX
  8
EBENE_1
 62
    39
  6
CONTINUOUS
 10
-0.802276
 20
-0.272882
  0
VERTEX
  8
EBENE_1
 62
    39
  6
CONTINUOUS
 10
-0.787250
 20
-0.279981
  0
VERTEX
  8
EBENE_1
 62
    39
  6
CONTINUOUS
 10
-0.770038
 20
-0.286039
  0
VERTEX
  8
EBENE_1
 62
    39
  6
CONTINUOUS
 10
-0.751692
 20
-0.290852
  0
VERTEX
  8
EBENE_1
 62
    39
  6
CONTINUOUS
 10
-0.733263
 20
-0.294212
  0
VERTEX
  8
EBENE_1
 62
    39
  6
CONTINUOUS
 10
-0.715804
 20
-0.295915
  0
VERTEX
  8
EBENE_1
 62
    39
  6
CONTINUOUS
 10
-0.700367
 20
-0.295754
  0
VERTEX
  8
EBENE_1
 62
    39
  6
CONTINUOUS
 10
-0.688004
 20
-0.293524
  0
VERTEX
  8
EBENE_1
 62
    39
  6
CONTINUOUS
 10
-0.495890
 20
-0.239248
  0
VERTEX
  8
EBENE_1
 62
    39
  6
CONTINUOUS
 10
-0.715858
 20
0.119984
  0
VERTEX
  8
EBENE_1
 62
    39
  6
CONTINUOUS
 10
-0.885122
 20
-0.047843
  0
VERTEX
  8
EBENE_1
 62
    39
  6
CONTINUOUS
 10
-0.899919
 20
-0.063344
  0
VERTEX
  8
EBENE_1
 62
    39
  6
CONTINUOUS
 10
-0.907619
 20
-0.080786
  0
VERTEX
  8
EBENE_1
 62
    39
  6
CONTINUOUS
 10
-0.907819
 20
-0.098362
  0
SEQEND
  8
0
  0
POLYLINE
  8
EBENE_1
 62
    39
  6
CONTINUOUS
 66
     1
 40
0.003000
 41
0.003000
 70
     1
  0
VERTEX
  8
EBENE_1
 62
    39
  6
CONTINUOUS
 10
-0.895835
 20
-0.114264
  0
VERTEX
  8
EBENE_1
 62
    39
  6
CONTINUOUS
 10
-0.818701
 20
-0.252815
  0
VERTEX
  8
EBENE_1
 62
    39
  6
CONTINUOUS
 10
-0.810274
 20
-0.262142
  0
VERTEX
  8
EBENE_1
 62
    39
  6
CONTINUOUS
 10
-0.796684
 20
-0.270648
  0
VERTEX
  8
EBENE_1
 62
    39
  6
CONTINUOUS
 10
-0.779394
 20
-0.278050
  0
VERTEX
  8
EBENE_1
 62
    39
  6
CONTINUOUS
 10
-0.759870
 20
-0.284062
  0
VERTEX
  8
EBENE_1
 62
    39
  6
CONTINUOUS
 10
-0.739576
 20
-0.288400
  0
VERTEX
  8
EBENE_1
 62
    39
  6
CONTINUOUS
 10
-0.719977
 20
-0.290780
  0
VERTEX
  8
EBENE_1
 62
    39
  6
CONTINUOUS
 10
-0.702536
 20
-0.290918
  0
VERTEX
  8
EBENE_1
 62
    39
  6
CONTINUOUS
 10
-0.688720
 20
-0.288528
  0
VERTEX
  8
EBENE_1
 62
    39
  6
CONTINUOUS
 10
-0.500173
 20
-0.235677
  0
VERTEX
  8
EBENE_1
 62
    39
  6
CONTINUOUS
 10
-0.715858
 20
0.114988
  0
VERTEX
  8
EBENE_1
 62
    39
  6
CONTINUOUS
 10
-0.880835
 20
-0.048559
  0
VERTEX
  8
EBENE_1
 62
    39
  6
CONTINUOUS
 10
-0.895532
 20
-0.063947
  0
VERTEX
  8
EBENE_1
 62
    39
  6
CONTINUOUS
 10
-0.903066
 20
-0.081143
  0
VERTEX
  8
EBENE_1
 62
    39
  6
CONTINUOUS
 10
-0.903234
 20
-0.098473
  0
SEQEND
  8
0
  0
POLYLINE
  8
EBENE_1
 62
    39
  6
CONTINUOUS
 66
     1
 40
0.003000
 41
0.003000
 70
     1
  0
VERTEX
  8
EBENE_1
 62
    39
  6
CONTINUOUS
 10
-0.730858
 20
0.033567
  0
VERTEX
  8
EBENE_1
 62
    39
  6
CONTINUOUS
 10
-0.603732
 20
-0.199965
  0
VERTEX
  8
EBENE_1
 62
    39
  6
CONTINUOUS
 10
-0.595613
 20
-0.209445
  0
VERTEX
  8
EBENE_1
 62
    39
  6
CONTINUOUS
 10
-0.582831
 20
-0.218356
  0
VERTEX
  8
EBENE_1
 62
    39
  6
CONTINUOUS
 10
-0.566685
 20
-0.226329
  0
VERTEX
  8
EBENE_1
 62
    39
  6
CONTINUOUS
 10
-0.548472
 20
-0.232997
  0
VERTEX
  8
EBENE_1
 62
    39
  6
CONTINUOUS
 10
-0.529489
 20
-0.237991
  0
VERTEX
  8
EBENE_1
 62
    39
  6
CONTINUOUS
 10
-0.511032
 20
-0.240943
  0
VERTEX
  8
EBENE_1
 62
    39
  6
CONTINUOUS
 10
-0.494400
 20
-0.241485
  0
VERTEX
  8
EBENE_1
 62
    39
  6
CONTINUOUS
 10
-0.480890
 20
-0.239248
  0
VERTEX
  8
EBENE_1
 62
    39
  6
CONTINUOUS
 10
-0.178791
 20
-0.159972
  0
VERTEX
  8
EBENE_1
 62
    39
  6
CONTINUOUS
 10
-0.574449
 20
0.268535
  0
VERTEX
  8
EBENE_1
 62
    39
  6
CONTINUOUS
 10
-0.723000
 20
0.117843
  0
VERTEX
  8
EBENE_1
 62
    39
  6
CONTINUOUS
 10
-0.734307
 20
0.103799
  0
VERTEX
  8
EBENE_1
 62
    39
  6
CONTINUOUS
 10
-0.740266
 20
0.085710
  0
VERTEX
  8
EBENE_1
 62
    39
  6
CONTINUOUS
 10
-0.741358
 20
0.066215
  0
VERTEX
  8
EBENE_1
 62
    39
  6
CONTINUOUS
 10
-0.738062
 20
0.047954
  0
SEQEND
  8
0
  0
POLYLINE
  8
EBENE_1
 62
    39
  6
CONTINUOUS
 66
     1
 40
0.003000
 41
0.003000
 70
     1
  0
VERTEX
  8
EBENE_1
 62
    39
  6
CONTINUOUS
 10
-0.725146
 20
0.033567
  0
VERTEX
  8
EBENE_1
 62
    39
  6
CONTINUOUS
 10
-0.600874
 20
-0.196394
  0
VERTEX
  8
EBENE_1
 62
    39
  6
CONTINUOUS
 10
-0.592817
 20
-0.205608
  0
VERTEX
  8
EBENE_1
 62
    39
  6
CONTINUOUS
 10
-0.580207
 20
-0.214262
  0
VERTEX
  8
EBENE_1
 62
    39
  6
CONTINUOUS
 10
-0.564317
 20
-0.221994
  0
VERTEX
  8
EBENE_1
 62
    39
  6
CONTINUOUS
 10
-0.546418
 20
-0.228446
  0
VERTEX
  8
EBENE_1
 62
    39
  6
CONTINUOUS
 10
-0.527782
 20
-0.233257
  0
VERTEX
  8
EBENE_1
 62
    39
  6
CONTINUOUS
 10
-0.509682
 20
-0.236068
  0
VERTEX
  8
EBENE_1
 62
    39
  6
CONTINUOUS
 10
-0.493390
 20
-0.236518
  0
VERTEX
  8
EBENE_1
 62
    39
  6
CONTINUOUS
 10
-0.480177
 20
-0.234248
  0
VERTEX
  8
EBENE_1
 62
    39
  6
CONTINUOUS
 10
-0.184504
 20
-0.157114
  0
VERTEX
  8
EBENE_1
 62
    39
  6
CONTINUOUS
 10
-0.572307
 20
0.263535
  0
VERTEX
  8
EBENE_1
 62
    39
  6
CONTINUOUS
 10
-0.717287
 20
0.115701
  0
VERTEX
  8
EBENE_1
 62
    39
  6
CONTINUOUS
 10
-0.728594
 20
0.101810
  0
VERTEX
  8
EBENE_1
 62
    39
  6
CONTINUOUS
 10
-0.734553
 20
0.084115
  0
VERTEX
  8
EBENE_1
 62
    39
  6
CONTINUOUS
 10
-0.735645
 20
0.065152
  0
VERTEX
  8
EBENE_1
 62
    39
  6
CONTINUOUS
 10
-0.732349
 20
0.047457
  0
SEQEND
  8
0
  0
POLYLINE
  8
EBENE_1
 62
    39
  6
CONTINUOUS
 66
     1
 40
0.003000
 41
0.003000
 70
     1
  0
VERTEX
  8
EBENE_1
 62
    39
  6
CONTINUOUS
 10
-0.303059
 20
0.202118
  0
VERTEX
  8
EBENE_1
 62
    39
  6
CONTINUOUS
 10
-0.303931
 20
0.198361
  0
VERTEX
  8
EBENE_1
 62
    39
  6
CONTINUOUS
 10
-0.306231
 20
0.195875
  0
VERTEX
  8
EBENE_1
 62
    39
  6
CONTINUOUS
 10
-0.309484
 20
0.194976
  0
VERTEX
  8
EBENE_1
 62
    39
  6
CONTINUOUS
 10
-0.313241
 20
0.195875
  0
VERTEX
  8
EBENE_1
 62
    39
  6
CONTINUOUS
 10
-0.315727
 20
0.198361
  0
VERTEX
  8
EBENE_1
 62
    39
  6
CONTINUOUS
 10
-0.316626
 20
0.202118
  0
VERTEX
  8
EBENE_1
 62
    39
  6
CONTINUOUS
 10
-0.315727
 20
0.205371
  0
VERTEX
  8
EBENE_1
 62
    39
  6
CONTINUOUS
 10
-0.313241
 20
0.207671
  0
VERTEX
  8
EBENE_1
 62
    39
  6
CONTINUOUS
 10
-0.309484
 20
0.208543
  0
VERTEX
  8
EBENE_1
 62
    39
  6
CONTINUOUS
 10
-0.306231
 20
0.207671
  0
VERTEX
  8
EBENE_1
 62
    39
  6
CONTINUOUS
 10
-0.303931
 20
0.205371
  0
SEQEND
  8
0
  0
POLYLINE
  8
EBENE_1
 62
    39
  6
CONTINUOUS
 66
     1
 40
0.003000
 41
0.003000
 70
     1
  0
VERTEX
  8
EBENE_1
 62
    39
  6
CONTINUOUS
 10
-0.164508
 20
0.204260
  0
VERTEX
  8
EBENE_1
 62
    39
  6
CONTINUOUS
 10
0.024748
 20
-0.105693
  0
VERTEX
  8
EBENE_1
 62
    39
  6
CONTINUOUS
 10
-0.173075
 20
-0.157114
  0
VERTEX
  8
EBENE_1
 62
    39
  6
CONTINUOUS
 10
-0.180866
 20
-0.158381
  0
VERTEX
  8
EBENE_1
 62
    39
  6
CONTINUOUS
 10
-0.189423
 20
-0.158934
  0
VERTEX
  8
EBENE_1
 62
    39
  6
CONTINUOUS
 10
-0.198685
 20
-0.158776
  0
VERTEX
  8
EBENE_1
 62
    39
  6
CONTINUOUS
 10
-0.208593
 20
-0.157912
  0
VERTEX
  8
EBENE_1
 62
    39
  6
CONTINUOUS
 10
-0.219086
 20
-0.156345
  0
VERTEX
  8
EBENE_1
 62
    39
  6
CONTINUOUS
 10
-0.230106
 20
-0.154080
  0
VERTEX
  8
EBENE_1
 62
    39
  6
CONTINUOUS
 10
-0.241591
 20
-0.151122
  0
VERTEX
  8
EBENE_1
 62
    39
  6
CONTINUOUS
 10
-0.253482
 20
-0.147473
  0
VERTEX
  8
EBENE_1
 62
    39
  6
CONTINUOUS
 10
-0.265720
 20
-0.143138
  0
VERTEX
  8
EBENE_1
 62
    39
  6
CONTINUOUS
 10
-0.278243
 20
-0.138120
  0
VERTEX
  8
EBENE_1
 62
    39
  6
CONTINUOUS
 10
-0.290993
 20
-0.132425
  0
VERTEX
  8
EBENE_1
 62
    39
  6
CONTINUOUS
 10
-0.303910
 20
-0.126056
  0
VERTEX
  8
EBENE_1
 62
    39
  6
CONTINUOUS
 10
-0.316933
 20
-0.119017
  0
VERTEX
  8
EBENE_1
 62
    39
  6
CONTINUOUS
 10
-0.330002
 20
-0.111312
  0
VERTEX
  8
EBENE_1
 62
    39
  6
CONTINUOUS
 10
-0.343058
 20
-0.102945
  0
VERTEX
  8
EBENE_1
 62
    39
  6
CONTINUOUS
 10
-0.356041
 20
-0.093921
  0
VERTEX
  8
EBENE_1
 62
    39
  6
CONTINUOUS
 10
-0.368890
 20
-0.084242
  0
VERTEX
  8
EBENE_1
 62
    39
  6
CONTINUOUS
 10
-0.381547
 20
-0.073914
  0
VERTEX
  8
EBENE_1
 62
    39
  6
CONTINUOUS
 10
-0.393950
 20
-0.062940
  0
VERTEX
  8
EBENE_1
 62
    39
  6
CONTINUOUS
 10
-0.406041
 20
-0.051325
  0
VERTEX
  8
EBENE_1
 62
    39
  6
CONTINUOUS
 10
-0.417759
 20
-0.039072
  0
VERTEX
  8
EBENE_1
 62
    39
  6
CONTINUOUS
 10
-0.429044
 20
-0.026185
  0
VERTEX
  8
EBENE_1
 62
    39
  6
CONTINUOUS
 10
-0.439836
 20
-0.012669
  0
VERTEX
  8
EBENE_1
 62
    39
  6
CONTINUOUS
 10
-0.450076
 20
0.001473
  0
VERTEX
  8
EBENE_1
 62
    39
  6
CONTINUOUS
 10
-0.459703
 20
0.016236
  0
VERTEX
  8
EBENE_1
 62
    39
  6
CONTINUOUS
 10
-0.468658
 20
0.031616
  0
VERTEX
  8
EBENE_1
 62
    39
  6
CONTINUOUS
 10
-0.476881
 20
0.047610
  0
VERTEX
  8
EBENE_1
 62
    39
  6
CONTINUOUS
 10
-0.484311
 20
0.064213
  0
VERTEX
  8
EBENE_1
 62
    39
  6
CONTINUOUS
 10
-0.490890
 20
0.081421
  0
VERTEX
  8
EBENE_1
 62
    39
  6
CONTINUOUS
 10
-0.490890
 20
0.081421
  0
VERTEX
  8
EBENE_1
 62
    39
  6
CONTINUOUS
 10
-0.493545
 20
0.102345
  0
VERTEX
  8
EBENE_1
 62
    39
  6
CONTINUOUS
 10
-0.493121
 20
0.121604
  0
VERTEX
  8
EBENE_1
 62
    39
  6
CONTINUOUS
 10
-0.489885
 20
0.139005
  0
VERTEX
  8
EBENE_1
 62
    39
  6
CONTINUOUS
 10
-0.484105
 20
0.154356
  0
VERTEX
  8
EBENE_1
 62
    39
  6
CONTINUOUS
 10
-0.476048
 20
0.167464
  0
VERTEX
  8
EBENE_1
 62
    39
  6
CONTINUOUS
 10
-0.465983
 20
0.178136
  0
VERTEX
  8
EBENE_1
 62
    39
  6
CONTINUOUS
 10
-0.454177
 20
0.186181
  0
VERTEX
  8
EBENE_1
 62
    39
  6
CONTINUOUS
 10
-0.440898
 20
0.191406
  0
VERTEX
  8
EBENE_1
 62
    39
  6
CONTINUOUS
 10
-0.235209
 20
0.247110
  0
VERTEX
  8
EBENE_1
 62
    39
  6
CONTINUOUS
 10
-0.214598
 20
0.249689
  0
VERTEX
  8
EBENE_1
 62
    39
  6
CONTINUOUS
 10
-0.200533
 20
0.245840
  0
VERTEX
  8
EBENE_1
 62
    39
  6
CONTINUOUS
 10
-0.190753
 20
0.237468
  0
VERTEX
  8
EBENE_1
 62
    39
  6
CONTINUOUS
 10
-0.182997
 20
0.226478
  0
VERTEX
  8
EBENE_1
 62
    39
  6
CONTINUOUS
 10
-0.175002
 20
0.214773
  0
SEQEND
  8
0
  0
POLYLINE
  8
EBENE_1
 62
    39
  6
CONTINUOUS
 66
     1
 40
0.003000
 41
0.003000
 70
     1
  0
VERTEX
  8
EBENE_1
 62
    39
  6
CONTINUOUS
 10
-0.164508
 20
0.202831
  0
VERTEX
  8
EBENE_1
 62
    39
  6
CONTINUOUS
 10
0.021177
 20
-0.101409
  0
VERTEX
  8
EBENE_1
 62
    39
  6
CONTINUOUS
 10
-0.173075
 20
-0.152114
  0
VERTEX
  8
EBENE_1
 62
    39
  6
CONTINUOUS
 10
-0.180713
 20
-0.153389
  0
VERTEX
  8
EBENE_1
 62
    39
  6
CONTINUOUS
 10
-0.189107
 20
-0.153963
  0
VERTEX
  8
EBENE_1
 62
    39
  6
CONTINUOUS
 10
-0.198199
 20
-0.153842
  0
VERTEX
  8
EBENE_1
 62
    39
  6
CONTINUOUS
 10
-0.207927
 20
-0.153028
  0
VERTEX
  8
EBENE_1
 62
    39
  6
CONTINUOUS
 10
-0.218234
 20
-0.151525
  0
VERTEX
  8
EBENE_1
 62
    39
  6
CONTINUOUS
 10
-0.229061
 20
-0.149337
  0
VERTEX
  8
EBENE_1
 62
    39
  6
CONTINUOUS
 10
-0.240347
 20
-0.146466
  0
VERTEX
  8
EBENE_1
 62
    39
  6
CONTINUOUS
 10
-0.252034
 20
-0.142917
  0
VERTEX
  8
EBENE_1
 62
    39
  6
CONTINUOUS
 10
-0.264063
 20
-0.138693
  0
VERTEX
  8
EBENE_1
 62
    39
  6
CONTINUOUS
 10
-0.276374
 20
-0.133798
  0
VERTEX
  8
EBENE_1
 62
    39
  6
CONTINUOUS
 10
-0.288908
 20
-0.128234
  0
VERTEX
  8
EBENE_1
 62
    39
  6
CONTINUOUS
 10
-0.301606
 20
-0.122006
  0
VERTEX
  8
EBENE_1
 62
    39
  6
CONTINUOUS
 10
-0.314408
 20
-0.115117
  0
VERTEX
  8
EBENE_1
 62
    39
  6
CONTINUOUS
 10
-0.327256
 20
-0.107570
  0
VERTEX
  8
EBENE_1
 62
    39
  6
CONTINUOUS
 10
-0.340091
 20
-0.099370
  0
VERTEX
  8
EBENE_1
 62
    39
  6
CONTINUOUS
 10
-0.352853
 20
-0.090519
  0
VERTEX
  8
EBENE_1
 62
    39
  6
CONTINUOUS
 10
-0.365482
 20
-0.081021
  0
VERTEX
  8
EBENE_1
 62
    39
  6
CONTINUOUS
 10
-0.377920
 20
-0.070880
  0
VERTEX
  8
EBENE_1
 62
    39
  6
CONTINUOUS
 10
-0.390108
 20
-0.060099
  0
VERTEX
  8
EBENE_1
 62
    39
  6
CONTINUOUS
 10
-0.401985
 20
-0.048681
  0
VERTEX
  8
EBENE_1
 62
    39
  6
CONTINUOUS
 10
-0.413494
 20
-0.036631
  0
VERTEX
  8
EBENE_1
 62
    39
  6
CONTINUOUS
 10
-0.424575
 20
-0.023951
  0
VERTEX
  8
EBENE_1
 62
    39
  6
CONTINUOUS
 10
-0.435168
 20
-0.010646
  0
VERTEX
  8
EBENE_1
 62
    39
  6
CONTINUOUS
 10
-0.445215
 20
0.003282
  0
VERTEX
  8
EBENE_1
 62
    39
  6
CONTINUOUS
 10
-0.454656
 20
0.017829
  0
VERTEX
  8
EBENE_1
 62
    39
  6
CONTINUOUS
 10
-0.463432
 20
0.032991
  0
VERTEX
  8
EBENE_1
 62
    39
  6
CONTINUOUS
 10
-0.471483
 20
0.048765
  0
VERTEX
  8
EBENE_1
 62
    39
  6
CONTINUOUS
 10
-0.478752
 20
0.065147
  0
VERTEX
  8
EBENE_1
 62
    39
  6
CONTINUOUS
 10
-0.485177
 20
0.082134
  0
VERTEX
  8
EBENE_1
 62
    39
  6
CONTINUOUS
 10
-0.485177
 20
0.082134
  0
VERTEX
  8
EBENE_1
 62
    39
  6
CONTINUOUS
 10
-0.487865
 20
0.102792
  0
VERTEX
  8
EBENE_1
 62
    39
  6
CONTINUOUS
 10
-0.487531
 20
0.121793
  0
VERTEX
  8
EBENE_1
 62
    39
  6
CONTINUOUS
 10
-0.484435
 20
0.138953
  0
VERTEX
  8
EBENE_1
 62
    39
  6
CONTINUOUS
 10
-0.478838
 20
0.154088
  0
VERTEX
  8
EBENE_1
 62
    39
  6
CONTINUOUS
 10
-0.470997
 20
0.167013
  0
VERTEX
  8
EBENE_1
 62
    39
  6
CONTINUOUS
 10
-0.461172
 20
0.177545
  0
VERTEX
  8
EBENE_1
 62
    39
  6
CONTINUOUS
 10
-0.449624
 20
0.185498
  0
VERTEX
  8
EBENE_1
 62
    39
  6
CONTINUOUS
 10
-0.436610
 20
0.190689
  0
VERTEX
  8
EBENE_1
 62
    39
  6
CONTINUOUS
 10
-0.234496
 20
0.244969
  0
VERTEX
  8
EBENE_1
 62
    39
  6
CONTINUOUS
 10
-0.214136
 20
0.247550
  0
VERTEX
  8
EBENE_1
 62
    39
  6
CONTINUOUS
 10
-0.200163
 20
0.243725
  0
VERTEX
  8
EBENE_1
 62
    39
  6
CONTINUOUS
 10
-0.190396
 20
0.235415
  0
VERTEX
  8
EBENE_1
 62
    39
  6
CONTINUOUS
 10
-0.182652
 20
0.224547
  0
VERTEX
  8
EBENE_1
 62
    39
  6
CONTINUOUS
 10
-0.174750
 20
0.213044
  0
SEQEND
  8
0
  0
POLYLINE
  8
EBENE_1
 62
    39
  6
CONTINUOUS
 66
     1
 40
0.003000
 41
0.003000
 70
     1
  0
VERTEX
  8
EBENE_1
 62
    39
  6
CONTINUOUS
 10
-0.329484
 20
0.189264
  0
VERTEX
  8
EBENE_1
 62
    39
  6
CONTINUOUS
 10
-0.326230
 20
0.190136
  0
VERTEX
  8
EBENE_1
 62
    39
  6
CONTINUOUS
 10
-0.323928
 20
0.192436
  0
VERTEX
  8
EBENE_1
 62
    39
  6
CONTINUOUS
 10
-0.323055
 20
0.195689
  0
VERTEX
  8
EBENE_1
 62
    39
  6
CONTINUOUS
 10
-0.323928
 20
0.199128
  0
VERTEX
  8
EBENE_1
 62
    39
  6
CONTINUOUS
 10
-0.326230
 20
0.201773
  0
VERTEX
  8
EBENE_1
 62
    39
  6
CONTINUOUS
 10
-0.329484
 20
0.202831
  0
VERTEX
  8
EBENE_1
 62
    39
  6
CONTINUOUS
 10
-0.333240
 20
0.201773
  0
VERTEX
  8
EBENE_1
 62
    39
  6
CONTINUOUS
 10
-0.335726
 20
0.199128
  0
VERTEX
  8
EBENE_1
 62
    39
  6
CONTINUOUS
 10
-0.336626
 20
0.195689
  0
VERTEX
  8
EBENE_1
 62
    39
  6
CONTINUOUS
 10
-0.335726
 20
0.192436
  0
VERTEX
  8
EBENE_1
 62
    39
  6
CONTINUOUS
 10
-0.333240
 20
0.190136
  0
SEQEND
  8
0
  0
POLYLINE
  8
EBENE_1
 62
    39
  6
CONTINUOUS
 66
     1
 40
0.003000
 41
0.003000
 70
     1
  0
VERTEX
  8
EBENE_1
 62
    39
  6
CONTINUOUS
 10
-0.257350
 20
0.204260
  0
VERTEX
  8
EBENE_1
 62
    39
  6
CONTINUOUS
 10
-0.253912
 20
0.205318
  0
VERTEX
  8
EBENE_1
 62
    39
  6
CONTINUOUS
 10
-0.251267
 20
0.207963
  0
VERTEX
  8
EBENE_1
 62
    39
  6
CONTINUOUS
 10
-0.250209
 20
0.211402
  0
VERTEX
  8
EBENE_1
 62
    39
  6
CONTINUOUS
 10
-0.251267
 20
0.214655
  0
VERTEX
  8
EBENE_1
 62
    39
  6
CONTINUOUS
 10
-0.253912
 20
0.216957
  0
VERTEX
  8
EBENE_1
 62
    39
  6
CONTINUOUS
 10
-0.257350
 20
0.217831
  0
VERTEX
  8
EBENE_1
 62
    39
  6
CONTINUOUS
 10
-0.260789
 20
0.216957
  0
VERTEX
  8
EBENE_1
 62
    39
  6
CONTINUOUS
 10
-0.263434
 20
0.214655
  0
VERTEX
  8
EBENE_1
 62
    39
  6
CONTINUOUS
 10
-0.264492
 20
0.211402
  0
VERTEX
  8
EBENE_1
 62
    39
  6
CONTINUOUS
 10
-0.263434
 20
0.207963
  0
VERTEX
  8
EBENE_1
 62
    39
  6
CONTINUOUS
 10
-0.260789
 20
0.205318
  0
SEQEND
  8
0
  0
POLYLINE
  8
EBENE_1
 62
    39
  6
CONTINUOUS
 66
     1
 40
0.003000
 41
0.003000
 70
     1
  0
VERTEX
  8
EBENE_1
 62
    39
  6
CONTINUOUS
 10
-0.186646
 20
0.177122
  0
VERTEX
  8
EBENE_1
 62
    39
  6
CONTINUOUS
 10
-0.183207
 20
0.178021
  0
VERTEX
  8
EBENE_1
 62
    39
  6
CONTINUOUS
 10
-0.180562
 20
0.180507
  0
VERTEX
  8
EBENE_1
 62
    39
  6
CONTINUOUS
 10
-0.179504
 20
0.184264
  0
VERTEX
  8
EBENE_1
 62
    39
  6
CONTINUOUS
 10
-0.180562
 20
0.187517
  0
VERTEX
  8
EBENE_1
 62
    39
  6
CONTINUOUS
 10
-0.183207
 20
0.189817
  0
VERTEX
  8
EBENE_1
 62
    39
  6
CONTINUOUS
 10
-0.186646
 20
0.190689
  0
VERTEX
  8
EBENE_1
 62
    39
  6
CONTINUOUS
 10
-0.189900
 20
0.189817
  0
VERTEX
  8
EBENE_1
 62
    39
  6
CONTINUOUS
 10
-0.192202
 20
0.187517
  0
VERTEX
  8
EBENE_1
 62
    39
  6
CONTINUOUS
 10
-0.193075
 20
0.184264
  0
VERTEX
  8
EBENE_1
 62
    39
  6
CONTINUOUS
 10
-0.192202
 20
0.180507
  0
VERTEX
  8
EBENE_1
 62
    39
  6
CONTINUOUS
 10
-0.189900
 20
0.178021
  0
SEQEND
  8
0
  0
POLYLINE
  8
EBENE_1
 62
    39
  6
CONTINUOUS
 66
     1
 40
0.003000
 41
0.003000
 70
     1
  0
VERTEX
  8
EBENE_1
 62
    39
  6
CONTINUOUS
 10
0.037606
 20
0.257110
  0
VERTEX
  8
EBENE_1
 62
    39
  6
CONTINUOUS
 10
0.226150
 20
-0.052843
  0
VERTEX
  8
EBENE_1
 62
    39
  6
CONTINUOUS
 10
0.028319
 20
-0.104264
  0
VERTEX
  8
EBENE_1
 62
    39
  6
CONTINUOUS
 10
0.020600
 20
-0.105533
  0
VERTEX
  8
EBENE_1
 62
    39
  6
CONTINUOUS
 10
0.012110
 20
-0.106093
  0
VERTEX
  8
EBENE_1
 62
    39
  6
CONTINUOUS
 10
0.002910
 20
-0.105947
  0
VERTEX
  8
EBENE_1
 62
    39
  6
CONTINUOUS
 10
-0.006940
 20
-0.105098
  0
VERTEX
  8
EBENE_1
 62
    39
  6
CONTINUOUS
 10
-0.017380
 20
-0.103551
  0
VERTEX
  8
EBENE_1
 62
    39
  6
CONTINUOUS
 10
-0.028351
 20
-0.101309
  0
VERTEX
  8
EBENE_1
 62
    39
  6
CONTINUOUS
 10
-0.039791
 20
-0.098376
  0
VERTEX
  8
EBENE_1
 62
    39
  6
CONTINUOUS
 10
-0.051642
 20
-0.094756
  0
VERTEX
  8
EBENE_1
 62
    39
  6
CONTINUOUS
 10
-0.063842
 20
-0.090451
  0
VERTEX
  8
EBENE_1
 62
    39
  6
CONTINUOUS
 10
-0.076332
 20
-0.085467
  0
VERTEX
  8
EBENE_1
 62
    39
  6
CONTINUOUS
 10
-0.089052
 20
-0.079806
  0
VERTEX
  8
EBENE_1
 62
    39
  6
CONTINUOUS
 10
-0.101941
 20
-0.073472
  0
VERTEX
  8
EBENE_1
 62
    39
  6
CONTINUOUS
 10
-0.114939
 20
-0.066470
  0
VERTEX
  8
EBENE_1
 62
    39
  6
CONTINUOUS
 10
-0.127988
 20
-0.058801
  0
VERTEX
  8
EBENE_1
 62
    39
  6
CONTINUOUS
 10
-0.141025
 20
-0.050472
  0
VERTEX
  8
EBENE_1
 62
    39
  6
CONTINUOUS
 10
-0.153992
 20
-0.041484
  0
VERTEX
  8
EBENE_1
 62
    39
  6
CONTINUOUS
 10
-0.166827
 20
-0.031842
  0
VERTEX
  8
EBENE_1
 62
    39
  6
CONTINUOUS
 10
-0.179472
 20
-0.021549
  0
VERTEX
  8
EBENE_1
 62
    39
  6
CONTINUOUS
 10
-0.191866
 20
-0.010610
  0
VERTEX
  8
EBENE_1
 62
    39
  6
CONTINUOUS
 10
-0.203948
 20
0.000973
  0
VERTEX
  8
EBENE_1
 62
    39
  6
CONTINUOUS
 10
-0.215660
 20
0.013196
  0
VERTEX
  8
EBENE_1
 62
    39
  6
CONTINUOUS
 10
-0.226940
 20
0.026054
  0
VERTEX
  8
EBENE_1
 62
    39
  6
CONTINUOUS
 10
-0.237728
 20
0.039544
  0
VERTEX
  8
EBENE_1
 62
    39
  6
CONTINUOUS
 10
-0.247965
 20
0.053663
  0
VERTEX
  8
EBENE_1
 62
    39
  6
CONTINUOUS
 10
-0.257591
 20
0.068407
  0
VERTEX
  8
EBENE_1
 62
    39
  6
CONTINUOUS
 10
-0.266545
 20
0.083771
  0
VERTEX
  8
EBENE_1
 62
    39
  6
CONTINUOUS
 10
-0.274767
 20
0.099753
  0
VERTEX
  8
EBENE_1
 62
    39
  6
CONTINUOUS
 10
-0.282197
 20
0.116349
  0
VERTEX
  8
EBENE_1
 62
    39
  6
CONTINUOUS
 10
-0.288776
 20
0.133555
  0
VERTEX
  8
EBENE_1
 62
    39
  6
CONTINUOUS
 10
-0.288776
 20
0.133555
  0
VERTEX
  8
EBENE_1
 62
    39
  6
CONTINUOUS
 10
-0.291462
 20
0.154716
  0
VERTEX
  8
EBENE_1
 62
    39
  6
CONTINUOUS
 10
-0.291118
 20
0.174152
  0
VERTEX
  8
EBENE_1
 62
    39
  6
CONTINUOUS
 10
-0.287996
 20
0.191681
  0
VERTEX
  8
EBENE_1
 62
    39
  6
CONTINUOUS
 10
-0.282347
 20
0.207117
  0
VERTEX
  8
EBENE_1
 62
    39
  6
CONTINUOUS
 10
-0.274421
 20
0.220276
  0
VERTEX
  8
EBENE_1
 62
    39
  6
CONTINUOUS
 10
-0.264470
 20
0.230976
  0
VERTEX
  8
EBENE_1
 62
    39
  6
CONTINUOUS
 10
-0.252745
 20
0.239030
  0
VERTEX
  8
EBENE_1
 62
    39
  6
CONTINUOUS
 10
-0.239496
 20
0.244256
  0
VERTEX
  8
EBENE_1
 62
    39
  6
CONTINUOUS
 10
-0.033094
 20
0.299248
  0
VERTEX
  8
EBENE_1
 62
    39
  6
CONTINUOUS
 10
-0.012732
 20
0.302127
  0
VERTEX
  8
EBENE_1
 62
    39
  6
CONTINUOUS
 10
0.001262
 20
0.298479
  0
VERTEX
  8
EBENE_1
 62
    39
  6
CONTINUOUS
 10
0.011092
 20
0.290229
  0
VERTEX
  8
EBENE_1
 62
    39
  6
CONTINUOUS
 10
0.018958
 20
0.279302
  0
VERTEX
  8
EBENE_1
 62
    39
  6
CONTINUOUS
 10
0.027062
 20
0.267621
  0
SEQEND
  8
0
  0
POLYLINE
  8
EBENE_1
 62
    39
  6
CONTINUOUS
 66
     1
 40
0.003000
 41
0.003000
 70
     1
  0
VERTEX
  8
EBENE_1
 62
    39
  6
CONTINUOUS
 10
0.037606
 20
0.255681
  0
VERTEX
  8
EBENE_1
 62
    39
  6
CONTINUOUS
 10
0.223295
 20
-0.049272
  0
VERTEX
  8
EBENE_1
 62
    39
  6
CONTINUOUS
 10
0.029035
 20
-0.099268
  0
VERTEX
  8
EBENE_1
 62
    39
  6
CONTINUOUS
 10
0.021398
 20
-0.100611
  0
VERTEX
  8
EBENE_1
 62
    39
  6
CONTINUOUS
 10
0.013004
 20
-0.101245
  0
VERTEX
  8
EBENE_1
 62
    39
  6
CONTINUOUS
 10
0.003913
 20
-0.101174
  0
VERTEX
  8
EBENE_1
 62
    39
  6
CONTINUOUS
 10
-0.005816
 20
-0.100403
  0
VERTEX
  8
EBENE_1
 62
    39
  6
CONTINUOUS
 10
-0.016122
 20
-0.098935
  0
VERTEX
  8
EBENE_1
 62
    39
  6
CONTINUOUS
 10
-0.026949
 20
-0.096775
  0
VERTEX
  8
EBENE_1
 62
    39
  6
CONTINUOUS
 10
-0.038235
 20
-0.093926
  0
VERTEX
  8
EBENE_1
 62
    39
  6
CONTINUOUS
 10
-0.049921
 20
-0.090394
  0
VERTEX
  8
EBENE_1
 62
    39
  6
CONTINUOUS
 10
-0.061950
 20
-0.086183
  0
VERTEX
  8
EBENE_1
 62
    39
  6
CONTINUOUS
 10
-0.074260
 20
-0.081296
  0
VERTEX
  8
EBENE_1
 62
    39
  6
CONTINUOUS
 10
-0.086794
 20
-0.075738
  0
VERTEX
  8
EBENE_1
 62
    39
  6
CONTINUOUS
 10
-0.099492
 20
-0.069513
  0
VERTEX
  8
EBENE_1
 62
    39
  6
CONTINUOUS
 10
-0.112295
 20
-0.062625
  0
VERTEX
  8
EBENE_1
 62
    39
  6
CONTINUOUS
 10
-0.125143
 20
-0.055079
  0
VERTEX
  8
EBENE_1
 62
    39
  6
CONTINUOUS
 10
-0.137977
 20
-0.046878
  0
VERTEX
  8
EBENE_1
 62
    39
  6
CONTINUOUS
 10
-0.150739
 20
-0.038028
  0
VERTEX
  8
EBENE_1
 62
    39
  6
CONTINUOUS
 10
-0.163368
 20
-0.028531
  0
VERTEX
  8
EBENE_1
 62
    39
  6
CONTINUOUS
 10
-0.175806
 20
-0.018393
  0
VERTEX
  8
EBENE_1
 62
    39
  6
CONTINUOUS
 10
-0.187994
 20
-0.007618
  0
VERTEX
  8
EBENE_1
 62
    39
  6
CONTINUOUS
 10
-0.199871
 20
0.003791
  0
VERTEX
  8
EBENE_1
 62
    39
  6
CONTINUOUS
 10
-0.211380
 20
0.015829
  0
VERTEX
  8
EBENE_1
 62
    39
  6
CONTINUOUS
 10
-0.222461
 20
0.028491
  0
VERTEX
  8
EBENE_1
 62
    39
  6
CONTINUOUS
 10
-0.233054
 20
0.041774
  0
VERTEX
  8
EBENE_1
 62
    39
  6
CONTINUOUS
 10
-0.243101
 20
0.055674
  0
VERTEX
  8
EBENE_1
 62
    39
  6
CONTINUOUS
 10
-0.252542
 20
0.070185
  0
VERTEX
  8
EBENE_1
 62
    39
  6
CONTINUOUS
 10
-0.261318
 20
0.085304
  0
VERTEX
  8
EBENE_1
 62
    39
  6
CONTINUOUS
 10
-0.269369
 20
0.101027
  0
VERTEX
  8
EBENE_1
 62
    39
  6
CONTINUOUS
 10
-0.276637
 20
0.117350
  0
VERTEX
  8
EBENE_1
 62
    39
  6
CONTINUOUS
 10
-0.283063
 20
0.134268
  0
VERTEX
  8
EBENE_1
 62
    39
  6
CONTINUOUS
 10
-0.283063
 20
0.134268
  0
VERTEX
  8
EBENE_1
 62
    39
  6
CONTINUOUS
 10
-0.285955
 20
0.155162
  0
VERTEX
  8
EBENE_1
 62
    39
  6
CONTINUOUS
 10
-0.285717
 20
0.174341
  0
VERTEX
  8
EBENE_1
 62
    39
  6
CONTINUOUS
 10
-0.282634
 20
0.191628
  0
VERTEX
  8
EBENE_1
 62
    39
  6
CONTINUOUS
 10
-0.276991
 20
0.206847
  0
VERTEX
  8
EBENE_1
 62
    39
  6
CONTINUOUS
 10
-0.269071
 20
0.219824
  0
VERTEX
  8
EBENE_1
 62
    39
  6
CONTINUOUS
 10
-0.259158
 20
0.230382
  0
VERTEX
  8
EBENE_1
 62
    39
  6
CONTINUOUS
 10
-0.247539
 20
0.238346
  0
VERTEX
  8
EBENE_1
 62
    39
  6
CONTINUOUS
 10
-0.234496
 20
0.243539
  0
VERTEX
  8
EBENE_1
 62
    39
  6
CONTINUOUS
 10
-0.032382
 20
0.297819
  0
VERTEX
  8
EBENE_1
 62
    39
  6
CONTINUOUS
 10
-0.012022
 20
0.300401
  0
VERTEX
  8
EBENE_1
 62
    39
  6
CONTINUOUS
 10
0.001950
 20
0.296575
  0
VERTEX
  8
EBENE_1
 62
    39
  6
CONTINUOUS
 10
0.011717
 20
0.288266
  0
VERTEX
  8
EBENE_1
 62
    39
  6
CONTINUOUS
 10
0.019460
 20
0.277397
  0
VERTEX
  8
EBENE_1
 62
    39
  6
CONTINUOUS
 10
0.027363
 20
0.265895
  0
SEQEND
  8
0
  0
POLYLINE
  8
EBENE_1
 62
    39
  6
CONTINUOUS
 66
     1
 40
0.003000
 41
0.003000
 70
     1
  0
VERTEX
  8
EBENE_1
 62
    39
  6
CONTINUOUS
 10
-0.128083
 20
0.241398
  0
VERTEX
  8
EBENE_1
 62
    39
  6
CONTINUOUS
 10
-0.124327
 20
0.242456
  0
VERTEX
  8
EBENE_1
 62
    39
  6
CONTINUOUS
 10
-0.121841
 20
0.245101
  0
VERTEX
  8
EBENE_1
 62
    39
  6
CONTINUOUS
 10
-0.120941
 20
0.248539
  0
VERTEX
  8
EBENE_1
 62
    39
  6
CONTINUOUS
 10
-0.121841
 20
0.251793
  0
VERTEX
  8
EBENE_1
 62
    39
  6
CONTINUOUS
 10
-0.124327
 20
0.254095
  0
VERTEX
  8
EBENE_1
 62
    39
  6
CONTINUOUS
 10
-0.128083
 20
0.254969
  0
VERTEX
  8
EBENE_1
 62
    39
  6
CONTINUOUS
 10
-0.131337
 20
0.254095
  0
VERTEX
  8
EBENE_1
 62
    39
  6
CONTINUOUS
 10
-0.133639
 20
0.251793
  0
VERTEX
  8
EBENE_1
 62
    39
  6
CONTINUOUS
 10
-0.134512
 20
0.248539
  0
VERTEX
  8
EBENE_1
 62
    39
  6
CONTINUOUS
 10
-0.133639
 20
0.245101
  0
VERTEX
  8
EBENE_1
 62
    39
  6
CONTINUOUS
 10
-0.131337
 20
0.242456
  0
SEQEND
  8
0
  0
POLYLINE
  8
EBENE_1
 62
    39
  6
CONTINUOUS
 66
     1
 40
0.003000
 41
0.003000
 70
     1
  0
VERTEX
  8
EBENE_1
 62
    39
  6
CONTINUOUS
 10
-0.055236
 20
0.257110
  0
VERTEX
  8
EBENE_1
 62
    39
  6
CONTINUOUS
 10
-0.051982
 20
0.258009
  0
VERTEX
  8
EBENE_1
 62
    39
  6
CONTINUOUS
 10
-0.049680
 20
0.260495
  0
VERTEX
  8
EBENE_1
 62
    39
  6
CONTINUOUS
 10
-0.048807
 20
0.264252
  0
VERTEX
  8
EBENE_1
 62
    39
  6
CONTINUOUS
 10
-0.049680
 20
0.267506
  0
VERTEX
  8
EBENE_1
 62
    39
  6
CONTINUOUS
 10
-0.051982
 20
0.269808
  0
VERTEX
  8
EBENE_1
 62
    39
  6
CONTINUOUS
 10
-0.055236
 20
0.270681
  0
VERTEX
  8
EBENE_1
 62
    39
  6
CONTINUOUS
 10
-0.058992
 20
0.269808
  0
VERTEX
  8
EBENE_1
 62
    39
  6
CONTINUOUS
 10
-0.061478
 20
0.267506
  0
VERTEX
  8
EBENE_1
 62
    39
  6
CONTINUOUS
 10
-0.062378
 20
0.264252
  0
VERTEX
  8
EBENE_1
 62
    39
  6
CONTINUOUS
 10
-0.061478
 20
0.260495
  0
VERTEX
  8
EBENE_1
 62
    39
  6
CONTINUOUS
 10
-0.058992
 20
0.258009
  0
SEQEND
  8
0
  0
POLYLINE
  8
EBENE_1
 62
    39
  6
CONTINUOUS
 66
     1
 40
0.003000
 41
0.003000
 70
     1
  0
VERTEX
  8
EBENE_1
 62
    39
  6
CONTINUOUS
 10
0.015465
 20
0.229969
  0
VERTEX
  8
EBENE_1
 62
    39
  6
CONTINUOUS
 10
0.018718
 20
0.230842
  0
VERTEX
  8
EBENE_1
 62
    39
  6
CONTINUOUS
 10
0.021020
 20
0.233144
  0
VERTEX
  8
EBENE_1
 62
    39
  6
CONTINUOUS
 10
0.021894
 20
0.236398
  0
VERTEX
  8
EBENE_1
 62
    39
  6
CONTINUOUS
 10
0.021020
 20
0.240153
  0
VERTEX
  8
EBENE_1
 62
    39
  6
CONTINUOUS
 10
0.018718
 20
0.242640
  0
VERTEX
  8
EBENE_1
 62
    39
  6
CONTINUOUS
 10
0.015465
 20
0.243539
  0
VERTEX
  8
EBENE_1
 62
    39
  6
CONTINUOUS
 10
0.012026
 20
0.242640
  0
VERTEX
  8
EBENE_1
 62
    39
  6
CONTINUOUS
 10
0.009381
 20
0.240153
  0
VERTEX
  8
EBENE_1
 62
    39
  6
CONTINUOUS
 10
0.008323
 20
0.236398
  0
VERTEX
  8
EBENE_1
 62
    39
  6
CONTINUOUS
 10
0.009381
 20
0.233144
  0
VERTEX
  8
EBENE_1
 62
    39
  6
CONTINUOUS
 10
0.012026
 20
0.230842
  0
SEQEND
  8
0
  0
POLYLINE
  8
EBENE_1
 62
    39
  6
CONTINUOUS
 66
     1
 40
0.003000
 41
0.003000
 70
     1
  0
VERTEX
  8
EBENE_1
 62
    39
  6
CONTINUOUS
 10
0.239720
 20
0.309961
  0
VERTEX
  8
EBENE_1
 62
    39
  6
CONTINUOUS
 10
0.428268
 20
0.000004
  0
VERTEX
  8
EBENE_1
 62
    39
  6
CONTINUOUS
 10
0.230437
 20
-0.051413
  0
VERTEX
  8
EBENE_1
 62
    39
  6
CONTINUOUS
 10
0.222715
 20
-0.052752
  0
VERTEX
  8
EBENE_1
 62
    39
  6
CONTINUOUS
 10
0.214218
 20
-0.053371
  0
VERTEX
  8
EBENE_1
 62
    39
  6
CONTINUOUS
 10
0.205007
 20
-0.053275
  0
VERTEX
  8
EBENE_1
 62
    39
  6
CONTINUOUS
 10
0.195142
 20
-0.052468
  0
VERTEX
  8
EBENE_1
 62
    39
  6
CONTINUOUS
 10
0.184683
 20
-0.050955
  0
VERTEX
  8
EBENE_1
 62
    39
  6
CONTINUOUS
 10
0.173692
 20
-0.048739
  0
VERTEX
  8
EBENE_1
 62
    39
  6
CONTINUOUS
 10
0.162230
 20
-0.045825
  0
VERTEX
  8
EBENE_1
 62
    39
  6
CONTINUOUS
 10
0.150356
 20
-0.042217
  0
VERTEX
  8
EBENE_1
 62
    39
  6
CONTINUOUS
 10
0.138131
 20
-0.037919
  0
VERTEX
  8
EBENE_1
 62
    39
  6
CONTINUOUS
 10
0.125616
 20
-0.032936
  0
VERTEX
  8
EBENE_1
 62
    39
  6
CONTINUOUS
 10
0.112872
 20
-0.027271
  0
VERTEX
  8
EBENE_1
 62
    39
  6
CONTINUOUS
 10
0.099959
 20
-0.020929
  0
VERTEX
  8
EBENE_1
 62
    39
  6
CONTINUOUS
 10
0.086937
 20
-0.013914
  0
VERTEX
  8
EBENE_1
 62
    39
  6
CONTINUOUS
 10
0.073868
 20
-0.006230
  0
VERTEX
  8
EBENE_1
 62
    39
  6
CONTINUOUS
 10
0.060813
 20
0.002118
  0
VERTEX
  8
EBENE_1
 62
    39
  6
CONTINUOUS
 10
0.047830
 20
0.011127
  0
VERTEX
  8
EBENE_1
 62
    39
  6
CONTINUOUS
 10
0.034982
 20
0.020791
  0
VERTEX
  8
EBENE_1
 62
    39
  6
CONTINUOUS
 10
0.022329
 20
0.031108
  0
VERTEX
  8
EBENE_1
 62
    39
  6
CONTINUOUS
 10
0.009932
 20
0.042072
  0
VERTEX
  8
EBENE_1
 62
    39
  6
CONTINUOUS
 10
-0.002150
 20
0.053679
  0
VERTEX
  8
EBENE_1
 62
    39
  6
CONTINUOUS
 10
-0.013855
 20
0.065926
  0
VERTEX
  8
EBENE_1
 62
    39
  6
CONTINUOUS
 10
-0.025122
 20
0.078808
  0
VERTEX
  8
EBENE_1
 62
    39
  6
CONTINUOUS
 10
-0.035892
 20
0.092320
  0
VERTEX
  8
EBENE_1
 62
    39
  6
CONTINUOUS
 10
-0.046103
 20
0.106459
  0
VERTEX
  8
EBENE_1
 62
    39
  6
CONTINUOUS
 10
-0.055695
 20
0.121221
  0
VERTEX
  8
EBENE_1
 62
    39
  6
CONTINUOUS
 10
-0.064607
 20
0.136600
  0
VERTEX
  8
EBENE_1
 62
    39
  6
CONTINUOUS
 10
-0.072778
 20
0.152594
  0
VERTEX
  8
EBENE_1
 62
    39
  6
CONTINUOUS
 10
-0.080149
 20
0.169197
  0
VERTEX
  8
EBENE_1
 62
    39
  6
CONTINUOUS
 10
-0.086657
 20
0.186406
  0
VERTEX
  8
EBENE_1
 62
    39
  6
CONTINUOUS
 10
-0.086657
 20
0.186406
  0
VERTEX
  8
EBENE_1
 62
    39
  6
CONTINUOUS
 10
-0.089549
 20
0.207566
  0
VERTEX
  8
EBENE_1
 62
    39
  6
CONTINUOUS
 10
-0.089303
 20
0.227002
  0
VERTEX
  8
EBENE_1
 62
    39
  6
CONTINUOUS
 10
-0.086194
 20
0.244531
  0
VERTEX
  8
EBENE_1
 62
    39
  6
CONTINUOUS
 10
-0.080500
 20
0.259967
  0
VERTEX
  8
EBENE_1
 62
    39
  6
CONTINUOUS
 10
-0.072495
 20
0.273126
  0
VERTEX
  8
EBENE_1
 62
    39
  6
CONTINUOUS
 10
-0.062456
 20
0.283824
  0
VERTEX
  8
EBENE_1
 62
    39
  6
CONTINUOUS
 10
-0.050660
 20
0.291878
  0
VERTEX
  8
EBENE_1
 62
    39
  6
CONTINUOUS
 10
-0.037382
 20
0.297102
  0
VERTEX
  8
EBENE_1
 62
    39
  6
CONTINUOUS
 10
0.168299
 20
0.352098
  0
VERTEX
  8
EBENE_1
 62
    39
  6
CONTINUOUS
 10
0.188965
 20
0.354928
  0
VERTEX
  8
EBENE_1
 62
    39
  6
CONTINUOUS
 10
0.203163
 20
0.351171
  0
VERTEX
  8
EBENE_1
 62
    39
  6
CONTINUOUS
 10
0.213116
 20
0.342813
  0
VERTEX
  8
EBENE_1
 62
    39
  6
CONTINUOUS
 10
0.221045
 20
0.331835
  0
VERTEX
  8
EBENE_1
 62
    39
  6
CONTINUOUS
 10
0.229173
 20
0.320224
  0
SEQEND
  8
0
  0
POLYLINE
  8
EBENE_1
 62
    39
  6
CONTINUOUS
 66
     1
 40
0.003000
 41
0.003000
 70
     1
  0
VERTEX
  8
EBENE_1
 62
    39
  6
CONTINUOUS
 10
0.239720
 20
0.308531
  0
VERTEX
  8
EBENE_1
 62
    39
  6
CONTINUOUS
 10
0.425409
 20
0.003575
  0
VERTEX
  8
EBENE_1
 62
    39
  6
CONTINUOUS
 10
0.230437
 20
-0.047130
  0
VERTEX
  8
EBENE_1
 62
    39
  6
CONTINUOUS
 10
0.222585
 20
-0.048434
  0
VERTEX
  8
EBENE_1
 62
    39
  6
CONTINUOUS
 10
0.213919
 20
-0.048983
  0
VERTEX
  8
EBENE_1
 62
    39
  6
CONTINUOUS
 10
0.204505
 20
-0.048782
  0
VERTEX
  8
EBENE_1
 62
    39
  6
CONTINUOUS
 10
0.194408
 20
-0.047834
  0
VERTEX
  8
EBENE_1
 62
    39
  6
CONTINUOUS
 10
0.183694
 20
-0.046145
  0
VERTEX
  8
EBENE_1
 62
    39
  6
CONTINUOUS
 10
0.172430
 20
-0.043718
  0
VERTEX
  8
EBENE_1
 62
    39
  6
CONTINUOUS
 10
0.160680
 20
-0.040558
  0
VERTEX
  8
EBENE_1
 62
    39
  6
CONTINUOUS
 10
0.148510
 20
-0.036670
  0
VERTEX
  8
EBENE_1
 62
    39
  6
CONTINUOUS
 10
0.135987
 20
-0.032059
  0
VERTEX
  8
EBENE_1
 62
    39
  6
CONTINUOUS
 10
0.123176
 20
-0.026728
  0
VERTEX
  8
EBENE_1
 62
    39
  6
CONTINUOUS
 10
0.110143
 20
-0.020682
  0
VERTEX
  8
EBENE_1
 62
    39
  6
CONTINUOUS
 10
0.096954
 20
-0.013926
  0
VERTEX
  8
EBENE_1
 62
    39
  6
CONTINUOUS
 10
0.083674
 20
-0.006464
  0
VERTEX
  8
EBENE_1
 62
    39
  6
CONTINUOUS
 10
0.070369
 20
0.001700
  0
VERTEX
  8
EBENE_1
 62
    39
  6
CONTINUOUS
 10
0.057105
 20
0.010560
  0
VERTEX
  8
EBENE_1
 62
    39
  6
CONTINUOUS
 10
0.043948
 20
0.020113
  0
VERTEX
  8
EBENE_1
 62
    39
  6
CONTINUOUS
 10
0.030964
 20
0.030353
  0
VERTEX
  8
EBENE_1
 62
    39
  6
CONTINUOUS
 10
0.018218
 20
0.041277
  0
VERTEX
  8
EBENE_1
 62
    39
  6
CONTINUOUS
 10
0.005776
 20
0.052880
  0
VERTEX
  8
EBENE_1
 62
    39
  6
CONTINUOUS
 10
-0.006296
 20
0.065158
  0
VERTEX
  8
EBENE_1
 62
    39
  6
CONTINUOUS
 10
-0.017932
 20
0.078105
  0
VERTEX
  8
EBENE_1
 62
    39
  6
CONTINUOUS
 10
-0.029067
 20
0.091718
  0
VERTEX
  8
EBENE_1
 62
    39
  6
CONTINUOUS
 10
-0.039635
 20
0.105992
  0
VERTEX
  8
EBENE_1
 62
    39
  6
CONTINUOUS
 10
-0.049569
 20
0.120922
  0
VERTEX
  8
EBENE_1
 62
    39
  6
CONTINUOUS
 10
-0.058805
 20
0.136504
  0
VERTEX
  8
EBENE_1
 62
    39
  6
CONTINUOUS
 10
-0.067276
 20
0.152734
  0
VERTEX
  8
EBENE_1
 62
    39
  6
CONTINUOUS
 10
-0.074917
 20
0.169607
  0
VERTEX
  8
EBENE_1
 62
    39
  6
CONTINUOUS
 10
-0.081661
 20
0.187118
  0
VERTEX
  8
EBENE_1
 62
    39
  6
CONTINUOUS
 10
-0.081661
 20
0.187118
  0
VERTEX
  8
EBENE_1
 62
    39
  6
CONTINUOUS
 10
-0.084349
 20
0.207807
  0
VERTEX
  8
EBENE_1
 62
    39
  6
CONTINUOUS
 10
-0.084015
 20
0.226879
  0
VERTEX
  8
EBENE_1
 62
    39
  6
CONTINUOUS
 10
-0.080920
 20
0.244127
  0
VERTEX
  8
EBENE_1
 62
    39
  6
CONTINUOUS
 10
-0.075322
 20
0.259342
  0
VERTEX
  8
EBENE_1
 62
    39
  6
CONTINUOUS
 10
-0.067481
 20
0.272313
  0
VERTEX
  8
EBENE_1
 62
    39
  6
CONTINUOUS
 10
-0.057657
 20
0.282832
  0
VERTEX
  8
EBENE_1
 62
    39
  6
CONTINUOUS
 10
-0.046108
 20
0.290690
  0
VERTEX
  8
EBENE_1
 62
    39
  6
CONTINUOUS
 10
-0.033094
 20
0.295677
  0
VERTEX
  8
EBENE_1
 62
    39
  6
CONTINUOUS
 10
0.169728
 20
0.349953
  0
VERTEX
  8
EBENE_1
 62
    39
  6
CONTINUOUS
 10
0.190041
 20
0.352589
  0
VERTEX
  8
EBENE_1
 62
    39
  6
CONTINUOUS
 10
0.203905
 20
0.348896
  0
VERTEX
  8
EBENE_1
 62
    39
  6
CONTINUOUS
 10
0.213563
 20
0.340759
  0
VERTEX
  8
EBENE_1
 62
    39
  6
CONTINUOUS
 10
0.221258
 20
0.330063
  0
VERTEX
  8
EBENE_1
 62
    39
  6
CONTINUOUS
 10
0.229229
 20
0.318692
  0
SEQEND
  8
0
  0
POLYLINE
  8
EBENE_1
 62
    39
  6
CONTINUOUS
 66
     1
 40
0.003000
 41
0.003000
 70
     1
  0
VERTEX
  8
EBENE_1
 62
    39
  6
CONTINUOUS
 10
0.074028
 20
0.294248
  0
VERTEX
  8
EBENE_1
 62
    39
  6
CONTINUOUS
 10
0.077466
 20
0.295147
  0
VERTEX
  8
EBENE_1
 62
    39
  6
CONTINUOUS
 10
0.080111
 20
0.297633
  0
VERTEX
  8
EBENE_1
 62
    39
  6
CONTINUOUS
 10
0.081169
 20
0.301390
  0
VERTEX
  8
EBENE_1
 62
    39
  6
CONTINUOUS
 10
0.080111
 20
0.304644
  0
VERTEX
  8
EBENE_1
 62
    39
  6
CONTINUOUS
 10
0.077466
 20
0.306946
  0
VERTEX
  8
EBENE_1
 62
    39
  6
CONTINUOUS
 10
0.074028
 20
0.307819
  0
VERTEX
  8
EBENE_1
 62
    39
  6
CONTINUOUS
 10
0.070775
 20
0.306946
  0
VERTEX
  8
EBENE_1
 62
    39
  6
CONTINUOUS
 10
0.068475
 20
0.304644
  0
VERTEX
  8
EBENE_1
 62
    39
  6
CONTINUOUS
 10
0.067602
 20
0.301390
  0
VERTEX
  8
EBENE_1
 62
    39
  6
CONTINUOUS
 10
0.068475
 20
0.297633
  0
VERTEX
  8
EBENE_1
 62
    39
  6
CONTINUOUS
 10
0.070775
 20
0.295147
  0
SEQEND
  8
0
  0
POLYLINE
  8
EBENE_1
 62
    39
  6
CONTINUOUS
 66
     1
 40
0.003000
 41
0.003000
 70
     1
  0
VERTEX
  8
EBENE_1
 62
    39
  6
CONTINUOUS
 10
0.146161
 20
0.309961
  0
VERTEX
  8
EBENE_1
 62
    39
  6
CONTINUOUS
 10
0.149917
 20
0.310833
  0
VERTEX
  8
EBENE_1
 62
    39
  6
CONTINUOUS
 10
0.152403
 20
0.313133
  0
VERTEX
  8
EBENE_1
 62
    39
  6
CONTINUOUS
 10
0.153303
 20
0.316386
  0
VERTEX
  8
EBENE_1
 62
    39
  6
CONTINUOUS
 10
0.152403
 20
0.320144
  0
VERTEX
  8
EBENE_1
 62
    39
  6
CONTINUOUS
 10
0.149917
 20
0.322632
  0
VERTEX
  8
EBENE_1
 62
    39
  6
CONTINUOUS
 10
0.146161
 20
0.323531
  0
VERTEX
  8
EBENE_1
 62
    39
  6
CONTINUOUS
 10
0.142908
 20
0.322632
  0
VERTEX
  8
EBENE_1
 62
    39
  6
CONTINUOUS
 10
0.140606
 20
0.320144
  0
VERTEX
  8
EBENE_1
 62
    39
  6
CONTINUOUS
 10
0.139732
 20
0.316386
  0
VERTEX
  8
EBENE_1
 62
    39
  6
CONTINUOUS
 10
0.140606
 20
0.313133
  0
VERTEX
  8
EBENE_1
 62
    39
  6
CONTINUOUS
 10
0.142908
 20
0.310833
  0
SEQEND
  8
0
  0
POLYLINE
  8
EBENE_1
 62
    39
  6
CONTINUOUS
 66
     1
 40
0.003000
 41
0.003000
 70
     1
  0
VERTEX
  8
EBENE_1
 62
    39
  6
CONTINUOUS
 10
0.217579
 20
0.282819
  0
VERTEX
  8
EBENE_1
 62
    39
  6
CONTINUOUS
 10
0.220833
 20
0.283692
  0
VERTEX
  8
EBENE_1
 62
    39
  6
CONTINUOUS
 10
0.223135
 20
0.285994
  0
VERTEX
  8
EBENE_1
 62
    39
  6
CONTINUOUS
 10
0.224008
 20
0.289248
  0
VERTEX
  8
EBENE_1
 62
    39
  6
CONTINUOUS
 10
0.223135
 20
0.293003
  0
VERTEX
  8
EBENE_1
 62
    39
  6
CONTINUOUS
 10
0.220833
 20
0.295490
  0
VERTEX
  8
EBENE_1
 62
    39
  6
CONTINUOUS
 10
0.217579
 20
0.296390
  0
VERTEX
  8
EBENE_1
 62
    39
  6
CONTINUOUS
 10
0.213823
 20
0.295490
  0
VERTEX
  8
EBENE_1
 62
    39
  6
CONTINUOUS
 10
0.211337
 20
0.293003
  0
VERTEX
  8
EBENE_1
 62
    39
  6
CONTINUOUS
 10
0.210437
 20
0.289248
  0
VERTEX
  8
EBENE_1
 62
    39
  6
CONTINUOUS
 10
0.211337
 20
0.285994
  0
VERTEX
  8
EBENE_1
 62
    39
  6
CONTINUOUS
 10
0.213823
 20
0.283692
  0
SEQEND
  8
0
  0
POLYLINE
  8
EBENE_1
 62
    39
  6
CONTINUOUS
 66
     1
 40
0.003000
 41
0.003000
 70
     1
  0
VERTEX
  8
EBENE_1
 62
    39
  6
CONTINUOUS
 10
0.441122
 20
0.362094
  0
VERTEX
  8
EBENE_1
 62
    39
  6
CONTINUOUS
 10
0.630382
 20
0.052850
  0
VERTEX
  8
EBENE_1
 62
    39
  6
CONTINUOUS
 10
0.432551
 20
0.001429
  0
VERTEX
  8
EBENE_1
 62
    39
  6
CONTINUOUS
 10
0.424829
 20
0.000091
  0
VERTEX
  8
EBENE_1
 62
    39
  6
CONTINUOUS
 10
0.416332
 20
-0.000527
  0
VERTEX
  8
EBENE_1
 62
    39
  6
CONTINUOUS
 10
0.407121
 20
-0.000430
  0
VERTEX
  8
EBENE_1
 62
    39
  6
CONTINUOUS
 10
0.397256
 20
0.000377
  0
VERTEX
  8
EBENE_1
 62
    39
  6
CONTINUOUS
 10
0.386797
 20
0.001891
  0
VERTEX
  8
EBENE_1
 62
    39
  6
CONTINUOUS
 10
0.375807
 20
0.004107
  0
VERTEX
  8
EBENE_1
 62
    39
  6
CONTINUOUS
 10
0.364344
 20
0.007022
  0
VERTEX
  8
EBENE_1
 62
    39
  6
CONTINUOUS
 10
0.352470
 20
0.010630
  0
VERTEX
  8
EBENE_1
 62
    39
  6
CONTINUOUS
 10
0.340245
 20
0.014929
  0
VERTEX
  8
EBENE_1
 62
    39
  6
CONTINUOUS
 10
0.327730
 20
0.019913
  0
VERTEX
  8
EBENE_1
 62
    39
  6
CONTINUOUS
 10
0.314986
 20
0.025578
  0
VERTEX
  8
EBENE_1
 62
    39
  6
CONTINUOUS
 10
0.302073
 20
0.031920
  0
VERTEX
  8
EBENE_1
 62
    39
  6
CONTINUOUS
 10
0.289051
 20
0.038935
  0
VERTEX
  8
EBENE_1
 62
    39
  6
CONTINUOUS
 10
0.275982
 20
0.046619
  0
VERTEX
  8
EBENE_1
 62
    39
  6
CONTINUOUS
 10
0.262926
 20
0.054968
  0
VERTEX
  8
EBENE_1
 62
    39
  6
CONTINUOUS
 10
0.249944
 20
0.063976
  0
VERTEX
  8
EBENE_1
 62
    39
  6
CONTINUOUS
 10
0.237096
 20
0.073641
  0
VERTEX
  8
EBENE_1
 62
    39
  6
CONTINUOUS
 10
0.224442
 20
0.083958
  0
VERTEX
  8
EBENE_1
 62
    39
  6
CONTINUOUS
 10
0.212045
 20
0.094922
  0
VERTEX
  8
EBENE_1
 62
    39
  6
CONTINUOUS
 10
0.199963
 20
0.106529
  0
VERTEX
  8
EBENE_1
 62
    39
  6
CONTINUOUS
 10
0.188258
 20
0.118776
  0
VERTEX
  8
EBENE_1
 62
    39
  6
CONTINUOUS
 10
0.176990
 20
0.131658
  0
VERTEX
  8
EBENE_1
 62
    39
  6
CONTINUOUS
 10
0.166220
 20
0.145170
  0
VERTEX
  8
EBENE_1
 62
    39
  6
CONTINUOUS
 10
0.156009
 20
0.159309
  0
VERTEX
  8
EBENE_1
 62
    39
  6
CONTINUOUS
 10
0.146417
 20
0.174071
  0
VERTEX
  8
EBENE_1
 62
    39
  6
CONTINUOUS
 10
0.137505
 20
0.189450
  0
VERTEX
  8
EBENE_1
 62
    39
  6
CONTINUOUS
 10
0.129333
 20
0.205444
  0
VERTEX
  8
EBENE_1
 62
    39
  6
CONTINUOUS
 10
0.121962
 20
0.222047
  0
VERTEX
  8
EBENE_1
 62
    39
  6
CONTINUOUS
 10
0.115453
 20
0.239256
  0
VERTEX
  8
EBENE_1
 62
    39
  6
CONTINUOUS
 10
0.115453
 20
0.239256
  0
VERTEX
  8
EBENE_1
 62
    39
  6
CONTINUOUS
 10
0.112561
 20
0.260416
  0
VERTEX
  8
EBENE_1
 62
    39
  6
CONTINUOUS
 10
0.112807
 20
0.279853
  0
VERTEX
  8
EBENE_1
 62
    39
  6
CONTINUOUS
 10
0.115916
 20
0.297381
  0
VERTEX
  8
EBENE_1
 62
    39
  6
CONTINUOUS
 10
0.121611
 20
0.312817
  0
VERTEX
  8
EBENE_1
 62
    39
  6
CONTINUOUS
 10
0.129615
 20
0.325976
  0
VERTEX
  8
EBENE_1
 62
    39
  6
CONTINUOUS
 10
0.139654
 20
0.336675
  0
VERTEX
  8
EBENE_1
 62
    39
  6
CONTINUOUS
 10
0.151450
 20
0.344728
  0
VERTEX
  8
EBENE_1
 62
    39
  6
CONTINUOUS
 10
0.164728
 20
0.349953
  0
VERTEX
  8
EBENE_1
 62
    39
  6
CONTINUOUS
 10
0.370417
 20
0.404945
  0
VERTEX
  8
EBENE_1
 62
    39
  6
CONTINUOUS
 10
0.391030
 20
0.407525
  0
VERTEX
  8
EBENE_1
 62
    39
  6
CONTINUOUS
 10
0.405096
 20
0.403677
  0
VERTEX
  8
EBENE_1
 62
    39
  6
CONTINUOUS
 10
0.414876
 20
0.395306
  0
VERTEX
  8
EBENE_1
 62
    39
  6
CONTINUOUS
 10
0.422633
 20
0.384315
  0
VERTEX
  8
EBENE_1
 62
    39
  6
CONTINUOUS
 10
0.430628
 20
0.372610
  0
SEQEND
  8
0
  0
POLYLINE
  8
EBENE_1
 62
    39
  6
CONTINUOUS
 66
     1
 40
0.003000
 41
0.003000
 70
     1
  0
VERTEX
  8
EBENE_1
 62
    39
  6
CONTINUOUS
 10
0.441122
 20
0.360669
  0
VERTEX
  8
EBENE_1
 62
    39
  6
CONTINUOUS
 10
0.626811
 20
0.056421
  0
VERTEX
  8
EBENE_1
 62
    39
  6
CONTINUOUS
 10
0.432551
 20
0.005717
  0
VERTEX
  8
EBENE_1
 62
    39
  6
CONTINUOUS
 10
0.424982
 20
0.004445
  0
VERTEX
  8
EBENE_1
 62
    39
  6
CONTINUOUS
 10
0.416647
 20
0.003877
  0
VERTEX
  8
EBENE_1
 62
    39
  6
CONTINUOUS
 10
0.407606
 20
0.004010
  0
VERTEX
  8
EBENE_1
 62
    39
  6
CONTINUOUS
 10
0.397919
 20
0.004839
  0
VERTEX
  8
EBENE_1
 62
    39
  6
CONTINUOUS
 10
0.387645
 20
0.006360
  0
VERTEX
  8
EBENE_1
 62
    39
  6
CONTINUOUS
 10
0.376845
 20
0.008568
  0
VERTEX
  8
EBENE_1
 62
    39
  6
CONTINUOUS
 10
0.365578
 20
0.011461
  0
VERTEX
  8
EBENE_1
 62
    39
  6
CONTINUOUS
 10
0.353903
 20
0.015034
  0
VERTEX
  8
EBENE_1
 62
    39
  6
CONTINUOUS
 10
0.341881
 20
0.019282
  0
VERTEX
  8
EBENE_1
 62
    39
  6
CONTINUOUS
 10
0.329571
 20
0.024202
  0
VERTEX
  8
EBENE_1
 62
    39
  6
CONTINUOUS
 10
0.317033
 20
0.029791
  0
VERTEX
  8
EBENE_1
 62
    39
  6
CONTINUOUS
 10
0.304326
 20
0.036042
  0
VERTEX
  8
EBENE_1
 62
    39
  6
CONTINUOUS
 10
0.291511
 20
0.042954
  0
VERTEX
  8
EBENE_1
 62
    39
  6
CONTINUOUS
 10
0.278648
 20
0.050521
  0
VERTEX
  8
EBENE_1
 62
    39
  6
CONTINUOUS
 10
0.265795
 20
0.058740
  0
VERTEX
  8
EBENE_1
 62
    39
  6
CONTINUOUS
 10
0.253012
 20
0.067607
  0
VERTEX
  8
EBENE_1
 62
    39
  6
CONTINUOUS
 10
0.240361
 20
0.077117
  0
VERTEX
  8
EBENE_1
 62
    39
  6
CONTINUOUS
 10
0.227899
 20
0.087267
  0
VERTEX
  8
EBENE_1
 62
    39
  6
CONTINUOUS
 10
0.215687
 20
0.098052
  0
VERTEX
  8
EBENE_1
 62
    39
  6
CONTINUOUS
 10
0.203785
 20
0.109469
  0
VERTEX
  8
EBENE_1
 62
    39
  6
CONTINUOUS
 10
0.192252
 20
0.121513
  0
VERTEX
  8
EBENE_1
 62
    39
  6
CONTINUOUS
 10
0.181148
 20
0.134180
  0
VERTEX
  8
EBENE_1
 62
    39
  6
CONTINUOUS
 10
0.170533
 20
0.147467
  0
VERTEX
  8
EBENE_1
 62
    39
  6
CONTINUOUS
 10
0.160466
 20
0.161369
  0
VERTEX
  8
EBENE_1
 62
    39
  6
CONTINUOUS
 10
0.151008
 20
0.175883
  0
VERTEX
  8
EBENE_1
 62
    39
  6
CONTINUOUS
 10
0.142218
 20
0.191003
  0
VERTEX
  8
EBENE_1
 62
    39
  6
CONTINUOUS
 10
0.134155
 20
0.206727
  0
VERTEX
  8
EBENE_1
 62
    39
  6
CONTINUOUS
 10
0.126880
 20
0.223050
  0
VERTEX
  8
EBENE_1
 62
    39
  6
CONTINUOUS
 10
0.120453
 20
0.239969
  0
VERTEX
  8
EBENE_1
 62
    39
  6
CONTINUOUS
 10
0.120453
 20
0.239969
  0
VERTEX
  8
EBENE_1
 62
    39
  6
CONTINUOUS
 10
0.117764
 20
0.260627
  0
VERTEX
  8
EBENE_1
 62
    39
  6
CONTINUOUS
 10
0.118097
 20
0.279628
  0
VERTEX
  8
EBENE_1
 62
    39
  6
CONTINUOUS
 10
0.121192
 20
0.296788
  0
VERTEX
  8
EBENE_1
 62
    39
  6
CONTINUOUS
 10
0.126789
 20
0.311923
  0
VERTEX
  8
EBENE_1
 62
    39
  6
CONTINUOUS
 10
0.134629
 20
0.324849
  0
VERTEX
  8
EBENE_1
 62
    39
  6
CONTINUOUS
 10
0.144454
 20
0.335381
  0
VERTEX
  8
EBENE_1
 62
    39
  6
CONTINUOUS
 10
0.156002
 20
0.343335
  0
VERTEX
  8
EBENE_1
 62
    39
  6
CONTINUOUS
 10
0.169016
 20
0.348528
  0
VERTEX
  8
EBENE_1
 62
    39
  6
CONTINUOUS
 10
0.371846
 20
0.402803
  0
VERTEX
  8
EBENE_1
 62
    39
  6
CONTINUOUS
 10
0.391906
 20
0.405435
  0
VERTEX
  8
EBENE_1
 62
    39
  6
CONTINUOUS
 10
0.405677
 20
0.401719
  0
VERTEX
  8
EBENE_1
 62
    39
  6
CONTINUOUS
 10
0.415322
 20
0.393519
  0
VERTEX
  8
EBENE_1
 62
    39
  6
CONTINUOUS
 10
0.423002
 20
0.382701
  0
VERTEX
  8
EBENE_1
 62
    39
  6
CONTINUOUS
 10
0.430882
 20
0.371130
  0
SEQEND
  8
0
  0
POLYLINE
  8
EBENE_1
 62
    39
  6
CONTINUOUS
 66
     1
 40
0.003000
 41
0.003000
 70
     1
  0
VERTEX
  8
EBENE_1
 62
    39
  6
CONTINUOUS
 10
0.276146
 20
0.347098
  0
VERTEX
  8
EBENE_1
 62
    39
  6
CONTINUOUS
 10
0.279399
 20
0.347971
  0
VERTEX
  8
EBENE_1
 62
    39
  6
CONTINUOUS
 10
0.281699
 20
0.350271
  0
VERTEX
  8
EBENE_1
 62
    39
  6
CONTINUOUS
 10
0.282571
 20
0.353524
  0
VERTEX
  8
EBENE_1
 62
    39
  6
CONTINUOUS
 10
0.281699
 20
0.357282
  0
VERTEX
  8
EBENE_1
 62
    39
  6
CONTINUOUS
 10
0.279399
 20
0.359769
  0
VERTEX
  8
EBENE_1
 62
    39
  6
CONTINUOUS
 10
0.276146
 20
0.360669
  0
VERTEX
  8
EBENE_1
 62
    39
  6
CONTINUOUS
 10
0.272707
 20
0.359769
  0
VERTEX
  8
EBENE_1
 62
    39
  6
CONTINUOUS
 10
0.270062
 20
0.357282
  0
VERTEX
  8
EBENE_1
 62
    39
  6
CONTINUOUS
 10
0.269004
 20
0.353524
  0
VERTEX
  8
EBENE_1
 62
    39
  6
CONTINUOUS
 10
0.270062
 20
0.350271
  0
VERTEX
  8
EBENE_1
 62
    39
  6
CONTINUOUS
 10
0.272707
 20
0.347971
  0
SEQEND
  8
0
  0
POLYLINE
  8
EBENE_1
 62
    39
  6
CONTINUOUS
 66
     1
 40
0.003000
 41
0.003000
 70
     1
  0
VERTEX
  8
EBENE_1
 62
    39
  6
CONTINUOUS
 10
0.348276
 20
0.362811
  0
VERTEX
  8
EBENE_1
 62
    39
  6
CONTINUOUS
 10
0.351714
 20
0.363683
  0
VERTEX
  8
EBENE_1
 62
    39
  6
CONTINUOUS
 10
0.354359
 20
0.365983
  0
VERTEX
  8
EBENE_1
 62
    39
  6
CONTINUOUS
 10
0.355417
 20
0.369236
  0
VERTEX
  8
EBENE_1
 62
    39
  6
CONTINUOUS
 10
0.354359
 20
0.372675
  0
VERTEX
  8
EBENE_1
 62
    39
  6
CONTINUOUS
 10
0.351714
 20
0.375320
  0
VERTEX
  8
EBENE_1
 62
    39
  6
CONTINUOUS
 10
0.348276
 20
0.376378
  0
VERTEX
  8
EBENE_1
 62
    39
  6
CONTINUOUS
 10
0.345023
 20
0.375320
  0
VERTEX
  8
EBENE_1
 62
    39
  6
CONTINUOUS
 10
0.342723
 20
0.372675
  0
VERTEX
  8
EBENE_1
 62
    39
  6
CONTINUOUS
 10
0.341850
 20
0.369236
  0
VERTEX
  8
EBENE_1
 62
    39
  6
CONTINUOUS
 10
0.342723
 20
0.365983
  0
VERTEX
  8
EBENE_1
 62
    39
  6
CONTINUOUS
 10
0.345023
 20
0.363683
  0
SEQEND
  8
0
  0
POLYLINE
  8
EBENE_1
 62
    39
  6
CONTINUOUS
 66
     1
 40
0.003000
 41
0.003000
 70
     1
  0
VERTEX
  8
EBENE_1
 62
    39
  6
CONTINUOUS
 10
0.418980
 20
0.334957
  0
VERTEX
  8
EBENE_1
 62
    39
  6
CONTINUOUS
 10
0.422737
 20
0.336015
  0
VERTEX
  8
EBENE_1
 62
    39
  6
CONTINUOUS
 10
0.425223
 20
0.338660
  0
VERTEX
  8
EBENE_1
 62
    39
  6
CONTINUOUS
 10
0.426122
 20
0.342098
  0
VERTEX
  8
EBENE_1
 62
    39
  6
CONTINUOUS
 10
0.425223
 20
0.345537
  0
VERTEX
  8
EBENE_1
 62
    39
  6
CONTINUOUS
 10
0.422737
 20
0.348182
  0
VERTEX
  8
EBENE_1
 62
    39
  6
CONTINUOUS
 10
0.418980
 20
0.349240
  0
VERTEX
  8
EBENE_1
 62
    39
  6
CONTINUOUS
 10
0.415727
 20
0.348182
  0
VERTEX
  8
EBENE_1
 62
    39
  6
CONTINUOUS
 10
0.413427
 20
0.345537
  0
VERTEX
  8
EBENE_1
 62
    39
  6
CONTINUOUS
 10
0.412555
 20
0.342098
  0
VERTEX
  8
EBENE_1
 62
    39
  6
CONTINUOUS
 10
0.413427
 20
0.338660
  0
VERTEX
  8
EBENE_1
 62
    39
  6
CONTINUOUS
 10
0.415727
 20
0.336015
  0
SEQEND
  8
0
  0
POLYLINE
  8
EBENE_1
 62
    39
  6
CONTINUOUS
 66
     1
 40
0.003000
 41
0.003000
 70
     1
  0
VERTEX
  8
EBENE_1
 62
    39
  6
CONTINUOUS
 10
0.645378
 20
0.411374
  0
VERTEX
  8
EBENE_1
 62
    39
  6
CONTINUOUS
 10
0.833925
 20
0.102130
  0
VERTEX
  8
EBENE_1
 62
    39
  6
CONTINUOUS
 10
0.636094
 20
0.050709
  0
VERTEX
  8
EBENE_1
 62
    39
  6
CONTINUOUS
 10
0.628372
 20
0.049371
  0
VERTEX
  8
EBENE_1
 62
    39
  6
CONTINUOUS
 10
0.619876
 20
0.048752
  0
VERTEX
  8
EBENE_1
 62
    39
  6
CONTINUOUS
 10
0.610664
 20
0.048848
  0
VERTEX
  8
EBENE_1
 62
    39
  6
CONTINUOUS
 10
0.600799
 20
0.049655
  0
VERTEX
  8
EBENE_1
 62
    39
  6
CONTINUOUS
 10
0.590341
 20
0.051169
  0
VERTEX
  8
EBENE_1
 62
    39
  6
CONTINUOUS
 10
0.579350
 20
0.053385
  0
VERTEX
  8
EBENE_1
 62
    39
  6
CONTINUOUS
 10
0.567887
 20
0.056300
  0
VERTEX
  8
EBENE_1
 62
    39
  6
CONTINUOUS
 10
0.556013
 20
0.059908
  0
VERTEX
  8
EBENE_1
 62
    39
  6
CONTINUOUS
 10
0.543788
 20
0.064207
  0
VERTEX
  8
EBENE_1
 62
    39
  6
CONTINUOUS
 10
0.531273
 20
0.069190
  0
VERTEX
  8
EBENE_1
 62
    39
  6
CONTINUOUS
 10
0.518529
 20
0.074856
  0
VERTEX
  8
EBENE_1
 62
    39
  6
CONTINUOUS
 10
0.505616
 20
0.081198
  0
VERTEX
  8
EBENE_1
 62
    39
  6
CONTINUOUS
 10
0.492595
 20
0.088213
  0
VERTEX
  8
EBENE_1
 62
    39
  6
CONTINUOUS
 10
0.479526
 20
0.095897
  0
VERTEX
  8
EBENE_1
 62
    39
  6
CONTINUOUS
 10
0.466470
 20
0.104246
  0
VERTEX
  8
EBENE_1
 62
    39
  6
CONTINUOUS
 10
0.453487
 20
0.113254
  0
VERTEX
  8
EBENE_1
 62
    39
  6
CONTINUOUS
 10
0.440639
 20
0.122919
  0
VERTEX
  8
EBENE_1
 62
    39
  6
CONTINUOUS
 10
0.427986
 20
0.133236
  0
VERTEX
  8
EBENE_1
 62
    39
  6
CONTINUOUS
 10
0.415588
 20
0.144200
  0
VERTEX
  8
EBENE_1
 62
    39
  6
CONTINUOUS
 10
0.403506
 20
0.155808
  0
VERTEX
  8
EBENE_1
 62
    39
  6
CONTINUOUS
 10
0.391801
 20
0.168055
  0
VERTEX
  8
EBENE_1
 62
    39
  6
CONTINUOUS
 10
0.380533
 20
0.180937
  0
VERTEX
  8
EBENE_1
 62
    39
  6
CONTINUOUS
 10
0.369764
 20
0.194449
  0
VERTEX
  8
EBENE_1
 62
    39
  6
CONTINUOUS
 10
0.359552
 20
0.208589
  0
VERTEX
  8
EBENE_1
 62
    39
  6
CONTINUOUS
 10
0.349960
 20
0.223350
  0
VERTEX
  8
EBENE_1
 62
    39
  6
CONTINUOUS
 10
0.341048
 20
0.238730
  0
VERTEX
  8
EBENE_1
 62
    39
  6
CONTINUOUS
 10
0.332876
 20
0.254723
  0
VERTEX
  8
EBENE_1
 62
    39
  6
CONTINUOUS
 10
0.325505
 20
0.271327
  0
VERTEX
  8
EBENE_1
 62
    39
  6
CONTINUOUS
 10
0.318996
 20
0.288535
  0
VERTEX
  8
EBENE_1
 62
    39
  6
CONTINUOUS
 10
0.318996
 20
0.288535
  0
VERTEX
  8
EBENE_1
 62
    39
  6
CONTINUOUS
 10
0.316104
 20
0.309490
  0
VERTEX
  8
EBENE_1
 62
    39
  6
CONTINUOUS
 10
0.316351
 20
0.328830
  0
VERTEX
  8
EBENE_1
 62
    39
  6
CONTINUOUS
 10
0.319459
 20
0.346345
  0
VERTEX
  8
EBENE_1
 62
    39
  6
CONTINUOUS
 10
0.325155
 20
0.361826
  0
VERTEX
  8
EBENE_1
 62
    39
  6
CONTINUOUS
 10
0.333160
 20
0.375065
  0
VERTEX
  8
EBENE_1
 62
    39
  6
CONTINUOUS
 10
0.343199
 20
0.385852
  0
VERTEX
  8
EBENE_1
 62
    39
  6
CONTINUOUS
 10
0.354996
 20
0.393977
  0
VERTEX
  8
EBENE_1
 62
    39
  6
CONTINUOUS
 10
0.368276
 20
0.399232
  0
VERTEX
  8
EBENE_1
 62
    39
  6
CONTINUOUS
 10
0.573961
 20
0.454224
  0
VERTEX
  8
EBENE_1
 62
    39
  6
CONTINUOUS
 10
0.594626
 20
0.456805
  0
VERTEX
  8
EBENE_1
 62
    39
  6
CONTINUOUS
 10
0.608824
 20
0.452957
  0
VERTEX
  8
EBENE_1
 62
    39
  6
CONTINUOUS
 10
0.618776
 20
0.444585
  0
VERTEX
  8
EBENE_1
 62
    39
  6
CONTINUOUS
 10
0.626704
 20
0.433594
  0
VERTEX
  8
EBENE_1
 62
    39
  6
CONTINUOUS
 10
0.634831
 20
0.421889
  0
SEQEND
  8
0
  0
POLYLINE
  8
EBENE_1
 62
    39
  6
CONTINUOUS
 66
     1
 40
0.003000
 41
0.003000
 70
     1
  0
VERTEX
  8
EBENE_1
 62
    39
  6
CONTINUOUS
 10
0.645378
 20
0.409945
  0
VERTEX
  8
EBENE_1
 62
    39
  6
CONTINUOUS
 10
0.831067
 20
0.105701
  0
VERTEX
  8
EBENE_1
 62
    39
  6
CONTINUOUS
 10
0.636094
 20
0.054992
  0
VERTEX
  8
EBENE_1
 62
    39
  6
CONTINUOUS
 10
0.628243
 20
0.053688
  0
VERTEX
  8
EBENE_1
 62
    39
  6
CONTINUOUS
 10
0.619577
 20
0.053139
  0
VERTEX
  8
EBENE_1
 62
    39
  6
CONTINUOUS
 10
0.610163
 20
0.053341
  0
VERTEX
  8
EBENE_1
 62
    39
  6
CONTINUOUS
 10
0.600067
 20
0.054290
  0
VERTEX
  8
EBENE_1
 62
    39
  6
CONTINUOUS
 10
0.589353
 20
0.055980
  0
VERTEX
  8
EBENE_1
 62
    39
  6
CONTINUOUS
 10
0.578089
 20
0.058407
  0
VERTEX
  8
EBENE_1
 62
    39
  6
CONTINUOUS
 10
0.566339
 20
0.061567
  0
VERTEX
  8
EBENE_1
 62
    39
  6
CONTINUOUS
 10
0.554169
 20
0.065455
  0
VERTEX
  8
EBENE_1
 62
    39
  6
CONTINUOUS
 10
0.541646
 20
0.070067
  0
VERTEX
  8
EBENE_1
 62
    39
  6
CONTINUOUS
 10
0.528835
 20
0.075398
  0
VERTEX
  8
EBENE_1
 62
    39
  6
CONTINUOUS
 10
0.515802
 20
0.081445
  0
VERTEX
  8
EBENE_1
 62
    39
  6
CONTINUOUS
 10
0.502613
 20
0.088201
  0
VERTEX
  8
EBENE_1
 62
    39
  6
CONTINUOUS
 10
0.489332
 20
0.095664
  0
VERTEX
  8
EBENE_1
 62
    39
  6
CONTINUOUS
 10
0.476028
 20
0.103827
  0
VERTEX
  8
EBENE_1
 62
    39
  6
CONTINUOUS
 10
0.462764
 20
0.112688
  0
VERTEX
  8
EBENE_1
 62
    39
  6
CONTINUOUS
 10
0.449606
 20
0.122241
  0
VERTEX
  8
EBENE_1
 62
    39
  6
CONTINUOUS
 10
0.436622
 20
0.132482
  0
VERTEX
  8
EBENE_1
 62
    39
  6
CONTINUOUS
 10
0.423875
 20
0.143406
  0
VERTEX
  8
EBENE_1
 62
    39
  6
CONTINUOUS
 10
0.411433
 20
0.155009
  0
VERTEX
  8
EBENE_1
 62
    39
  6
CONTINUOUS
 10
0.399361
 20
0.167287
  0
VERTEX
  8
EBENE_1
 62
    39
  6
CONTINUOUS
 10
0.387724
 20
0.180234
  0
VERTEX
  8
EBENE_1
 62
    39
  6
CONTINUOUS
 10
0.376589
 20
0.193847
  0
VERTEX
  8
EBENE_1
 62
    39
  6
CONTINUOUS
 10
0.366021
 20
0.208121
  0
VERTEX
  8
EBENE_1
 62
    39
  6
CONTINUOUS
 10
0.356086
 20
0.223051
  0
VERTEX
  8
EBENE_1
 62
    39
  6
CONTINUOUS
 10
0.346850
 20
0.238634
  0
VERTEX
  8
EBENE_1
 62
    39
  6
CONTINUOUS
 10
0.338378
 20
0.254864
  0
VERTEX
  8
EBENE_1
 62
    39
  6
CONTINUOUS
 10
0.330737
 20
0.271737
  0
VERTEX
  8
EBENE_1
 62
    39
  6
CONTINUOUS
 10
0.323992
 20
0.289248
  0
VERTEX
  8
EBENE_1
 62
    39
  6
CONTINUOUS
 10
0.323992
 20
0.289248
  0
VERTEX
  8
EBENE_1
 62
    39
  6
CONTINUOUS
 10
0.321305
 20
0.309906
  0
VERTEX
  8
EBENE_1
 62
    39
  6
CONTINUOUS
 10
0.321638
 20
0.328907
  0
VERTEX
  8
EBENE_1
 62
    39
  6
CONTINUOUS
 10
0.324734
 20
0.346068
  0
VERTEX
  8
EBENE_1
 62
    39
  6
CONTINUOUS
 10
0.330332
 20
0.361202
  0
VERTEX
  8
EBENE_1
 62
    39
  6
CONTINUOUS
 10
0.338173
 20
0.374127
  0
VERTEX
  8
EBENE_1
 62
    39
  6
CONTINUOUS
 10
0.347997
 20
0.384659
  0
VERTEX
  8
EBENE_1
 62
    39
  6
CONTINUOUS
 10
0.359546
 20
0.392612
  0
VERTEX
  8
EBENE_1
 62
    39
  6
CONTINUOUS
 10
0.372559
 20
0.397803
  0
VERTEX
  8
EBENE_1
 62
    39
  6
CONTINUOUS
 10
0.575390
 20
0.452083
  0
VERTEX
  8
EBENE_1
 62
    39
  6
CONTINUOUS
 10
0.595700
 20
0.454714
  0
VERTEX
  8
EBENE_1
 62
    39
  6
CONTINUOUS
 10
0.609564
 20
0.450998
  0
VERTEX
  8
EBENE_1
 62
    39
  6
CONTINUOUS
 10
0.619221
 20
0.442798
  0
VERTEX
  8
EBENE_1
 62
    39
  6
CONTINUOUS
 10
0.626915
 20
0.431980
  0
VERTEX
  8
EBENE_1
 62
    39
  6
CONTINUOUS
 10
0.634887
 20
0.420407
  0
SEQEND
  8
0
  0
POLYLINE
  8
EBENE_1
 62
    39
  6
CONTINUOUS
 66
     1
 40
0.003000
 41
0.003000
 70
     1
  0
VERTEX
  8
EBENE_1
 62
    39
  6
CONTINUOUS
 10
0.479685
 20
0.396374
  0
VERTEX
  8
EBENE_1
 62
    39
  6
CONTINUOUS
 10
0.483124
 20
0.397247
  0
VERTEX
  8
EBENE_1
 62
    39
  6
CONTINUOUS
 10
0.485769
 20
0.399549
  0
VERTEX
  8
EBENE_1
 62
    39
  6
CONTINUOUS
 10
0.486827
 20
0.402803
  0
VERTEX
  8
EBENE_1
 62
    39
  6
CONTINUOUS
 10
0.485769
 20
0.406242
  0
VERTEX
  8
EBENE_1
 62
    39
  6
CONTINUOUS
 10
0.483124
 20
0.408887
  0
VERTEX
  8
EBENE_1
 62
    39
  6
CONTINUOUS
 10
0.479685
 20
0.409945
  0
VERTEX
  8
EBENE_1
 62
    39
  6
CONTINUOUS
 10
0.476432
 20
0.408887
  0
VERTEX
  8
EBENE_1
 62
    39
  6
CONTINUOUS
 10
0.474132
 20
0.406242
  0
VERTEX
  8
EBENE_1
 62
    39
  6
CONTINUOUS
 10
0.473260
 20
0.402803
  0
VERTEX
  8
EBENE_1
 62
    39
  6
CONTINUOUS
 10
0.474132
 20
0.399549
  0
VERTEX
  8
EBENE_1
 62
    39
  6
CONTINUOUS
 10
0.476432
 20
0.397247
  0
SEQEND
  8
0
  0
POLYLINE
  8
EBENE_1
 62
    39
  6
CONTINUOUS
 66
     1
 40
0.003000
 41
0.003000
 70
     1
  0
VERTEX
  8
EBENE_1
 62
    39
  6
CONTINUOUS
 10
0.551819
 20
0.411374
  0
VERTEX
  8
EBENE_1
 62
    39
  6
CONTINUOUS
 10
0.555576
 20
0.412432
  0
VERTEX
  8
EBENE_1
 62
    39
  6
CONTINUOUS
 10
0.558062
 20
0.415077
  0
VERTEX
  8
EBENE_1
 62
    39
  6
CONTINUOUS
 10
0.558961
 20
0.418516
  0
VERTEX
  8
EBENE_1
 62
    39
  6
CONTINUOUS
 10
0.558062
 20
0.421770
  0
VERTEX
  8
EBENE_1
 62
    39
  6
CONTINUOUS
 10
0.555576
 20
0.424072
  0
VERTEX
  8
EBENE_1
 62
    39
  6
CONTINUOUS
 10
0.551819
 20
0.424945
  0
VERTEX
  8
EBENE_1
 62
    39
  6
CONTINUOUS
 10
0.548566
 20
0.424072
  0
VERTEX
  8
EBENE_1
 62
    39
  6
CONTINUOUS
 10
0.546266
 20
0.421770
  0
VERTEX
  8
EBENE_1
 62
    39
  6
CONTINUOUS
 10
0.545394
 20
0.418516
  0
VERTEX
  8
EBENE_1
 62
    39
  6
CONTINUOUS
 10
0.546266
 20
0.415077
  0
VERTEX
  8
EBENE_1
 62
    39
  6
CONTINUOUS
 10
0.548566
 20
0.412432
  0
SEQEND
  8
0
  0
POLYLINE
  8
EBENE_1
 62
    39
  6
CONTINUOUS
 66
     1
 40
0.003000
 41
0.003000
 70
     1
  0
VERTEX
  8
EBENE_1
 62
    39
  6
CONTINUOUS
 10
0.622524
 20
0.384236
  0
VERTEX
  8
EBENE_1
 62
    39
  6
CONTINUOUS
 10
0.626281
 20
0.385294
  0
VERTEX
  8
EBENE_1
 62
    39
  6
CONTINUOUS
 10
0.628767
 20
0.387939
  0
VERTEX
  8
EBENE_1
 62
    39
  6
CONTINUOUS
 10
0.629665
 20
0.391378
  0
VERTEX
  8
EBENE_1
 62
    39
  6
CONTINUOUS
 10
0.628767
 20
0.394631
  0
VERTEX
  8
EBENE_1
 62
    39
  6
CONTINUOUS
 10
0.626281
 20
0.396931
  0
VERTEX
  8
EBENE_1
 62
    39
  6
CONTINUOUS
 10
0.622524
 20
0.397803
  0
VERTEX
  8
EBENE_1
 62
    39
  6
CONTINUOUS
 10
0.619271
 20
0.396931
  0
VERTEX
  8
EBENE_1
 62
    39
  6
CONTINUOUS
 10
0.616971
 20
0.394631
  0
VERTEX
  8
EBENE_1
 62
    39
  6
CONTINUOUS
 10
0.616098
 20
0.391378
  0
VERTEX
  8
EBENE_1
 62
    39
  6
CONTINUOUS
 10
0.616971
 20
0.387939
  0
VERTEX
  8
EBENE_1
 62
    39
  6
CONTINUOUS
 10
0.619271
 20
0.385294
  0
SEQEND
  8
0
  0
POLYLINE
  8
EBENE_1
 62
    39
  6
CONTINUOUS
 66
     1
 40
0.003000
 41
0.003000
 70
     1
  0
VERTEX
  8
EBENE_1
 62
    39
  6
CONTINUOUS
 10
0.848921
 20
0.460654
  0
VERTEX
  8
EBENE_1
 62
    39
  6
CONTINUOUS
 10
1.037469
 20
0.150697
  0
VERTEX
  8
EBENE_1
 62
    39
  6
CONTINUOUS
 10
0.839638
 20
0.099276
  0
VERTEX
  8
EBENE_1
 62
    39
  6
CONTINUOUS
 10
0.831918
 20
0.098009
  0
VERTEX
  8
EBENE_1
 62
    39
  6
CONTINUOUS
 10
0.823428
 20
0.097456
  0
VERTEX
  8
EBENE_1
 62
    39
  6
CONTINUOUS
 10
0.814228
 20
0.097614
  0
VERTEX
  8
EBENE_1
 62
    39
  6
CONTINUOUS
 10
0.804377
 20
0.098478
  0
VERTEX
  8
EBENE_1
 62
    39
  6
CONTINUOUS
 10
0.793937
 20
0.100045
  0
VERTEX
  8
EBENE_1
 62
    39
  6
CONTINUOUS
 10
0.782966
 20
0.102309
  0
VERTEX
  8
EBENE_1
 62
    39
  6
CONTINUOUS
 10
0.771525
 20
0.105268
  0
VERTEX
  8
EBENE_1
 62
    39
  6
CONTINUOUS
 10
0.759674
 20
0.108917
  0
VERTEX
  8
EBENE_1
 62
    39
  6
CONTINUOUS
 10
0.747474
 20
0.113252
  0
VERTEX
  8
EBENE_1
 62
    39
  6
CONTINUOUS
 10
0.734983
 20
0.118270
  0
VERTEX
  8
EBENE_1
 62
    39
  6
CONTINUOUS
 10
0.722263
 20
0.123965
  0
VERTEX
  8
EBENE_1
 62
    39
  6
CONTINUOUS
 10
0.709374
 20
0.130334
  0
VERTEX
  8
EBENE_1
 62
    39
  6
CONTINUOUS
 10
0.696375
 20
0.137373
  0
VERTEX
  8
EBENE_1
 62
    39
  6
CONTINUOUS
 10
0.683327
 20
0.145078
  0
VERTEX
  8
EBENE_1
 62
    39
  6
CONTINUOUS
 10
0.670289
 20
0.153445
  0
VERTEX
  8
EBENE_1
 62
    39
  6
CONTINUOUS
 10
0.657322
 20
0.162470
  0
VERTEX
  8
EBENE_1
 62
    39
  6
CONTINUOUS
 10
0.644486
 20
0.172148
  0
VERTEX
  8
EBENE_1
 62
    39
  6
CONTINUOUS
 10
0.631841
 20
0.182477
  0
VERTEX
  8
EBENE_1
 62
    39
  6
CONTINUOUS
 10
0.619448
 20
0.193451
  0
VERTEX
  8
EBENE_1
 62
    39
  6
CONTINUOUS
 10
0.607365
 20
0.205066
  0
VERTEX
  8
EBENE_1
 62
    39
  6
CONTINUOUS
 10
0.595654
 20
0.217319
  0
VERTEX
  8
EBENE_1
 62
    39
  6
CONTINUOUS
 10
0.584374
 20
0.230206
  0
VERTEX
  8
EBENE_1
 62
    39
  6
CONTINUOUS
 10
0.573585
 20
0.243723
  0
VERTEX
  8
EBENE_1
 62
    39
  6
CONTINUOUS
 10
0.563348
 20
0.257865
  0
VERTEX
  8
EBENE_1
 62
    39
  6
CONTINUOUS
 10
0.553723
 20
0.272628
  0
VERTEX
  8
EBENE_1
 62
    39
  6
CONTINUOUS
 10
0.544769
 20
0.288009
  0
VERTEX
  8
EBENE_1
 62
    39
  6
CONTINUOUS
 10
0.536547
 20
0.304003
  0
VERTEX
  8
EBENE_1
 62
    39
  6
CONTINUOUS
 10
0.529117
 20
0.320606
  0
VERTEX
  8
EBENE_1
 62
    39
  6
CONTINUOUS
 10
0.522539
 20
0.337815
  0
VERTEX
  8
EBENE_1
 62
    39
  6
CONTINUOUS
 10
0.522539
 20
0.337815
  0
VERTEX
  8
EBENE_1
 62
    39
  6
CONTINUOUS
 10
0.519852
 20
0.358739
  0
VERTEX
  8
EBENE_1
 62
    39
  6
CONTINUOUS
 10
0.520195
 20
0.377998
  0
VERTEX
  8
EBENE_1
 62
    39
  6
CONTINUOUS
 10
0.523317
 20
0.395399
  0
VERTEX
  8
EBENE_1
 62
    39
  6
CONTINUOUS
 10
0.528967
 20
0.410750
  0
VERTEX
  8
EBENE_1
 62
    39
  6
CONTINUOUS
 10
0.536893
 20
0.423857
  0
VERTEX
  8
EBENE_1
 62
    39
  6
CONTINUOUS
 10
0.546844
 20
0.434530
  0
VERTEX
  8
EBENE_1
 62
    39
  6
CONTINUOUS
 10
0.558570
 20
0.442575
  0
VERTEX
  8
EBENE_1
 62
    39
  6
CONTINUOUS
 10
0.571819
 20
0.447799
  0
VERTEX
  8
EBENE_1
 62
    39
  6
CONTINUOUS
 10
0.777504
 20
0.503504
  0
VERTEX
  8
EBENE_1
 62
    39
  6
CONTINUOUS
 10
0.798169
 20
0.506083
  0
VERTEX
  8
EBENE_1
 62
    39
  6
CONTINUOUS
 10
0.812367
 20
0.502234
  0
VERTEX
  8
EBENE_1
 62
    39
  6
CONTINUOUS
 10
0.822319
 20
0.493862
  0
VERTEX
  8
EBENE_1
 62
    39
  6
CONTINUOUS
 10
0.830247
 20
0.482871
  0
VERTEX
  8
EBENE_1
 62
    39
  6
CONTINUOUS
 10
0.838374
 20
0.471167
  0
SEQEND
  8
0
  0
POLYLINE
  8
EBENE_1
 62
    39
  6
CONTINUOUS
 66
     1
 40
0.003000
 41
0.003000
 70
     1
  0
VERTEX
  8
EBENE_1
 62
    39
  6
CONTINUOUS
 10
0.848921
 20
0.459224
  0
VERTEX
  8
EBENE_1
 62
    39
  6
CONTINUOUS
 10
1.034610
 20
0.154980
  0
VERTEX
  8
EBENE_1
 62
    39
  6
CONTINUOUS
 10
0.839638
 20
0.104272
  0
VERTEX
  8
EBENE_1
 62
    39
  6
CONTINUOUS
 10
0.831786
 20
0.102965
  0
VERTEX
  8
EBENE_1
 62
    39
  6
CONTINUOUS
 10
0.823121
 20
0.102409
  0
VERTEX
  8
EBENE_1
 62
    39
  6
CONTINUOUS
 10
0.813708
 20
0.102598
  0
VERTEX
  8
EBENE_1
 62
    39
  6
CONTINUOUS
 10
0.803612
 20
0.103530
  0
VERTEX
  8
EBENE_1
 62
    39
  6
CONTINUOUS
 10
0.792901
 20
0.105199
  0
VERTEX
  8
EBENE_1
 62
    39
  6
CONTINUOUS
 10
0.781639
 20
0.107602
  0
VERTEX
  8
EBENE_1
 62
    39
  6
CONTINUOUS
 10
0.769893
 20
0.110735
  0
VERTEX
  8
EBENE_1
 62
    39
  6
CONTINUOUS
 10
0.757729
 20
0.114593
  0
VERTEX
  8
EBENE_1
 62
    39
  6
CONTINUOUS
 10
0.745213
 20
0.119173
  0
VERTEX
  8
EBENE_1
 62
    39
  6
CONTINUOUS
 10
0.732411
 20
0.124470
  0
VERTEX
  8
EBENE_1
 62
    39
  6
CONTINUOUS
 10
0.719389
 20
0.130481
  0
VERTEX
  8
EBENE_1
 62
    39
  6
CONTINUOUS
 10
0.706212
 20
0.137200
  0
VERTEX
  8
EBENE_1
 62
    39
  6
CONTINUOUS
 10
0.692948
 20
0.144625
  0
VERTEX
  8
EBENE_1
 62
    39
  6
CONTINUOUS
 10
0.679660
 20
0.152750
  0
VERTEX
  8
EBENE_1
 62
    39
  6
CONTINUOUS
 10
0.666417
 20
0.161573
  0
VERTEX
  8
EBENE_1
 62
    39
  6
CONTINUOUS
 10
0.653283
 20
0.171088
  0
VERTEX
  8
EBENE_1
 62
    39
  6
CONTINUOUS
 10
0.640325
 20
0.181292
  0
VERTEX
  8
EBENE_1
 62
    39
  6
CONTINUOUS
 10
0.627609
 20
0.192181
  0
VERTEX
  8
EBENE_1
 62
    39
  6
CONTINUOUS
 10
0.615200
 20
0.203750
  0
VERTEX
  8
EBENE_1
 62
    39
  6
CONTINUOUS
 10
0.603165
 20
0.215995
  0
VERTEX
  8
EBENE_1
 62
    39
  6
CONTINUOUS
 10
0.591570
 20
0.228912
  0
VERTEX
  8
EBENE_1
 62
    39
  6
CONTINUOUS
 10
0.580480
 20
0.242498
  0
VERTEX
  8
EBENE_1
 62
    39
  6
CONTINUOUS
 10
0.569961
 20
0.256748
  0
VERTEX
  8
EBENE_1
 62
    39
  6
CONTINUOUS
 10
0.560081
 20
0.271658
  0
VERTEX
  8
EBENE_1
 62
    39
  6
CONTINUOUS
 10
0.550903
 20
0.287224
  0
VERTEX
  8
EBENE_1
 62
    39
  6
CONTINUOUS
 10
0.542495
 20
0.303441
  0
VERTEX
  8
EBENE_1
 62
    39
  6
CONTINUOUS
 10
0.534923
 20
0.320306
  0
VERTEX
  8
EBENE_1
 62
    39
  6
CONTINUOUS
 10
0.528252
 20
0.337815
  0
VERTEX
  8
EBENE_1
 62
    39
  6
CONTINUOUS
 10
0.528252
 20
0.337815
  0
VERTEX
  8
EBENE_1
 62
    39
  6
CONTINUOUS
 10
0.525359
 20
0.358708
  0
VERTEX
  8
EBENE_1
 62
    39
  6
CONTINUOUS
 10
0.525596
 20
0.377886
  0
VERTEX
  8
EBENE_1
 62
    39
  6
CONTINUOUS
 10
0.528679
 20
0.395173
  0
VERTEX
  8
EBENE_1
 62
    39
  6
CONTINUOUS
 10
0.534322
 20
0.410393
  0
VERTEX
  8
EBENE_1
 62
    39
  6
CONTINUOUS
 10
0.542242
 20
0.423369
  0
VERTEX
  8
EBENE_1
 62
    39
  6
CONTINUOUS
 10
0.552154
 20
0.433927
  0
VERTEX
  8
EBENE_1
 62
    39
  6
CONTINUOUS
 10
0.563773
 20
0.441890
  0
VERTEX
  8
EBENE_1
 62
    39
  6
CONTINUOUS
 10
0.576815
 20
0.447083
  0
VERTEX
  8
EBENE_1
 62
    39
  6
CONTINUOUS
 10
0.778933
 20
0.501362
  0
VERTEX
  8
EBENE_1
 62
    39
  6
CONTINUOUS
 10
0.799244
 20
0.503944
  0
VERTEX
  8
EBENE_1
 62
    39
  6
CONTINUOUS
 10
0.813107
 20
0.500118
  0
VERTEX
  8
EBENE_1
 62
    39
  6
CONTINUOUS
 10
0.822765
 20
0.491809
  0
VERTEX
  8
EBENE_1
 62
    39
  6
CONTINUOUS
 10
0.830459
 20
0.480941
  0
VERTEX
  8
EBENE_1
 62
    39
  6
CONTINUOUS
 10
0.838430
 20
0.469438
  0
SEQEND
  8
0
  0
POLYLINE
  8
EBENE_1
 62
    39
  6
CONTINUOUS
 66
     1
 40
0.003000
 41
0.003000
 70
     1
  0
VERTEX
  8
EBENE_1
 62
    39
  6
CONTINUOUS
 10
0.683228
 20
0.444941
  0
VERTEX
  8
EBENE_1
 62
    39
  6
CONTINUOUS
 10
0.686986
 20
0.445999
  0
VERTEX
  8
EBENE_1
 62
    39
  6
CONTINUOUS
 10
0.689474
 20
0.448644
  0
VERTEX
  8
EBENE_1
 62
    39
  6
CONTINUOUS
 10
0.690374
 20
0.452083
  0
VERTEX
  8
EBENE_1
 62
    39
  6
CONTINUOUS
 10
0.689474
 20
0.455521
  0
VERTEX
  8
EBENE_1
 62
    39
  6
CONTINUOUS
 10
0.686986
 20
0.458166
  0
VERTEX
  8
EBENE_1
 62
    39
  6
CONTINUOUS
 10
0.683228
 20
0.459224
  0
VERTEX
  8
EBENE_1
 62
    39
  6
CONTINUOUS
 10
0.679976
 20
0.458166
  0
VERTEX
  8
EBENE_1
 62
    39
  6
CONTINUOUS
 10
0.677675
 20
0.455521
  0
VERTEX
  8
EBENE_1
 62
    39
  6
CONTINUOUS
 10
0.676803
 20
0.452083
  0
VERTEX
  8
EBENE_1
 62
    39
  6
CONTINUOUS
 10
0.677675
 20
0.448644
  0
VERTEX
  8
EBENE_1
 62
    39
  6
CONTINUOUS
 10
0.679976
 20
0.445999
  0
SEQEND
  8
0
  0
POLYLINE
  8
EBENE_1
 62
    39
  6
CONTINUOUS
 66
     1
 40
0.003000
 41
0.003000
 70
     1
  0
VERTEX
  8
EBENE_1
 62
    39
  6
CONTINUOUS
 10
0.756079
 20
0.460654
  0
VERTEX
  8
EBENE_1
 62
    39
  6
CONTINUOUS
 10
0.759332
 20
0.461712
  0
VERTEX
  8
EBENE_1
 62
    39
  6
CONTINUOUS
 10
0.761632
 20
0.464357
  0
VERTEX
  8
EBENE_1
 62
    39
  6
CONTINUOUS
 10
0.762504
 20
0.467795
  0
VERTEX
  8
EBENE_1
 62
    39
  6
CONTINUOUS
 10
0.761632
 20
0.471049
  0
VERTEX
  8
EBENE_1
 62
    39
  6
CONTINUOUS
 10
0.759332
 20
0.473351
  0
VERTEX
  8
EBENE_1
 62
    39
  6
CONTINUOUS
 10
0.756079
 20
0.474224
  0
VERTEX
  8
EBENE_1
 62
    39
  6
CONTINUOUS
 10
0.752322
 20
0.473351
  0
VERTEX
  8
EBENE_1
 62
    39
  6
CONTINUOUS
 10
0.749836
 20
0.471049
  0
VERTEX
  8
EBENE_1
 62
    39
  6
CONTINUOUS
 10
0.748937
 20
0.467795
  0
VERTEX
  8
EBENE_1
 62
    39
  6
CONTINUOUS
 10
0.749836
 20
0.464357
  0
VERTEX
  8
EBENE_1
 62
    39
  6
CONTINUOUS
 10
0.752322
 20
0.461712
  0
SEQEND
  8
0
  0
POLYLINE
  8
EBENE_1
 62
    39
  6
CONTINUOUS
 66
     1
 40
0.003000
 41
0.003000
 70
     1
  0
VERTEX
  8
EBENE_1
 62
    39
  6
CONTINUOUS
 10
0.826783
 20
0.433516
  0
VERTEX
  8
EBENE_1
 62
    39
  6
CONTINUOUS
 10
0.830036
 20
0.434415
  0
VERTEX
  8
EBENE_1
 62
    39
  6
CONTINUOUS
 10
0.832336
 20
0.436900
  0
VERTEX
  8
EBENE_1
 62
    39
  6
CONTINUOUS
 10
0.833209
 20
0.440657
  0
VERTEX
  8
EBENE_1
 62
    39
  6
CONTINUOUS
 10
0.832336
 20
0.443910
  0
VERTEX
  8
EBENE_1
 62
    39
  6
CONTINUOUS
 10
0.830036
 20
0.446210
  0
VERTEX
  8
EBENE_1
 62
    39
  6
CONTINUOUS
 10
0.826783
 20
0.447083
  0
VERTEX
  8
EBENE_1
 62
    39
  6
CONTINUOUS
 10
0.823028
 20
0.446210
  0
VERTEX
  8
EBENE_1
 62
    39
  6
CONTINUOUS
 10
0.820541
 20
0.443910
  0
VERTEX
  8
EBENE_1
 62
    39
  6
CONTINUOUS
 10
0.819642
 20
0.440657
  0
VERTEX
  8
EBENE_1
 62
    39
  6
CONTINUOUS
 10
0.820541
 20
0.436900
  0
VERTEX
  8
EBENE_1
 62
    39
  6
CONTINUOUS
 10
0.823028
 20
0.434415
  0
SEQEND
  8
0
  0
POLYLINE
  8
EBENE_1
 62
    39
  6
CONTINUOUS
 66
     1
 40
0.003000
 41
0.003000
 70
     1
  0
VERTEX
  8
EBENE_1
 62
    39
  6
CONTINUOUS
 10
1.052465
 20
0.509933
  0
VERTEX
  8
EBENE_1
 62
    39
  6
CONTINUOUS
 10
1.241012
 20
0.199976
  0
VERTEX
  8
EBENE_1
 62
    39
  6
CONTINUOUS
 10
1.043181
 20
0.148555
  0
VERTEX
  8
EBENE_1
 62
    39
  6
CONTINUOUS
 10
1.035462
 20
0.147286
  0
VERTEX
  8
EBENE_1
 62
    39
  6
CONTINUOUS
 10
1.026972
 20
0.146726
  0
VERTEX
  8
EBENE_1
 62
    39
  6
CONTINUOUS
 10
1.017771
 20
0.146872
  0
VERTEX
  8
EBENE_1
 62
    39
  6
CONTINUOUS
 10
1.007921
 20
0.147721
  0
VERTEX
  8
EBENE_1
 62
    39
  6
CONTINUOUS
 10
0.997480
 20
0.149268
  0
VERTEX
  8
EBENE_1
 62
    39
  6
CONTINUOUS
 10
0.986509
 20
0.151510
  0
VERTEX
  8
EBENE_1
 62
    39
  6
CONTINUOUS
 10
0.975068
 20
0.154443
  0
VERTEX
  8
EBENE_1
 62
    39
  6
CONTINUOUS
 10
0.963217
 20
0.158063
  0
VERTEX
  8
EBENE_1
 62
    39
  6
CONTINUOUS
 10
0.951017
 20
0.162368
  0
VERTEX
  8
EBENE_1
 62
    39
  6
CONTINUOUS
 10
0.938527
 20
0.167352
  0
VERTEX
  8
EBENE_1
 62
    39
  6
CONTINUOUS
 10
0.925807
 20
0.173013
  0
VERTEX
  8
EBENE_1
 62
    39
  6
CONTINUOUS
 10
0.912917
 20
0.179347
  0
VERTEX
  8
EBENE_1
 62
    39
  6
CONTINUOUS
 10
0.899918
 20
0.186350
  0
VERTEX
  8
EBENE_1
 62
    39
  6
CONTINUOUS
 10
0.886870
 20
0.194018
  0
VERTEX
  8
EBENE_1
 62
    39
  6
CONTINUOUS
 10
0.873832
 20
0.202348
  0
VERTEX
  8
EBENE_1
 62
    39
  6
CONTINUOUS
 10
0.860866
 20
0.211336
  0
VERTEX
  8
EBENE_1
 62
    39
  6
CONTINUOUS
 10
0.848030
 20
0.220978
  0
VERTEX
  8
EBENE_1
 62
    39
  6
CONTINUOUS
 10
0.835385
 20
0.231271
  0
VERTEX
  8
EBENE_1
 62
    39
  6
CONTINUOUS
 10
0.822991
 20
0.242210
  0
VERTEX
  8
EBENE_1
 62
    39
  6
CONTINUOUS
 10
0.810908
 20
0.253793
  0
VERTEX
  8
EBENE_1
 62
    39
  6
CONTINUOUS
 10
0.799197
 20
0.266016
  0
VERTEX
  8
EBENE_1
 62
    39
  6
CONTINUOUS
 10
0.787917
 20
0.278874
  0
VERTEX
  8
EBENE_1
 62
    39
  6
CONTINUOUS
 10
0.777129
 20
0.292365
  0
VERTEX
  8
EBENE_1
 62
    39
  6
CONTINUOUS
 10
0.766892
 20
0.306484
  0
VERTEX
  8
EBENE_1
 62
    39
  6
CONTINUOUS
 10
0.757266
 20
0.321228
  0
VERTEX
  8
EBENE_1
 62
    39
  6
CONTINUOUS
 10
0.748312
 20
0.336593
  0
VERTEX
  8
EBENE_1
 62
    39
  6
CONTINUOUS
 10
0.740091
 20
0.352576
  0
VERTEX
  8
EBENE_1
 62
    39
  6
CONTINUOUS
 10
0.732661
 20
0.369172
  0
VERTEX
  8
EBENE_1
 62
    39
  6
CONTINUOUS
 10
0.726083
 20
0.386378
  0
VERTEX
  8
EBENE_1
 62
    39
  6
CONTINUOUS
 10
0.726083
 20
0.386378
  0
VERTEX
  8
EBENE_1
 62
    39
  6
CONTINUOUS
 10
0.723425
 20
0.407538
  0
VERTEX
  8
EBENE_1
 62
    39
  6
CONTINUOUS
 10
0.723839
 20
0.426975
  0
VERTEX
  8
EBENE_1
 62
    39
  6
CONTINUOUS
 10
0.727048
 20
0.444503
  0
VERTEX
  8
EBENE_1
 62
    39
  6
CONTINUOUS
 10
0.732777
 20
0.459939
  0
VERTEX
  8
EBENE_1
 62
    39
  6
CONTINUOUS
 10
0.740749
 20
0.473099
  0
VERTEX
  8
EBENE_1
 62
    39
  6
CONTINUOUS
 10
0.750688
 20
0.483798
  0
VERTEX
  8
EBENE_1
 62
    39
  6
CONTINUOUS
 10
0.762318
 20
0.491853
  0
VERTEX
  8
EBENE_1
 62
    39
  6
CONTINUOUS
 10
0.775362
 20
0.497079
  0
VERTEX
  8
EBENE_1
 62
    39
  6
CONTINUOUS
 10
0.981764
 20
0.552067
  0
VERTEX
  8
EBENE_1
 62
    39
  6
CONTINUOUS
 10
1.002375
 20
0.554947
  0
VERTEX
  8
EBENE_1
 62
    39
  6
CONTINUOUS
 10
1.016439
 20
0.551301
  0
VERTEX
  8
EBENE_1
 62
    39
  6
CONTINUOUS
 10
1.026219
 20
0.543052
  0
VERTEX
  8
EBENE_1
 62
    39
  6
CONTINUOUS
 10
1.033976
 20
0.532124
  0
VERTEX
  8
EBENE_1
 62
    39
  6
CONTINUOUS
 10
1.041970
 20
0.520443
  0
SEQEND
  8
0
  0
POLYLINE
  8
EBENE_1
 62
    39
  6
CONTINUOUS
 66
     1
 40
0.003000
 41
0.003000
 70
     1
  0
VERTEX
  8
EBENE_1
 62
    39
  6
CONTINUOUS
 10
1.052465
 20
0.508504
  0
VERTEX
  8
EBENE_1
 62
    39
  6
CONTINUOUS
 10
1.238154
 20
0.203543
  0
VERTEX
  8
EBENE_1
 62
    39
  6
CONTINUOUS
 10
1.043894
 20
0.153551
  0
VERTEX
  8
EBENE_1
 62
    39
  6
CONTINUOUS
 10
1.036256
 20
0.152208
  0
VERTEX
  8
EBENE_1
 62
    39
  6
CONTINUOUS
 10
1.027862
 20
0.151574
  0
VERTEX
  8
EBENE_1
 62
    39
  6
CONTINUOUS
 10
1.018771
 20
0.151645
  0
VERTEX
  8
EBENE_1
 62
    39
  6
CONTINUOUS
 10
1.009043
 20
0.152416
  0
VERTEX
  8
EBENE_1
 62
    39
  6
CONTINUOUS
 10
0.998736
 20
0.153884
  0
VERTEX
  8
EBENE_1
 62
    39
  6
CONTINUOUS
 10
0.987910
 20
0.156044
  0
VERTEX
  8
EBENE_1
 62
    39
  6
CONTINUOUS
 10
0.976624
 20
0.158892
  0
VERTEX
  8
EBENE_1
 62
    39
  6
CONTINUOUS
 10
0.964937
 20
0.162425
  0
VERTEX
  8
EBENE_1
 62
    39
  6
CONTINUOUS
 10
0.952909
 20
0.166636
  0
VERTEX
  8
EBENE_1
 62
    39
  6
CONTINUOUS
 10
0.940598
 20
0.171523
  0
VERTEX
  8
EBENE_1
 62
    39
  6
CONTINUOUS
 10
0.928064
 20
0.177081
  0
VERTEX
  8
EBENE_1
 62
    39
  6
CONTINUOUS
 10
0.915366
 20
0.183306
  0
VERTEX
  8
EBENE_1
 62
    39
  6
CONTINUOUS
 10
0.902563
 20
0.190194
  0
VERTEX
  8
EBENE_1
 62
    39
  6
CONTINUOUS
 10
0.889715
 20
0.197741
  0
VERTEX
  8
EBENE_1
 62
    39
  6
CONTINUOUS
 10
0.876881
 20
0.205941
  0
VERTEX
  8
EBENE_1
 62
    39
  6
CONTINUOUS
 10
0.864120
 20
0.214792
  0
VERTEX
  8
EBENE_1
 62
    39
  6
CONTINUOUS
 10
0.851490
 20
0.224289
  0
VERTEX
  8
EBENE_1
 62
    39
  6
CONTINUOUS
 10
0.839052
 20
0.234427
  0
VERTEX
  8
EBENE_1
 62
    39
  6
CONTINUOUS
 10
0.826865
 20
0.245202
  0
VERTEX
  8
EBENE_1
 62
    39
  6
CONTINUOUS
 10
0.814987
 20
0.256611
  0
VERTEX
  8
EBENE_1
 62
    39
  6
CONTINUOUS
 10
0.803478
 20
0.268649
  0
VERTEX
  8
EBENE_1
 62
    39
  6
CONTINUOUS
 10
0.792397
 20
0.281312
  0
VERTEX
  8
EBENE_1
 62
    39
  6
CONTINUOUS
 10
0.781804
 20
0.294595
  0
VERTEX
  8
EBENE_1
 62
    39
  6
CONTINUOUS
 10
0.771757
 20
0.308495
  0
VERTEX
  8
EBENE_1
 62
    39
  6
CONTINUOUS
 10
0.762317
 20
0.323007
  0
VERTEX
  8
EBENE_1
 62
    39
  6
CONTINUOUS
 10
0.753541
 20
0.338126
  0
VERTEX
  8
EBENE_1
 62
    39
  6
CONTINUOUS
 10
0.745489
 20
0.353850
  0
VERTEX
  8
EBENE_1
 62
    39
  6
CONTINUOUS
 10
0.738221
 20
0.370172
  0
VERTEX
  8
EBENE_1
 62
    39
  6
CONTINUOUS
 10
0.731795
 20
0.387091
  0
VERTEX
  8
EBENE_1
 62
    39
  6
CONTINUOUS
 10
0.731795
 20
0.387091
  0
VERTEX
  8
EBENE_1
 62
    39
  6
CONTINUOUS
 10
0.729108
 20
0.407985
  0
VERTEX
  8
EBENE_1
 62
    39
  6
CONTINUOUS
 10
0.729442
 20
0.427164
  0
VERTEX
  8
EBENE_1
 62
    39
  6
CONTINUOUS
 10
0.732537
 20
0.444452
  0
VERTEX
  8
EBENE_1
 62
    39
  6
CONTINUOUS
 10
0.738135
 20
0.459672
  0
VERTEX
  8
EBENE_1
 62
    39
  6
CONTINUOUS
 10
0.745976
 20
0.472649
  0
VERTEX
  8
EBENE_1
 62
    39
  6
CONTINUOUS
 10
0.755800
 20
0.483207
  0
VERTEX
  8
EBENE_1
 62
    39
  6
CONTINUOUS
 10
0.767349
 20
0.491170
  0
VERTEX
  8
EBENE_1
 62
    39
  6
CONTINUOUS
 10
0.780362
 20
0.496362
  0
VERTEX
  8
EBENE_1
 62
    39
  6
CONTINUOUS
 10
0.982476
 20
0.550642
  0
VERTEX
  8
EBENE_1
 62
    39
  6
CONTINUOUS
 10
1.002836
 20
0.553224
  0
VERTEX
  8
EBENE_1
 62
    39
  6
CONTINUOUS
 10
1.016809
 20
0.549398
  0
VERTEX
  8
EBENE_1
 62
    39
  6
CONTINUOUS
 10
1.026575
 20
0.541089
  0
VERTEX
  8
EBENE_1
 62
    39
  6
CONTINUOUS
 10
1.034319
 20
0.530220
  0
VERTEX
  8
EBENE_1
 62
    39
  6
CONTINUOUS
 10
1.042221
 20
0.518717
  0
SEQEND
  8
0
  0
POLYLINE
  8
EBENE_1
 62
    39
  6
CONTINUOUS
 66
     1
 40
0.003000
 41
0.003000
 70
     1
  0
VERTEX
  8
EBENE_1
 62
    39
  6
CONTINUOUS
 10
0.887488
 20
0.494220
  0
VERTEX
  8
EBENE_1
 62
    39
  6
CONTINUOUS
 10
0.890742
 20
0.495279
  0
VERTEX
  8
EBENE_1
 62
    39
  6
CONTINUOUS
 10
0.893044
 20
0.497924
  0
VERTEX
  8
EBENE_1
 62
    39
  6
CONTINUOUS
 10
0.893917
 20
0.501362
  0
VERTEX
  8
EBENE_1
 62
    39
  6
CONTINUOUS
 10
0.893044
 20
0.504616
  0
VERTEX
  8
EBENE_1
 62
    39
  6
CONTINUOUS
 10
0.890742
 20
0.506918
  0
VERTEX
  8
EBENE_1
 62
    39
  6
CONTINUOUS
 10
0.887488
 20
0.507791
  0
VERTEX
  8
EBENE_1
 62
    39
  6
CONTINUOUS
 10
0.883733
 20
0.506918
  0
VERTEX
  8
EBENE_1
 62
    39
  6
CONTINUOUS
 10
0.881246
 20
0.504616
  0
VERTEX
  8
EBENE_1
 62
    39
  6
CONTINUOUS
 10
0.880346
 20
0.501362
  0
VERTEX
  8
EBENE_1
 62
    39
  6
CONTINUOUS
 10
0.881246
 20
0.497924
  0
VERTEX
  8
EBENE_1
 62
    39
  6
CONTINUOUS
 10
0.883733
 20
0.495279
  0
SEQEND
  8
0
  0
POLYLINE
  8
EBENE_1
 62
    39
  6
CONTINUOUS
 66
     1
 40
0.003000
 41
0.003000
 70
     1
  0
VERTEX
  8
EBENE_1
 62
    39
  6
CONTINUOUS
 10
0.959622
 20
0.509933
  0
VERTEX
  8
EBENE_1
 62
    39
  6
CONTINUOUS
 10
0.962876
 20
0.510832
  0
VERTEX
  8
EBENE_1
 62
    39
  6
CONTINUOUS
 10
0.965178
 20
0.513318
  0
VERTEX
  8
EBENE_1
 62
    39
  6
CONTINUOUS
 10
0.966051
 20
0.517075
  0
VERTEX
  8
EBENE_1
 62
    39
  6
CONTINUOUS
 10
0.965178
 20
0.520329
  0
VERTEX
  8
EBENE_1
 62
    39
  6
CONTINUOUS
 10
0.962876
 20
0.522631
  0
VERTEX
  8
EBENE_1
 62
    39
  6
CONTINUOUS
 10
0.959622
 20
0.523504
  0
VERTEX
  8
EBENE_1
 62
    39
  6
CONTINUOUS
 10
0.956183
 20
0.522631
  0
VERTEX
  8
EBENE_1
 62
    39
  6
CONTINUOUS
 10
0.953538
 20
0.520329
  0
VERTEX
  8
EBENE_1
 62
    39
  6
CONTINUOUS
 10
0.952480
 20
0.517075
  0
VERTEX
  8
EBENE_1
 62
    39
  6
CONTINUOUS
 10
0.953538
 20
0.513318
  0
VERTEX
  8
EBENE_1
 62
    39
  6
CONTINUOUS
 10
0.956183
 20
0.510832
  0
SEQEND
  8
0
  0
POLYLINE
  8
EBENE_1
 62
    39
  6
CONTINUOUS
 66
     1
 40
0.003000
 41
0.003000
 70
     1
  0
VERTEX
  8
EBENE_1
 62
    39
  6
CONTINUOUS
 10
1.030327
 20
0.482791
  0
VERTEX
  8
EBENE_1
 62
    39
  6
CONTINUOUS
 10
1.033580
 20
0.483691
  0
VERTEX
  8
EBENE_1
 62
    39
  6
CONTINUOUS
 10
1.035880
 20
0.486179
  0
VERTEX
  8
EBENE_1
 62
    39
  6
CONTINUOUS
 10
1.036752
 20
0.489937
  0
VERTEX
  8
EBENE_1
 62
    39
  6
CONTINUOUS
 10
1.035880
 20
0.493190
  0
VERTEX
  8
EBENE_1
 62
    39
  6
CONTINUOUS
 10
1.033580
 20
0.495490
  0
VERTEX
  8
EBENE_1
 62
    39
  6
CONTINUOUS
 10
1.030327
 20
0.496362
  0
VERTEX
  8
EBENE_1
 62
    39
  6
CONTINUOUS
 10
1.026888
 20
0.495490
  0
VERTEX
  8
EBENE_1
 62
    39
  6
CONTINUOUS
 10
1.024243
 20
0.493190
  0
VERTEX
  8
EBENE_1
 62
    39
  6
CONTINUOUS
 10
1.023185
 20
0.489937
  0
VERTEX
  8
EBENE_1
 62
    39
  6
CONTINUOUS
 10
1.024243
 20
0.486179
  0
VERTEX
  8
EBENE_1
 62
    39
  6
CONTINUOUS
 10
1.026888
 20
0.483691
  0
SEQEND
  8
0
  0
POLYLINE
  8
EBENE_1
 62
    39
  6
CONTINUOUS
 66
     1
 40
0.003000
 41
0.003000
 70
     1
  0
VERTEX
  8
EBENE_1
 62
    39
  6
CONTINUOUS
 10
-0.638012
 20
0.147839
  0
VERTEX
  8
EBENE_1
 62
    39
  6
CONTINUOUS
 10
-0.617299
 20
0.102130
  0
VERTEX
  8
EBENE_1
 62
    39
  6
CONTINUOUS
 10
-0.609804
 20
0.093756
  0
VERTEX
  8
EBENE_1
 62
    39
  6
CONTINUOUS
 10
-0.598018
 20
0.085923
  0
VERTEX
  8
EBENE_1
 62
    39
  6
CONTINUOUS
 10
-0.582993
 20
0.078853
  0
VERTEX
  8
EBENE_1
 62
    39
  6
CONTINUOUS
 10
-0.565782
 20
0.072771
  0
VERTEX
  8
EBENE_1
 62
    39
  6
CONTINUOUS
 10
-0.547435
 20
0.067900
  0
VERTEX
  8
EBENE_1
 62
    39
  6
CONTINUOUS
 10
-0.529007
 20
0.064463
  0
VERTEX
  8
EBENE_1
 62
    39
  6
CONTINUOUS
 10
-0.511548
 20
0.062684
  0
VERTEX
  8
EBENE_1
 62
    39
  6
CONTINUOUS
 10
-0.496111
 20
0.062786
  0
VERTEX
  8
EBENE_1
 62
    39
  6
CONTINUOUS
 10
-0.483748
 20
0.064992
  0
VERTEX
  8
EBENE_1
 62
    39
  6
CONTINUOUS
 10
-0.291630
 20
0.119984
  0
VERTEX
  8
EBENE_1
 62
    39
  6
CONTINUOUS
 10
-0.455181
 20
0.382091
  0
VERTEX
  8
EBENE_1
 62
    39
  6
CONTINUOUS
 10
-0.611587
 20
0.229256
  0
VERTEX
  8
EBENE_1
 62
    39
  6
CONTINUOUS
 10
-0.623563
 20
0.220398
  0
VERTEX
  8
EBENE_1
 62
    39
  6
CONTINUOUS
 10
-0.633357
 20
0.207196
  0
VERTEX
  8
EBENE_1
 62
    39
  6
CONTINUOUS
 10
-0.640334
 20
0.191494
  0
VERTEX
  8
EBENE_1
 62
    39
  6
CONTINUOUS
 10
-0.643858
 20
0.175138
  0
VERTEX
  8
EBENE_1
 62
    39
  6
CONTINUOUS
 10
-0.643296
 20
0.159971
  0
SEQEND
  8
0
  0
POLYLINE
  8
EBENE_1
 62
    39
  6
CONTINUOUS
 66
     1
 40
0.003000
 41
0.003000
 70
     1
  0
VERTEX
  8
EBENE_1
 62
    39
  6
CONTINUOUS
 10
-0.633012
 20
0.149980
  0
VERTEX
  8
EBENE_1
 62
    39
  6
CONTINUOUS
 10
-0.613016
 20
0.106417
  0
VERTEX
  8
EBENE_1
 62
    39
  6
CONTINUOUS
 10
-0.604591
 20
0.097090
  0
VERTEX
  8
EBENE_1
 62
    39
  6
CONTINUOUS
 10
-0.591010
 20
0.088584
  0
VERTEX
  8
EBENE_1
 62
    39
  6
CONTINUOUS
 10
-0.573747
 20
0.081182
  0
VERTEX
  8
EBENE_1
 62
    39
  6
CONTINUOUS
 10
-0.554274
 20
0.075170
  0
VERTEX
  8
EBENE_1
 62
    39
  6
CONTINUOUS
 10
-0.534065
 20
0.070832
  0
VERTEX
  8
EBENE_1
 62
    39
  6
CONTINUOUS
 10
-0.514592
 20
0.068452
  0
VERTEX
  8
EBENE_1
 62
    39
  6
CONTINUOUS
 10
-0.497329
 20
0.068315
  0
VERTEX
  8
EBENE_1
 62
    39
  6
CONTINUOUS
 10
-0.483748
 20
0.070705
  0
VERTEX
  8
EBENE_1
 62
    39
  6
CONTINUOUS
 10
-0.296630
 20
0.122843
  0
VERTEX
  8
EBENE_1
 62
    39
  6
CONTINUOUS
 10
-0.455894
 20
0.376378
  0
VERTEX
  8
EBENE_1
 62
    39
  6
CONTINUOUS
 10
-0.607303
 20
0.228543
  0
VERTEX
  8
EBENE_1
 62
    39
  6
CONTINUOUS
 10
-0.621015
 20
0.217835
  0
VERTEX
  8
EBENE_1
 62
    39
  6
CONTINUOUS
 10
-0.631471
 20
0.201505
  0
VERTEX
  8
EBENE_1
 62
    39
  6
CONTINUOUS
 10
-0.637641
 20
0.182673
  0
VERTEX
  8
EBENE_1
 62
    39
  6
CONTINUOUS
 10
-0.638498
 20
0.164459
  0
SEQEND
  8
0
  0
POLYLINE
  8
EBENE_1
 62
    39
  6
CONTINUOUS
 66
     1
 40
0.003000
 41
0.003000
 70
     1
  0
VERTEX
  8
EBENE_1
 62
    39
  6
CONTINUOUS
 10
-0.492319
 20
0.297102
  0
VERTEX
  8
EBENE_1
 62
    39
  6
CONTINUOUS
 10
-0.413043
 20
0.154980
  0
VERTEX
  8
EBENE_1
 62
    39
  6
CONTINUOUS
 10
-0.405760
 20
0.146418
  0
VERTEX
  8
EBENE_1
 62
    39
  6
CONTINUOUS
 10
-0.394140
 20
0.138485
  0
VERTEX
  8
EBENE_1
 62
    39
  6
CONTINUOUS
 10
-0.379239
 20
0.131386
  0
VERTEX
  8
EBENE_1
 62
    39
  6
CONTINUOUS
 10
-0.362116
 20
0.125328
  0
VERTEX
  8
EBENE_1
 62
    39
  6
CONTINUOUS
 10
-0.343829
 20
0.120516
  0
VERTEX
  8
EBENE_1
 62
    39
  6
CONTINUOUS
 10
-0.325437
 20
0.117156
  0
VERTEX
  8
EBENE_1
 62
    39
  6
CONTINUOUS
 10
-0.307997
 20
0.115453
  0
VERTEX
  8
EBENE_1
 62
    39
  6
CONTINUOUS
 10
-0.292567
 20
0.115613
  0
VERTEX
  8
EBENE_1
 62
    39
  6
CONTINUOUS
 10
-0.280205
 20
0.117843
  0
VERTEX
  8
EBENE_1
 62
    39
  6
CONTINUOUS
 10
-0.088087
 20
0.172122
  0
VERTEX
  8
EBENE_1
 62
    39
  6
CONTINUOUS
 10
-0.308059
 20
0.531358
  0
VERTEX
  8
EBENE_1
 62
    39
  6
CONTINUOUS
 10
-0.477319
 20
0.364240
  0
VERTEX
  8
EBENE_1
 62
    39
  6
CONTINUOUS
 10
-0.492117
 20
0.348427
  0
VERTEX
  8
EBENE_1
 62
    39
  6
CONTINUOUS
 10
-0.499817
 20
0.330940
  0
VERTEX
  8
EBENE_1
 62
    39
  6
CONTINUOUS
 10
-0.500019
 20
0.313318
  0
SEQEND
  8
0
  0
POLYLINE
  8
EBENE_1
 62
    39
  6
CONTINUOUS
 66
     1
 40
0.003000
 41
0.003000
 70
     1
  0
VERTEX
  8
EBENE_1
 62
    39
  6
CONTINUOUS
 10
-0.488031
 20
0.297819
  0
VERTEX
  8
EBENE_1
 62
    39
  6
CONTINUOUS
 10
-0.410902
 20
0.158551
  0
VERTEX
  8
EBENE_1
 62
    39
  6
CONTINUOUS
 10
-0.402475
 20
0.149430
  0
VERTEX
  8
EBENE_1
 62
    39
  6
CONTINUOUS
 10
-0.388885
 20
0.141020
  0
VERTEX
  8
EBENE_1
 62
    39
  6
CONTINUOUS
 10
-0.371595
 20
0.133631
  0
VERTEX
  8
EBENE_1
 62
    39
  6
CONTINUOUS
 10
-0.352070
 20
0.127573
  0
VERTEX
  8
EBENE_1
 62
    39
  6
CONTINUOUS
 10
-0.331776
 20
0.123156
  0
VERTEX
  8
EBENE_1
 62
    39
  6
CONTINUOUS
 10
-0.312176
 20
0.120688
  0
VERTEX
  8
EBENE_1
 62
    39
  6
CONTINUOUS
 10
-0.294735
 20
0.120481
  0
VERTEX
  8
EBENE_1
 62
    39
  6
CONTINUOUS
 10
-0.280917
 20
0.122843
  0
VERTEX
  8
EBENE_1
 62
    39
  6
CONTINUOUS
 10
-0.092374
 20
0.175693
  0
VERTEX
  8
EBENE_1
 62
    39
  6
CONTINUOUS
 10
-0.308059
 20
0.526358
  0
VERTEX
  8
EBENE_1
 62
    39
  6
CONTINUOUS
 10
-0.473035
 20
0.362811
  0
VERTEX
  8
EBENE_1
 62
    39
  6
CONTINUOUS
 10
-0.487733
 20
0.347533
  0
VERTEX
  8
EBENE_1
 62
    39
  6
CONTINUOUS
 10
-0.495265
 20
0.330582
  0
VERTEX
  8
EBENE_1
 62
    39
  6
CONTINUOUS
 10
-0.495431
 20
0.313498
  0
SEQEND
  8
0
  0
POLYLINE
  8
EBENE_1
 62
    39
  6
CONTINUOUS
 66
     1
 40
0.003000
 41
0.003000
 70
     1
  0
VERTEX
  8
EBENE_1
 62
    39
  6
CONTINUOUS
 10
-0.348051
 20
0.437799
  0
VERTEX
  8
EBENE_1
 62
    39
  6
CONTINUOUS
 10
-0.209500
 20
0.207831
  0
VERTEX
  8
EBENE_1
 62
    39
  6
CONTINUOUS
 10
-0.202029
 20
0.199268
  0
VERTEX
  8
EBENE_1
 62
    39
  6
CONTINUOUS
 10
-0.190309
 20
0.191335
  0
VERTEX
  8
EBENE_1
 62
    39
  6
CONTINUOUS
 10
-0.175379
 20
0.184236
  0
VERTEX
  8
EBENE_1
 62
    39
  6
CONTINUOUS
 10
-0.158280
 20
0.178177
  0
VERTEX
  8
EBENE_1
 62
    39
  6
CONTINUOUS
 10
-0.140052
 20
0.173365
  0
VERTEX
  8
EBENE_1
 62
    39
  6
CONTINUOUS
 10
-0.121735
 20
0.170005
  0
VERTEX
  8
EBENE_1
 62
    39
  6
CONTINUOUS
 10
-0.104371
 20
0.168302
  0
VERTEX
  8
EBENE_1
 62
    39
  6
CONTINUOUS
 10
-0.089000
 20
0.168463
  0
VERTEX
  8
EBENE_1
 62
    39
  6
CONTINUOUS
 10
-0.076661
 20
0.170693
  0
VERTEX
  8
EBENE_1
 62
    39
  6
CONTINUOUS
 10
0.116165
 20
0.224972
  0
VERTEX
  8
EBENE_1
 62
    39
  6
CONTINUOUS
 10
-0.160937
 20
0.680622
  0
VERTEX
  8
EBENE_1
 62
    39
  6
CONTINUOUS
 10
-0.327343
 20
0.512787
  0
VERTEX
  8
EBENE_1
 62
    39
  6
CONTINUOUS
 10
-0.340877
 20
0.502521
  0
VERTEX
  8
EBENE_1
 62
    39
  6
CONTINUOUS
 10
-0.350263
 20
0.487215
  0
VERTEX
  8
EBENE_1
 62
    39
  6
CONTINUOUS
 10
-0.354954
 20
0.469543
  0
VERTEX
  8
EBENE_1
 62
    39
  6
CONTINUOUS
 10
-0.354399
 20
0.452180
  0
SEQEND
  8
0
  0
POLYLINE
  8
EBENE_1
 62
    39
  6
CONTINUOUS
 66
     1
 40
0.003000
 41
0.003000
 70
     1
  0
VERTEX
  8
EBENE_1
 62
    39
  6
CONTINUOUS
 10
-0.343055
 20
0.437087
  0
VERTEX
  8
EBENE_1
 62
    39
  6
CONTINUOUS
 10
-0.208071
 20
0.211402
  0
VERTEX
  8
EBENE_1
 62
    39
  6
CONTINUOUS
 10
-0.199409
 20
0.202045
  0
VERTEX
  8
EBENE_1
 62
    39
  6
CONTINUOUS
 10
-0.185642
 20
0.193459
  0
VERTEX
  8
EBENE_1
 62
    39
  6
CONTINUOUS
 10
-0.168226
 20
0.185943
  0
VERTEX
  8
EBENE_1
 62
    39
  6
CONTINUOUS
 10
-0.148616
 20
0.179800
  0
VERTEX
  8
EBENE_1
 62
    39
  6
CONTINUOUS
 10
-0.128270
 20
0.175331
  0
VERTEX
  8
EBENE_1
 62
    39
  6
CONTINUOUS
 10
-0.108643
 20
0.172837
  0
VERTEX
  8
EBENE_1
 62
    39
  6
CONTINUOUS
 10
-0.091193
 20
0.172620
  0
VERTEX
  8
EBENE_1
 62
    39
  6
CONTINUOUS
 10
-0.077374
 20
0.174980
  0
VERTEX
  8
EBENE_1
 62
    39
  6
CONTINUOUS
 10
0.110453
 20
0.228543
  0
VERTEX
  8
EBENE_1
 62
    39
  6
CONTINUOUS
 10
-0.160220
 20
0.675622
  0
VERTEX
  8
EBENE_1
 62
    39
  6
CONTINUOUS
 10
-0.322343
 20
0.511362
  0
VERTEX
  8
EBENE_1
 62
    39
  6
CONTINUOUS
 10
-0.335808
 20
0.501168
  0
VERTEX
  8
EBENE_1
 62
    39
  6
CONTINUOUS
 10
-0.345058
 20
0.486039
  0
VERTEX
  8
EBENE_1
 62
    39
  6
CONTINUOUS
 10
-0.349647
 20
0.468578
  0
VERTEX
  8
EBENE_1
 62
    39
  6
CONTINUOUS
 10
-0.349128
 20
0.451393
  0
SEQEND
  8
0
  0
POLYLINE
  8
EBENE_1
 62
    39
  6
CONTINUOUS
 66
     1
 40
0.003000
 41
0.003000
 70
     1
  0
VERTEX
  8
EBENE_1
 62
    39
  6
CONTINUOUS
 10
-0.195217
 20
0.594205
  0
VERTEX
  8
EBENE_1
 62
    39
  6
CONTINUOUS
 10
-0.005957
 20
0.259965
  0
VERTEX
  8
EBENE_1
 62
    39
  6
CONTINUOUS
 10
0.001513
 20
0.251592
  0
VERTEX
  8
EBENE_1
 62
    39
  6
CONTINUOUS
 10
0.013232
 20
0.243766
  0
VERTEX
  8
EBENE_1
 62
    39
  6
CONTINUOUS
 10
0.028162
 20
0.236715
  0
VERTEX
  8
EBENE_1
 62
    39
  6
CONTINUOUS
 10
0.045260
 20
0.230670
  0
VERTEX
  8
EBENE_1
 62
    39
  6
CONTINUOUS
 10
0.063488
 20
0.225859
  0
VERTEX
  8
EBENE_1
 62
    39
  6
CONTINUOUS
 10
0.081804
 20
0.222512
  0
VERTEX
  8
EBENE_1
 62
    39
  6
CONTINUOUS
 10
0.099168
 20
0.220857
  0
VERTEX
  8
EBENE_1
 62
    39
  6
CONTINUOUS
 10
0.114540
 20
0.221125
  0
VERTEX
  8
EBENE_1
 62
    39
  6
CONTINUOUS
 10
0.126878
 20
0.223543
  0
VERTEX
  8
EBENE_1
 62
    39
  6
CONTINUOUS
 10
0.319709
 20
0.277823
  0
VERTEX
  8
EBENE_1
 62
    39
  6
CONTINUOUS
 10
-0.030240
 20
0.822748
  0
VERTEX
  8
EBENE_1
 62
    39
  6
CONTINUOUS
 10
-0.164508
 20
0.673480
  0
VERTEX
  8
EBENE_1
 62
    39
  6
CONTINUOUS
 10
-0.176800
 20
0.664980
  0
VERTEX
  8
EBENE_1
 62
    39
  6
CONTINUOUS
 10
-0.187387
 20
0.652135
  0
VERTEX
  8
EBENE_1
 62
    39
  6
CONTINUOUS
 10
-0.195395
 20
0.636789
  0
VERTEX
  8
EBENE_1
 62
    39
  6
CONTINUOUS
 10
-0.199951
 20
0.620789
  0
VERTEX
  8
EBENE_1
 62
    39
  6
CONTINUOUS
 10
-0.200183
 20
0.605979
  0
SEQEND
  8
0
  0
POLYLINE
  8
EBENE_1
 62
    39
  6
CONTINUOUS
 66
     1
 40
0.003000
 41
0.003000
 70
     1
  0
VERTEX
  8
EBENE_1
 62
    39
  6
CONTINUOUS
 10
-0.190217
 20
0.592780
  0
VERTEX
  8
EBENE_1
 62
    39
  6
CONTINUOUS
 10
-0.004528
 20
0.264252
  0
VERTEX
  8
EBENE_1
 62
    39
  6
CONTINUOUS
 10
0.003898
 20
0.254895
  0
VERTEX
  8
EBENE_1
 62
    39
  6
CONTINUOUS
 10
0.017487
 20
0.246307
  0
VERTEX
  8
EBENE_1
 62
    39
  6
CONTINUOUS
 10
0.034776
 20
0.238792
  0
VERTEX
  8
EBENE_1
 62
    39
  6
CONTINUOUS
 10
0.054300
 20
0.232649
  0
VERTEX
  8
EBENE_1
 62
    39
  6
CONTINUOUS
 10
0.074594
 20
0.228179
  0
VERTEX
  8
EBENE_1
 62
    39
  6
CONTINUOUS
 10
0.094193
 20
0.225685
  0
VERTEX
  8
EBENE_1
 62
    39
  6
CONTINUOUS
 10
0.111633
 20
0.225467
  0
VERTEX
  8
EBENE_1
 62
    39
  6
CONTINUOUS
 10
0.125449
 20
0.227827
  0
VERTEX
  8
EBENE_1
 62
    39
  6
CONTINUOUS
 10
0.313996
 20
0.281394
  0
VERTEX
  8
EBENE_1
 62
    39
  6
CONTINUOUS
 10
0.027606
 20
0.808461
  0
VERTEX
  8
EBENE_1
 62
    39
  6
CONTINUOUS
 10
-0.027382
 20
0.819890
  0
VERTEX
  8
EBENE_1
 62
    39
  6
CONTINUOUS
 10
-0.160220
 20
0.671339
  0
VERTEX
  8
EBENE_1
 62
    39
  6
CONTINUOUS
 10
-0.174379
 20
0.660632
  0
VERTEX
  8
EBENE_1
 62
    39
  6
CONTINUOUS
 10
-0.185897
 20
0.644303
  0
VERTEX
  8
EBENE_1
 62
    39
  6
CONTINUOUS
 10
-0.193337
 20
0.625471
  0
VERTEX
  8
EBENE_1
 62
    39
  6
CONTINUOUS
 10
-0.195257
 20
0.607256
  0
SEQEND
  8
0
  0
POLYLINE
  8
EBENE_1
 62
    39
  6
CONTINUOUS
 66
     1
 40
0.003000
 41
0.003000
 70
     1
  0
VERTEX
  8
EBENE_1
 62
    39
  6
CONTINUOUS
 10
0.335421
 20
0.634201
  0
VERTEX
  8
EBENE_1
 62
    39
  6
CONTINUOUS
 10
0.524681
 20
0.324244
  0
VERTEX
  8
EBENE_1
 62
    39
  6
CONTINUOUS
 10
0.326850
 20
0.272823
  0
VERTEX
  8
EBENE_1
 62
    39
  6
CONTINUOUS
 10
0.319060
 20
0.271556
  0
VERTEX
  8
EBENE_1
 62
    39
  6
CONTINUOUS
 10
0.310503
 20
0.271003
  0
VERTEX
  8
EBENE_1
 62
    39
  6
CONTINUOUS
 10
0.301241
 20
0.271161
  0
VERTEX
  8
EBENE_1
 62
    39
  6
CONTINUOUS
 10
0.291334
 20
0.272025
  0
VERTEX
  8
EBENE_1
 62
    39
  6
CONTINUOUS
 10
0.280840
 20
0.273592
  0
VERTEX
  8
EBENE_1
 62
    39
  6
CONTINUOUS
 10
0.269821
 20
0.275857
  0
VERTEX
  8
EBENE_1
 62
    39
  6
CONTINUOUS
 10
0.258336
 20
0.278815
  0
VERTEX
  8
EBENE_1
 62
    39
  6
CONTINUOUS
 10
0.246445
 20
0.282464
  0
VERTEX
  8
EBENE_1
 62
    39
  6
CONTINUOUS
 10
0.234207
 20
0.286800
  0
VERTEX
  8
EBENE_1
 62
    39
  6
CONTINUOUS
 10
0.221683
 20
0.291817
  0
VERTEX
  8
EBENE_1
 62
    39
  6
CONTINUOUS
 10
0.208933
 20
0.297512
  0
VERTEX
  8
EBENE_1
 62
    39
  6
CONTINUOUS
 10
0.196017
 20
0.303881
  0
VERTEX
  8
EBENE_1
 62
    39
  6
CONTINUOUS
 10
0.182994
 20
0.310920
  0
VERTEX
  8
EBENE_1
 62
    39
  6
CONTINUOUS
 10
0.169925
 20
0.318625
  0
VERTEX
  8
EBENE_1
 62
    39
  6
CONTINUOUS
 10
0.156869
 20
0.326992
  0
VERTEX
  8
EBENE_1
 62
    39
  6
CONTINUOUS
 10
0.143886
 20
0.336017
  0
VERTEX
  8
EBENE_1
 62
    39
  6
CONTINUOUS
 10
0.131036
 20
0.345696
  0
VERTEX
  8
EBENE_1
 62
    39
  6
CONTINUOUS
 10
0.118379
 20
0.356024
  0
VERTEX
  8
EBENE_1
 62
    39
  6
CONTINUOUS
 10
0.105976
 20
0.366998
  0
VERTEX
  8
EBENE_1
 62
    39
  6
CONTINUOUS
 10
0.093885
 20
0.378613
  0
VERTEX
  8
EBENE_1
 62
    39
  6
CONTINUOUS
 10
0.082167
 20
0.390867
  0
VERTEX
  8
EBENE_1
 62
    39
  6
CONTINUOUS
 10
0.070882
 20
0.403754
  0
VERTEX
  8
EBENE_1
 62
    39
  6
CONTINUOUS
 10
0.060090
 20
0.417270
  0
VERTEX
  8
EBENE_1
 62
    39
  6
CONTINUOUS
 10
0.049850
 20
0.431412
  0
VERTEX
  8
EBENE_1
 62
    39
  6
CONTINUOUS
 10
0.040222
 20
0.446175
  0
VERTEX
  8
EBENE_1
 62
    39
  6
CONTINUOUS
 10
0.031267
 20
0.461556
  0
VERTEX
  8
EBENE_1
 62
    39
  6
CONTINUOUS
 10
0.023044
 20
0.477550
  0
VERTEX
  8
EBENE_1
 62
    39
  6
CONTINUOUS
 10
0.015614
 20
0.494153
  0
VERTEX
  8
EBENE_1
 62
    39
  6
CONTINUOUS
 10
0.009035
 20
0.511362
  0
VERTEX
  8
EBENE_1
 62
    39
  6
CONTINUOUS
 10
0.009035
 20
0.511362
  0
VERTEX
  8
EBENE_1
 62
    39
  6
CONTINUOUS
 10
0.006381
 20
0.532286
  0
VERTEX
  8
EBENE_1
 62
    39
  6
CONTINUOUS
 10
0.006806
 20
0.551545
  0
VERTEX
  8
EBENE_1
 62
    39
  6
CONTINUOUS
 10
0.010043
 20
0.568946
  0
VERTEX
  8
EBENE_1
 62
    39
  6
CONTINUOUS
 10
0.015824
 20
0.584297
  0
VERTEX
  8
EBENE_1
 62
    39
  6
CONTINUOUS
 10
0.023881
 20
0.597405
  0
VERTEX
  8
EBENE_1
 62
    39
  6
CONTINUOUS
 10
0.033946
 20
0.608077
  0
VERTEX
  8
EBENE_1
 62
    39
  6
CONTINUOUS
 10
0.045752
 20
0.616122
  0
VERTEX
  8
EBENE_1
 62
    39
  6
CONTINUOUS
 10
0.059031
 20
0.621346
  0
VERTEX
  8
EBENE_1
 62
    39
  6
CONTINUOUS
 10
0.264717
 20
0.677051
  0
VERTEX
  8
EBENE_1
 62
    39
  6
CONTINUOUS
 10
0.285329
 20
0.679631
  0
VERTEX
  8
EBENE_1
 62
    39
  6
CONTINUOUS
 10
0.299395
 20
0.675783
  0
VERTEX
  8
EBENE_1
 62
    39
  6
CONTINUOUS
 10
0.309175
 20
0.667412
  0
VERTEX
  8
EBENE_1
 62
    39
  6
CONTINUOUS
 10
0.316932
 20
0.656421
  0
VERTEX
  8
EBENE_1
 62
    39
  6
CONTINUOUS
 10
0.324927
 20
0.644716
  0
SEQEND
  8
0
  0
POLYLINE
  8
EBENE_1
 62
    39
  6
CONTINUOUS
 66
     1
 40
0.003000
 41
0.003000
 70
     1
  0
VERTEX
  8
EBENE_1
 62
    39
  6
CONTINUOUS
 10
0.335421
 20
0.632772
  0
VERTEX
  8
EBENE_1
 62
    39
  6
CONTINUOUS
 10
0.521110
 20
0.328528
  0
VERTEX
  8
EBENE_1
 62
    39
  6
CONTINUOUS
 10
0.326850
 20
0.277823
  0
VERTEX
  8
EBENE_1
 62
    39
  6
CONTINUOUS
 10
0.319212
 20
0.276548
  0
VERTEX
  8
EBENE_1
 62
    39
  6
CONTINUOUS
 10
0.310819
 20
0.275973
  0
VERTEX
  8
EBENE_1
 62
    39
  6
CONTINUOUS
 10
0.301728
 20
0.276094
  0
VERTEX
  8
EBENE_1
 62
    39
  6
CONTINUOUS
 10
0.291999
 20
0.276907
  0
VERTEX
  8
EBENE_1
 62
    39
  6
CONTINUOUS
 10
0.281692
 20
0.278408
  0
VERTEX
  8
EBENE_1
 62
    39
  6
CONTINUOUS
 10
0.270866
 20
0.280594
  0
VERTEX
  8
EBENE_1
 62
    39
  6
CONTINUOUS
 10
0.259580
 20
0.283461
  0
VERTEX
  8
EBENE_1
 62
    39
  6
CONTINUOUS
 10
0.247894
 20
0.287005
  0
VERTEX
  8
EBENE_1
 62
    39
  6
CONTINUOUS
 10
0.235865
 20
0.291223
  0
VERTEX
  8
EBENE_1
 62
    39
  6
CONTINUOUS
 10
0.223554
 20
0.296111
  0
VERTEX
  8
EBENE_1
 62
    39
  6
CONTINUOUS
 10
0.211021
 20
0.301665
  0
VERTEX
  8
EBENE_1
 62
    39
  6
CONTINUOUS
 10
0.198323
 20
0.307882
  0
VERTEX
  8
EBENE_1
 62
    39
  6
CONTINUOUS
 10
0.185520
 20
0.314758
  0
VERTEX
  8
EBENE_1
 62
    39
  6
CONTINUOUS
 10
0.172672
 20
0.322288
  0
VERTEX
  8
EBENE_1
 62
    39
  6
CONTINUOUS
 10
0.159838
 20
0.330471
  0
VERTEX
  8
EBENE_1
 62
    39
  6
CONTINUOUS
 10
0.147076
 20
0.339301
  0
VERTEX
  8
EBENE_1
 62
    39
  6
CONTINUOUS
 10
0.134447
 20
0.348775
  0
VERTEX
  8
EBENE_1
 62
    39
  6
CONTINUOUS
 10
0.122009
 20
0.358889
  0
VERTEX
  8
EBENE_1
 62
    39
  6
CONTINUOUS
 10
0.109821
 20
0.369641
  0
VERTEX
  8
EBENE_1
 62
    39
  6
CONTINUOUS
 10
0.097944
 20
0.381025
  0
VERTEX
  8
EBENE_1
 62
    39
  6
CONTINUOUS
 10
0.086435
 20
0.393039
  0
VERTEX
  8
EBENE_1
 62
    39
  6
CONTINUOUS
 10
0.075354
 20
0.405678
  0
VERTEX
  8
EBENE_1
 62
    39
  6
CONTINUOUS
 10
0.064761
 20
0.418939
  0
VERTEX
  8
EBENE_1
 62
    39
  6
CONTINUOUS
 10
0.054714
 20
0.432819
  0
VERTEX
  8
EBENE_1
 62
    39
  6
CONTINUOUS
 10
0.045273
 20
0.447313
  0
VERTEX
  8
EBENE_1
 62
    39
  6
CONTINUOUS
 10
0.036497
 20
0.462418
  0
VERTEX
  8
EBENE_1
 62
    39
  6
CONTINUOUS
 10
0.028446
 20
0.478131
  0
VERTEX
  8
EBENE_1
 62
    39
  6
CONTINUOUS
 10
0.021178
 20
0.494447
  0
VERTEX
  8
EBENE_1
 62
    39
  6
CONTINUOUS
 10
0.014752
 20
0.511362
  0
VERTEX
  8
EBENE_1
 62
    39
  6
CONTINUOUS
 10
0.014752
 20
0.511362
  0
VERTEX
  8
EBENE_1
 62
    39
  6
CONTINUOUS
 10
0.012063
 20
0.532256
  0
VERTEX
  8
EBENE_1
 62
    39
  6
CONTINUOUS
 10
0.012397
 20
0.551434
  0
VERTEX
  8
EBENE_1
 62
    39
  6
CONTINUOUS
 10
0.015492
 20
0.568720
  0
VERTEX
  8
EBENE_1
 62
    39
  6
CONTINUOUS
 10
0.021090
 20
0.583940
  0
VERTEX
  8
EBENE_1
 62
    39
  6
CONTINUOUS
 10
0.028930
 20
0.596917
  0
VERTEX
  8
EBENE_1
 62
    39
  6
CONTINUOUS
 10
0.038755
 20
0.607474
  0
VERTEX
  8
EBENE_1
 62
    39
  6
CONTINUOUS
 10
0.050303
 20
0.615437
  0
VERTEX
  8
EBENE_1
 62
    39
  6
CONTINUOUS
 10
0.063315
 20
0.620630
  0
VERTEX
  8
EBENE_1
 62
    39
  6
CONTINUOUS
 10
0.265433
 20
0.674909
  0
VERTEX
  8
EBENE_1
 62
    39
  6
CONTINUOUS
 10
0.285793
 20
0.677491
  0
VERTEX
  8
EBENE_1
 62
    39
  6
CONTINUOUS
 10
0.299765
 20
0.673666
  0
VERTEX
  8
EBENE_1
 62
    39
  6
CONTINUOUS
 10
0.309532
 20
0.665356
  0
VERTEX
  8
EBENE_1
 62
    39
  6
CONTINUOUS
 10
0.317275
 20
0.654488
  0
VERTEX
  8
EBENE_1
 62
    39
  6
CONTINUOUS
 10
0.325178
 20
0.642985
  0
SEQEND
  8
0
  0
POLYLINE
  8
EBENE_1
 62
    39
  6
CONTINUOUS
 66
     1
 40
0.003000
 41
0.003000
 70
     1
  0
VERTEX
  8
EBENE_1
 62
    39
  6
CONTINUOUS
 10
0.170445
 20
0.618488
  0
VERTEX
  8
EBENE_1
 62
    39
  6
CONTINUOUS
 10
0.173698
 20
0.619546
  0
VERTEX
  8
EBENE_1
 62
    39
  6
CONTINUOUS
 10
0.175998
 20
0.622191
  0
VERTEX
  8
EBENE_1
 62
    39
  6
CONTINUOUS
 10
0.176870
 20
0.625630
  0
VERTEX
  8
EBENE_1
 62
    39
  6
CONTINUOUS
 10
0.175998
 20
0.629069
  0
VERTEX
  8
EBENE_1
 62
    39
  6
CONTINUOUS
 10
0.173698
 20
0.631714
  0
VERTEX
  8
EBENE_1
 62
    39
  6
CONTINUOUS
 10
0.170445
 20
0.632772
  0
VERTEX
  8
EBENE_1
 62
    39
  6
CONTINUOUS
 10
0.166688
 20
0.631714
  0
VERTEX
  8
EBENE_1
 62
    39
  6
CONTINUOUS
 10
0.164202
 20
0.629069
  0
VERTEX
  8
EBENE_1
 62
    39
  6
CONTINUOUS
 10
0.163303
 20
0.625630
  0
VERTEX
  8
EBENE_1
 62
    39
  6
CONTINUOUS
 10
0.164202
 20
0.622191
  0
VERTEX
  8
EBENE_1
 62
    39
  6
CONTINUOUS
 10
0.166688
 20
0.619546
  0
SEQEND
  8
0
  0
POLYLINE
  8
EBENE_1
 62
    39
  6
CONTINUOUS
 66
     1
 40
0.003000
 41
0.003000
 70
     1
  0
VERTEX
  8
EBENE_1
 62
    39
  6
CONTINUOUS
 10
0.242579
 20
0.634201
  0
VERTEX
  8
EBENE_1
 62
    39
  6
CONTINUOUS
 10
0.246017
 20
0.635259
  0
VERTEX
  8
EBENE_1
 62
    39
  6
CONTINUOUS
 10
0.248662
 20
0.637904
  0
VERTEX
  8
EBENE_1
 62
    39
  6
CONTINUOUS
 10
0.249720
 20
0.641343
  0
VERTEX
  8
EBENE_1
 62
    39
  6
CONTINUOUS
 10
0.248662
 20
0.644596
  0
VERTEX
  8
EBENE_1
 62
    39
  6
CONTINUOUS
 10
0.246017
 20
0.646898
  0
VERTEX
  8
EBENE_1
 62
    39
  6
CONTINUOUS
 10
0.242579
 20
0.647772
  0
VERTEX
  8
EBENE_1
 62
    39
  6
CONTINUOUS
 10
0.239140
 20
0.646898
  0
VERTEX
  8
EBENE_1
 62
    39
  6
CONTINUOUS
 10
0.236495
 20
0.644596
  0
VERTEX
  8
EBENE_1
 62
    39
  6
CONTINUOUS
 10
0.235437
 20
0.641343
  0
VERTEX
  8
EBENE_1
 62
    39
  6
CONTINUOUS
 10
0.236495
 20
0.637904
  0
VERTEX
  8
EBENE_1
 62
    39
  6
CONTINUOUS
 10
0.239140
 20
0.635259
  0
SEQEND
  8
0
  0
POLYLINE
  8
EBENE_1
 62
    39
  6
CONTINUOUS
 66
     1
 40
0.003000
 41
0.003000
 70
     1
  0
VERTEX
  8
EBENE_1
 62
    39
  6
CONTINUOUS
 10
0.313280
 20
0.607063
  0
VERTEX
  8
EBENE_1
 62
    39
  6
CONTINUOUS
 10
0.316718
 20
0.607962
  0
VERTEX
  8
EBENE_1
 62
    39
  6
CONTINUOUS
 10
0.319363
 20
0.610448
  0
VERTEX
  8
EBENE_1
 62
    39
  6
CONTINUOUS
 10
0.320421
 20
0.614205
  0
VERTEX
  8
EBENE_1
 62
    39
  6
CONTINUOUS
 10
0.319363
 20
0.617458
  0
VERTEX
  8
EBENE_1
 62
    39
  6
CONTINUOUS
 10
0.316718
 20
0.619758
  0
VERTEX
  8
EBENE_1
 62
    39
  6
CONTINUOUS
 10
0.313280
 20
0.620630
  0
VERTEX
  8
EBENE_1
 62
    39
  6
CONTINUOUS
 10
0.310027
 20
0.619758
  0
VERTEX
  8
EBENE_1
 62
    39
  6
CONTINUOUS
 10
0.307727
 20
0.617458
  0
VERTEX
  8
EBENE_1
 62
    39
  6
CONTINUOUS
 10
0.306854
 20
0.614205
  0
VERTEX
  8
EBENE_1
 62
    39
  6
CONTINUOUS
 10
0.307727
 20
0.610448
  0
VERTEX
  8
EBENE_1
 62
    39
  6
CONTINUOUS
 10
0.310027
 20
0.607962
  0
SEQEND
  8
0
  0
POLYLINE
  8
EBENE_1
 62
    39
  6
CONTINUOUS
 66
     1
 40
0.003000
 41
0.003000
 70
     1
  0
VERTEX
  8
EBENE_1
 62
    39
  6
CONTINUOUS
 10
0.538965
 20
0.683480
  0
VERTEX
  8
EBENE_1
 62
    39
  6
CONTINUOUS
 10
0.728224
 20
0.373524
  0
VERTEX
  8
EBENE_1
 62
    39
  6
CONTINUOUS
 10
0.530394
 20
0.322102
  0
VERTEX
  8
EBENE_1
 62
    39
  6
CONTINUOUS
 10
0.522672
 20
0.320833
  0
VERTEX
  8
EBENE_1
 62
    39
  6
CONTINUOUS
 10
0.514175
 20
0.320273
  0
VERTEX
  8
EBENE_1
 62
    39
  6
CONTINUOUS
 10
0.504963
 20
0.320419
  0
VERTEX
  8
EBENE_1
 62
    39
  6
CONTINUOUS
 10
0.495098
 20
0.321268
  0
VERTEX
  8
EBENE_1
 62
    39
  6
CONTINUOUS
 10
0.484640
 20
0.322815
  0
VERTEX
  8
EBENE_1
 62
    39
  6
CONTINUOUS
 10
0.473649
 20
0.325057
  0
VERTEX
  8
EBENE_1
 62
    39
  6
CONTINUOUS
 10
0.462186
 20
0.327990
  0
VERTEX
  8
EBENE_1
 62
    39
  6
CONTINUOUS
 10
0.450312
 20
0.331610
  0
VERTEX
  8
EBENE_1
 62
    39
  6
CONTINUOUS
 10
0.438087
 20
0.335915
  0
VERTEX
  8
EBENE_1
 62
    39
  6
CONTINUOUS
 10
0.425573
 20
0.340899
  0
VERTEX
  8
EBENE_1
 62
    39
  6
CONTINUOUS
 10
0.412828
 20
0.346560
  0
VERTEX
  8
EBENE_1
 62
    39
  6
CONTINUOUS
 10
0.399915
 20
0.352894
  0
VERTEX
  8
EBENE_1
 62
    39
  6
CONTINUOUS
 10
0.386894
 20
0.359897
  0
VERTEX
  8
EBENE_1
 62
    39
  6
CONTINUOUS
 10
0.373825
 20
0.367565
  0
VERTEX
  8
EBENE_1
 62
    39
  6
CONTINUOUS
 10
0.360769
 20
0.375895
  0
VERTEX
  8
EBENE_1
 62
    39
  6
CONTINUOUS
 10
0.347786
 20
0.384883
  0
VERTEX
  8
EBENE_1
 62
    39
  6
CONTINUOUS
 10
0.334938
 20
0.394525
  0
VERTEX
  8
EBENE_1
 62
    39
  6
CONTINUOUS
 10
0.322285
 20
0.404818
  0
VERTEX
  8
EBENE_1
 62
    39
  6
CONTINUOUS
 10
0.309887
 20
0.415758
  0
VERTEX
  8
EBENE_1
 62
    39
  6
CONTINUOUS
 10
0.297805
 20
0.427341
  0
VERTEX
  8
EBENE_1
 62
    39
  6
CONTINUOUS
 10
0.286100
 20
0.439563
  0
VERTEX
  8
EBENE_1
 62
    39
  6
CONTINUOUS
 10
0.274833
 20
0.452422
  0
VERTEX
  8
EBENE_1
 62
    39
  6
CONTINUOUS
 10
0.264063
 20
0.465912
  0
VERTEX
  8
EBENE_1
 62
    39
  6
CONTINUOUS
 10
0.253852
 20
0.480031
  0
VERTEX
  8
EBENE_1
 62
    39
  6
CONTINUOUS
 10
0.244260
 20
0.494775
  0
VERTEX
  8
EBENE_1
 62
    39
  6
CONTINUOUS
 10
0.235347
 20
0.510140
  0
VERTEX
  8
EBENE_1
 62
    39
  6
CONTINUOUS
 10
0.227175
 20
0.526123
  0
VERTEX
  8
EBENE_1
 62
    39
  6
CONTINUOUS
 10
0.219805
 20
0.542719
  0
VERTEX
  8
EBENE_1
 62
    39
  6
CONTINUOUS
 10
0.213295
 20
0.559925
  0
VERTEX
  8
EBENE_1
 62
    39
  6
CONTINUOUS
 10
0.213295
 20
0.559925
  0
VERTEX
  8
EBENE_1
 62
    39
  6
CONTINUOUS
 10
0.210404
 20
0.581086
  0
VERTEX
  8
EBENE_1
 62
    39
  6
CONTINUOUS
 10
0.210650
 20
0.600522
  0
VERTEX
  8
EBENE_1
 62
    39
  6
CONTINUOUS
 10
0.213760
 20
0.618051
  0
VERTEX
  8
EBENE_1
 62
    39
  6
CONTINUOUS
 10
0.219455
 20
0.633487
  0
VERTEX
  8
EBENE_1
 62
    39
  6
CONTINUOUS
 10
0.227461
 20
0.646646
  0
VERTEX
  8
EBENE_1
 62
    39
  6
CONTINUOUS
 10
0.237500
 20
0.657346
  0
VERTEX
  8
EBENE_1
 62
    39
  6
CONTINUOUS
 10
0.249297
 20
0.665400
  0
VERTEX
  8
EBENE_1
 62
    39
  6
CONTINUOUS
 10
0.262575
 20
0.670626
  0
VERTEX
  8
EBENE_1
 62
    39
  6
CONTINUOUS
 10
0.468260
 20
0.725618
  0
VERTEX
  8
EBENE_1
 62
    39
  6
CONTINUOUS
 10
0.488872
 20
0.728497
  0
VERTEX
  8
EBENE_1
 62
    39
  6
CONTINUOUS
 10
0.502938
 20
0.724849
  0
VERTEX
  8
EBENE_1
 62
    39
  6
CONTINUOUS
 10
0.512719
 20
0.716599
  0
VERTEX
  8
EBENE_1
 62
    39
  6
CONTINUOUS
 10
0.520475
 20
0.705672
  0
VERTEX
  8
EBENE_1
 62
    39
  6
CONTINUOUS
 10
0.528470
 20
0.693991
  0
SEQEND
  8
0
  0
POLYLINE
  8
EBENE_1
 62
    39
  6
CONTINUOUS
 66
     1
 40
0.003000
 41
0.003000
 70
     1
  0
VERTEX
  8
EBENE_1
 62
    39
  6
CONTINUOUS
 10
0.538965
 20
0.682051
  0
VERTEX
  8
EBENE_1
 62
    39
  6
CONTINUOUS
 10
0.724654
 20
0.377091
  0
VERTEX
  8
EBENE_1
 62
    39
  6
CONTINUOUS
 10
0.530394
 20
0.327098
  0
VERTEX
  8
EBENE_1
 62
    39
  6
CONTINUOUS
 10
0.522825
 20
0.325755
  0
VERTEX
  8
EBENE_1
 62
    39
  6
CONTINUOUS
 10
0.514490
 20
0.325121
  0
VERTEX
  8
EBENE_1
 62
    39
  6
CONTINUOUS
 10
0.505449
 20
0.325192
  0
VERTEX
  8
EBENE_1
 62
    39
  6
CONTINUOUS
 10
0.495762
 20
0.325963
  0
VERTEX
  8
EBENE_1
 62
    39
  6
CONTINUOUS
 10
0.485488
 20
0.327431
  0
VERTEX
  8
EBENE_1
 62
    39
  6
CONTINUOUS
 10
0.474688
 20
0.329592
  0
VERTEX
  8
EBENE_1
 62
    39
  6
CONTINUOUS
 10
0.463421
 20
0.332440
  0
VERTEX
  8
EBENE_1
 62
    39
  6
CONTINUOUS
 10
0.451746
 20
0.335972
  0
VERTEX
  8
EBENE_1
 62
    39
  6
CONTINUOUS
 10
0.439724
 20
0.340183
  0
VERTEX
  8
EBENE_1
 62
    39
  6
CONTINUOUS
 10
0.427414
 20
0.345070
  0
VERTEX
  8
EBENE_1
 62
    39
  6
CONTINUOUS
 10
0.414876
 20
0.350629
  0
VERTEX
  8
EBENE_1
 62
    39
  6
CONTINUOUS
 10
0.402170
 20
0.356854
  0
VERTEX
  8
EBENE_1
 62
    39
  6
CONTINUOUS
 10
0.389355
 20
0.363741
  0
VERTEX
  8
EBENE_1
 62
    39
  6
CONTINUOUS
 10
0.376492
 20
0.371288
  0
VERTEX
  8
EBENE_1
 62
    39
  6
CONTINUOUS
 10
0.363639
 20
0.379488
  0
VERTEX
  8
EBENE_1
 62
    39
  6
CONTINUOUS
 10
0.350857
 20
0.388339
  0
VERTEX
  8
EBENE_1
 62
    39
  6
CONTINUOUS
 10
0.338205
 20
0.397836
  0
VERTEX
  8
EBENE_1
 62
    39
  6
CONTINUOUS
 10
0.325743
 20
0.407974
  0
VERTEX
  8
EBENE_1
 62
    39
  6
CONTINUOUS
 10
0.313531
 20
0.418750
  0
VERTEX
  8
EBENE_1
 62
    39
  6
CONTINUOUS
 10
0.301629
 20
0.430159
  0
VERTEX
  8
EBENE_1
 62
    39
  6
CONTINUOUS
 10
0.290096
 20
0.442196
  0
VERTEX
  8
EBENE_1
 62
    39
  6
CONTINUOUS
 10
0.278992
 20
0.454859
  0
VERTEX
  8
EBENE_1
 62
    39
  6
CONTINUOUS
 10
0.268377
 20
0.468142
  0
VERTEX
  8
EBENE_1
 62
    39
  6
CONTINUOUS
 10
0.258310
 20
0.482042
  0
VERTEX
  8
EBENE_1
 62
    39
  6
CONTINUOUS
 10
0.248852
 20
0.496554
  0
VERTEX
  8
EBENE_1
 62
    39
  6
CONTINUOUS
 10
0.240061
 20
0.511673
  0
VERTEX
  8
EBENE_1
 62
    39
  6
CONTINUOUS
 10
0.231999
 20
0.527397
  0
VERTEX
  8
EBENE_1
 62
    39
  6
CONTINUOUS
 10
0.224723
 20
0.543720
  0
VERTEX
  8
EBENE_1
 62
    39
  6
CONTINUOUS
 10
0.218295
 20
0.560638
  0
VERTEX
  8
EBENE_1
 62
    39
  6
CONTINUOUS
 10
0.218295
 20
0.560638
  0
VERTEX
  8
EBENE_1
 62
    39
  6
CONTINUOUS
 10
0.215607
 20
0.581532
  0
VERTEX
  8
EBENE_1
 62
    39
  6
CONTINUOUS
 10
0.215940
 20
0.600711
  0
VERTEX
  8
EBENE_1
 62
    39
  6
CONTINUOUS
 10
0.219035
 20
0.617999
  0
VERTEX
  8
EBENE_1
 62
    39
  6
CONTINUOUS
 10
0.224633
 20
0.633219
  0
VERTEX
  8
EBENE_1
 62
    39
  6
CONTINUOUS
 10
0.232474
 20
0.646196
  0
VERTEX
  8
EBENE_1
 62
    39
  6
CONTINUOUS
 10
0.242298
 20
0.656754
  0
VERTEX
  8
EBENE_1
 62
    39
  6
CONTINUOUS
 10
0.253846
 20
0.664717
  0
VERTEX
  8
EBENE_1
 62
    39
  6
CONTINUOUS
 10
0.266858
 20
0.669909
  0
VERTEX
  8
EBENE_1
 62
    39
  6
CONTINUOUS
 10
0.469689
 20
0.724189
  0
VERTEX
  8
EBENE_1
 62
    39
  6
CONTINUOUS
 10
0.489749
 20
0.726771
  0
VERTEX
  8
EBENE_1
 62
    39
  6
CONTINUOUS
 10
0.503520
 20
0.722945
  0
VERTEX
  8
EBENE_1
 62
    39
  6
CONTINUOUS
 10
0.513164
 20
0.714636
  0
VERTEX
  8
EBENE_1
 62
    39
  6
CONTINUOUS
 10
0.520845
 20
0.703768
  0
VERTEX
  8
EBENE_1
 62
    39
  6
CONTINUOUS
 10
0.528724
 20
0.692265
  0
SEQEND
  8
0
  0
POLYLINE
  8
EBENE_1
 62
    39
  6
CONTINUOUS
 66
     1
 40
0.003000
 41
0.003000
 70
     1
  0
VERTEX
  8
EBENE_1
 62
    39
  6
CONTINUOUS
 10
0.373988
 20
0.667768
  0
VERTEX
  8
EBENE_1
 62
    39
  6
CONTINUOUS
 10
0.377241
 20
0.668826
  0
VERTEX
  8
EBENE_1
 62
    39
  6
CONTINUOUS
 10
0.379541
 20
0.671471
  0
VERTEX
  8
EBENE_1
 62
    39
  6
CONTINUOUS
 10
0.380413
 20
0.674909
  0
VERTEX
  8
EBENE_1
 62
    39
  6
CONTINUOUS
 10
0.379541
 20
0.678163
  0
VERTEX
  8
EBENE_1
 62
    39
  6
CONTINUOUS
 10
0.377241
 20
0.680465
  0
VERTEX
  8
EBENE_1
 62
    39
  6
CONTINUOUS
 10
0.373988
 20
0.681339
  0
VERTEX
  8
EBENE_1
 62
    39
  6
CONTINUOUS
 10
0.370550
 20
0.680465
  0
VERTEX
  8
EBENE_1
 62
    39
  6
CONTINUOUS
 10
0.367904
 20
0.678163
  0
VERTEX
  8
EBENE_1
 62
    39
  6
CONTINUOUS
 10
0.366846
 20
0.674909
  0
VERTEX
  8
EBENE_1
 62
    39
  6
CONTINUOUS
 10
0.367904
 20
0.671471
  0
VERTEX
  8
EBENE_1
 62
    39
  6
CONTINUOUS
 10
0.370550
 20
0.668826
  0
SEQEND
  8
0
  0
POLYLINE
  8
EBENE_1
 62
    39
  6
CONTINUOUS
 66
     1
 40
0.003000
 41
0.003000
 70
     1
  0
VERTEX
  8
EBENE_1
 62
    39
  6
CONTINUOUS
 10
0.446122
 20
0.683480
  0
VERTEX
  8
EBENE_1
 62
    39
  6
CONTINUOUS
 10
0.449561
 20
0.684380
  0
VERTEX
  8
EBENE_1
 62
    39
  6
CONTINUOUS
 10
0.452206
 20
0.686867
  0
VERTEX
  8
EBENE_1
 62
    39
  6
CONTINUOUS
 10
0.453264
 20
0.690622
  0
VERTEX
  8
EBENE_1
 62
    39
  6
CONTINUOUS
 10
0.452206
 20
0.693876
  0
VERTEX
  8
EBENE_1
 62
    39
  6
CONTINUOUS
 10
0.449561
 20
0.696178
  0
VERTEX
  8
EBENE_1
 62
    39
  6
CONTINUOUS
 10
0.446122
 20
0.697051
  0
VERTEX
  8
EBENE_1
 62
    39
  6
CONTINUOUS
 10
0.442868
 20
0.696178
  0
VERTEX
  8
EBENE_1
 62
    39
  6
CONTINUOUS
 10
0.440566
 20
0.693876
  0
VERTEX
  8
EBENE_1
 62
    39
  6
CONTINUOUS
 10
0.439693
 20
0.690622
  0
VERTEX
  8
EBENE_1
 62
    39
  6
CONTINUOUS
 10
0.440566
 20
0.686867
  0
VERTEX
  8
EBENE_1
 62
    39
  6
CONTINUOUS
 10
0.442868
 20
0.684380
  0
SEQEND
  8
0
  0
POLYLINE
  8
EBENE_1
 62
    39
  6
CONTINUOUS
 66
     1
 40
0.003000
 41
0.003000
 70
     1
  0
VERTEX
  8
EBENE_1
 62
    39
  6
CONTINUOUS
 10
0.516823
 20
0.656343
  0
VERTEX
  8
EBENE_1
 62
    39
  6
CONTINUOUS
 10
0.520581
 20
0.657241
  0
VERTEX
  8
EBENE_1
 62
    39
  6
CONTINUOUS
 10
0.523069
 20
0.659727
  0
VERTEX
  8
EBENE_1
 62
    39
  6
CONTINUOUS
 10
0.523969
 20
0.663484
  0
VERTEX
  8
EBENE_1
 62
    39
  6
CONTINUOUS
 10
0.523069
 20
0.666737
  0
VERTEX
  8
EBENE_1
 62
    39
  6
CONTINUOUS
 10
0.520581
 20
0.669037
  0
VERTEX
  8
EBENE_1
 62
    39
  6
CONTINUOUS
 10
0.516823
 20
0.669909
  0
VERTEX
  8
EBENE_1
 62
    39
  6
CONTINUOUS
 10
0.513570
 20
0.669037
  0
VERTEX
  8
EBENE_1
 62
    39
  6
CONTINUOUS
 10
0.511270
 20
0.666737
  0
VERTEX
  8
EBENE_1
 62
    39
  6
CONTINUOUS
 10
0.510398
 20
0.663484
  0
VERTEX
  8
EBENE_1
 62
    39
  6
CONTINUOUS
 10
0.511270
 20
0.659727
  0
VERTEX
  8
EBENE_1
 62
    39
  6
CONTINUOUS
 10
0.513570
 20
0.657241
  0
SEQEND
  8
0
  0
POLYLINE
  8
EBENE_1
 62
    39
  6
CONTINUOUS
 66
     1
 40
0.003000
 41
0.003000
 70
     1
  0
VERTEX
  8
EBENE_1
 62
    39
  6
CONTINUOUS
 10
0.743224
 20
0.732760
  0
VERTEX
  8
EBENE_1
 62
    39
  6
CONTINUOUS
 10
0.931768
 20
0.422799
  0
VERTEX
  8
EBENE_1
 62
    39
  6
CONTINUOUS
 10
0.733937
 20
0.371382
  0
VERTEX
  8
EBENE_1
 62
    39
  6
CONTINUOUS
 10
0.726215
 20
0.370043
  0
VERTEX
  8
EBENE_1
 62
    39
  6
CONTINUOUS
 10
0.717718
 20
0.369424
  0
VERTEX
  8
EBENE_1
 62
    39
  6
CONTINUOUS
 10
0.708507
 20
0.369520
  0
VERTEX
  8
EBENE_1
 62
    39
  6
CONTINUOUS
 10
0.698641
 20
0.370327
  0
VERTEX
  8
EBENE_1
 62
    39
  6
CONTINUOUS
 10
0.688183
 20
0.371841
  0
VERTEX
  8
EBENE_1
 62
    39
  6
CONTINUOUS
 10
0.677192
 20
0.374057
  0
VERTEX
  8
EBENE_1
 62
    39
  6
CONTINUOUS
 10
0.665730
 20
0.376971
  0
VERTEX
  8
EBENE_1
 62
    39
  6
CONTINUOUS
 10
0.653855
 20
0.380579
  0
VERTEX
  8
EBENE_1
 62
    39
  6
CONTINUOUS
 10
0.641631
 20
0.384877
  0
VERTEX
  8
EBENE_1
 62
    39
  6
CONTINUOUS
 10
0.629116
 20
0.389861
  0
VERTEX
  8
EBENE_1
 62
    39
  6
CONTINUOUS
 10
0.616372
 20
0.395526
  0
VERTEX
  8
EBENE_1
 62
    39
  6
CONTINUOUS
 10
0.603458
 20
0.401868
  0
VERTEX
  8
EBENE_1
 62
    39
  6
CONTINUOUS
 10
0.590437
 20
0.408883
  0
VERTEX
  8
EBENE_1
 62
    39
  6
CONTINUOUS
 10
0.577368
 20
0.416567
  0
VERTEX
  8
EBENE_1
 62
    39
  6
CONTINUOUS
 10
0.564312
 20
0.424915
  0
VERTEX
  8
EBENE_1
 62
    39
  6
CONTINUOUS
 10
0.551330
 20
0.433924
  0
VERTEX
  8
EBENE_1
 62
    39
  6
CONTINUOUS
 10
0.538482
 20
0.443589
  0
VERTEX
  8
EBENE_1
 62
    39
  6
CONTINUOUS
 10
0.525828
 20
0.453905
  0
VERTEX
  8
EBENE_1
 62
    39
  6
CONTINUOUS
 10
0.513430
 20
0.464870
  0
VERTEX
  8
EBENE_1
 62
    39
  6
CONTINUOUS
 10
0.501349
 20
0.476477
  0
VERTEX
  8
EBENE_1
 62
    39
  6
CONTINUOUS
 10
0.489644
 20
0.488724
  0
VERTEX
  8
EBENE_1
 62
    39
  6
CONTINUOUS
 10
0.478376
 20
0.501606
  0
VERTEX
  8
EBENE_1
 62
    39
  6
CONTINUOUS
 10
0.467606
 20
0.515119
  0
VERTEX
  8
EBENE_1
 62
    39
  6
CONTINUOUS
 10
0.457395
 20
0.529258
  0
VERTEX
  8
EBENE_1
 62
    39
  6
CONTINUOUS
 10
0.447803
 20
0.544020
  0
VERTEX
  8
EBENE_1
 62
    39
  6
CONTINUOUS
 10
0.438891
 20
0.559399
  0
VERTEX
  8
EBENE_1
 62
    39
  6
CONTINUOUS
 10
0.430719
 20
0.575393
  0
VERTEX
  8
EBENE_1
 62
    39
  6
CONTINUOUS
 10
0.423348
 20
0.591996
  0
VERTEX
  8
EBENE_1
 62
    39
  6
CONTINUOUS
 10
0.416839
 20
0.609205
  0
VERTEX
  8
EBENE_1
 62
    39
  6
CONTINUOUS
 10
0.416839
 20
0.609205
  0
VERTEX
  8
EBENE_1
 62
    39
  6
CONTINUOUS
 10
0.413947
 20
0.630365
  0
VERTEX
  8
EBENE_1
 62
    39
  6
CONTINUOUS
 10
0.414194
 20
0.649802
  0
VERTEX
  8
EBENE_1
 62
    39
  6
CONTINUOUS
 10
0.417303
 20
0.667330
  0
VERTEX
  8
EBENE_1
 62
    39
  6
CONTINUOUS
 10
0.422999
 20
0.682766
  0
VERTEX
  8
EBENE_1
 62
    39
  6
CONTINUOUS
 10
0.431004
 20
0.695926
  0
VERTEX
  8
EBENE_1
 62
    39
  6
CONTINUOUS
 10
0.441043
 20
0.706625
  0
VERTEX
  8
EBENE_1
 62
    39
  6
CONTINUOUS
 10
0.452840
 20
0.714680
  0
VERTEX
  8
EBENE_1
 62
    39
  6
CONTINUOUS
 10
0.466118
 20
0.719906
  0
VERTEX
  8
EBENE_1
 62
    39
  6
CONTINUOUS
 10
0.671803
 20
0.774894
  0
VERTEX
  8
EBENE_1
 62
    39
  6
CONTINUOUS
 10
0.692468
 20
0.777725
  0
VERTEX
  8
EBENE_1
 62
    39
  6
CONTINUOUS
 10
0.706666
 20
0.773969
  0
VERTEX
  8
EBENE_1
 62
    39
  6
CONTINUOUS
 10
0.716619
 20
0.765611
  0
VERTEX
  8
EBENE_1
 62
    39
  6
CONTINUOUS
 10
0.724548
 20
0.754634
  0
VERTEX
  8
EBENE_1
 62
    39
  6
CONTINUOUS
 10
0.732676
 20
0.743023
  0
SEQEND
  8
0
  0
POLYLINE
  8
EBENE_1
 62
    39
  6
CONTINUOUS
 66
     1
 40
0.003000
 41
0.003000
 70
     1
  0
VERTEX
  8
EBENE_1
 62
    39
  6
CONTINUOUS
 10
0.743224
 20
0.731331
  0
VERTEX
  8
EBENE_1
 62
    39
  6
CONTINUOUS
 10
0.928909
 20
0.426370
  0
VERTEX
  8
EBENE_1
 62
    39
  6
CONTINUOUS
 10
0.733937
 20
0.375665
  0
VERTEX
  8
EBENE_1
 62
    39
  6
CONTINUOUS
 10
0.726086
 20
0.374361
  0
VERTEX
  8
EBENE_1
 62
    39
  6
CONTINUOUS
 10
0.717420
 20
0.373812
  0
VERTEX
  8
EBENE_1
 62
    39
  6
CONTINUOUS
 10
0.708006
 20
0.374013
  0
VERTEX
  8
EBENE_1
 62
    39
  6
CONTINUOUS
 10
0.697909
 20
0.374961
  0
VERTEX
  8
EBENE_1
 62
    39
  6
CONTINUOUS
 10
0.687196
 20
0.376651
  0
VERTEX
  8
EBENE_1
 62
    39
  6
CONTINUOUS
 10
0.675931
 20
0.379078
  0
VERTEX
  8
EBENE_1
 62
    39
  6
CONTINUOUS
 10
0.664181
 20
0.382238
  0
VERTEX
  8
EBENE_1
 62
    39
  6
CONTINUOUS
 10
0.652012
 20
0.386126
  0
VERTEX
  8
EBENE_1
 62
    39
  6
CONTINUOUS
 10
0.639489
 20
0.390738
  0
VERTEX
  8
EBENE_1
 62
    39
  6
CONTINUOUS
 10
0.626678
 20
0.396069
  0
VERTEX
  8
EBENE_1
 62
    39
  6
CONTINUOUS
 10
0.613645
 20
0.402115
  0
VERTEX
  8
EBENE_1
 62
    39
  6
CONTINUOUS
 10
0.600455
 20
0.408871
  0
VERTEX
  8
EBENE_1
 62
    39
  6
CONTINUOUS
 10
0.587175
 20
0.416333
  0
VERTEX
  8
EBENE_1
 62
    39
  6
CONTINUOUS
 10
0.573871
 20
0.424497
  0
VERTEX
  8
EBENE_1
 62
    39
  6
CONTINUOUS
 10
0.560607
 20
0.433358
  0
VERTEX
  8
EBENE_1
 62
    39
  6
CONTINUOUS
 10
0.547450
 20
0.442910
  0
VERTEX
  8
EBENE_1
 62
    39
  6
CONTINUOUS
 10
0.534465
 20
0.453151
  0
VERTEX
  8
EBENE_1
 62
    39
  6
CONTINUOUS
 10
0.521719
 20
0.464075
  0
VERTEX
  8
EBENE_1
 62
    39
  6
CONTINUOUS
 10
0.509277
 20
0.475679
  0
VERTEX
  8
EBENE_1
 62
    39
  6
CONTINUOUS
 10
0.497205
 20
0.487956
  0
VERTEX
  8
EBENE_1
 62
    39
  6
CONTINUOUS
 10
0.485568
 20
0.500904
  0
VERTEX
  8
EBENE_1
 62
    39
  6
CONTINUOUS
 10
0.474433
 20
0.514516
  0
VERTEX
  8
EBENE_1
 62
    39
  6
CONTINUOUS
 10
0.463866
 20
0.528790
  0
VERTEX
  8
EBENE_1
 62
    39
  6
CONTINUOUS
 10
0.453931
 20
0.543721
  0
VERTEX
  8
EBENE_1
 62
    39
  6
CONTINUOUS
 10
0.444695
 20
0.559303
  0
VERTEX
  8
EBENE_1
 62
    39
  6
CONTINUOUS
 10
0.436224
 20
0.575533
  0
VERTEX
  8
EBENE_1
 62
    39
  6
CONTINUOUS
 10
0.428583
 20
0.592406
  0
VERTEX
  8
EBENE_1
 62
    39
  6
CONTINUOUS
 10
0.421839
 20
0.609917
  0
VERTEX
  8
EBENE_1
 62
    39
  6
CONTINUOUS
 10
0.419150
 20
0.630811
  0
VERTEX
  8
EBENE_1
 62
    39
  6
CONTINUOUS
 10
0.419483
 20
0.649980
  0
VERTEX
  8
EBENE_1
 62
    39
  6
CONTINUOUS
 10
0.422578
 20
0.667241
  0
VERTEX
  8
EBENE_1
 62
    39
  6
CONTINUOUS
 10
0.428176
 20
0.682409
  0
VERTEX
  8
EBENE_1
 62
    39
  6
CONTINUOUS
 10
0.436017
 20
0.695301
  0
VERTEX
  8
EBENE_1
 62
    39
  6
CONTINUOUS
 10
0.445841
 20
0.705733
  0
VERTEX
  8
EBENE_1
 62
    39
  6
CONTINUOUS
 10
0.457389
 20
0.713519
  0
VERTEX
  8
EBENE_1
 62
    39
  6
CONTINUOUS
 10
0.470402
 20
0.718476
  0
VERTEX
  8
EBENE_1
 62
    39
  6
CONTINUOUS
 10
0.673232
 20
0.772752
  0
VERTEX
  8
EBENE_1
 62
    39
  6
CONTINUOUS
 10
0.693543
 20
0.775636
  0
VERTEX
  8
EBENE_1
 62
    39
  6
CONTINUOUS
 10
0.707406
 20
0.772012
  0
VERTEX
  8
EBENE_1
 62
    39
  6
CONTINUOUS
 10
0.717064
 20
0.763826
  0
VERTEX
  8
EBENE_1
 62
    39
  6
CONTINUOUS
 10
0.724759
 20
0.753021
  0
VERTEX
  8
EBENE_1
 62
    39
  6
CONTINUOUS
 10
0.732732
 20
0.741541
  0
SEQEND
  8
0
  0
POLYLINE
  8
EBENE_1
 62
    39
  6
CONTINUOUS
 66
     1
 40
0.003000
 41
0.003000
 70
     1
  0
VERTEX
  8
EBENE_1
 62
    39
  6
CONTINUOUS
 10
0.577531
 20
0.717047
  0
VERTEX
  8
EBENE_1
 62
    39
  6
CONTINUOUS
 10
0.580970
 20
0.717947
  0
VERTEX
  8
EBENE_1
 62
    39
  6
CONTINUOUS
 10
0.583615
 20
0.720434
  0
VERTEX
  8
EBENE_1
 62
    39
  6
CONTINUOUS
 10
0.584673
 20
0.724189
  0
VERTEX
  8
EBENE_1
 62
    39
  6
CONTINUOUS
 10
0.583615
 20
0.727442
  0
VERTEX
  8
EBENE_1
 62
    39
  6
CONTINUOUS
 10
0.580970
 20
0.729742
  0
VERTEX
  8
EBENE_1
 62
    39
  6
CONTINUOUS
 10
0.577531
 20
0.730614
  0
VERTEX
  8
EBENE_1
 62
    39
  6
CONTINUOUS
 10
0.574278
 20
0.729742
  0
VERTEX
  8
EBENE_1
 62
    39
  6
CONTINUOUS
 10
0.571976
 20
0.727442
  0
VERTEX
  8
EBENE_1
 62
    39
  6
CONTINUOUS
 10
0.571102
 20
0.724189
  0
VERTEX
  8
EBENE_1
 62
    39
  6
CONTINUOUS
 10
0.571976
 20
0.720434
  0
VERTEX
  8
EBENE_1
 62
    39
  6
CONTINUOUS
 10
0.574278
 20
0.717947
  0
SEQEND
  8
0
  0
POLYLINE
  8
EBENE_1
 62
    39
  6
CONTINUOUS
 66
     1
 40
0.003000
 41
0.003000
 70
     1
  0
VERTEX
  8
EBENE_1
 62
    39
  6
CONTINUOUS
 10
0.649661
 20
0.732760
  0
VERTEX
  8
EBENE_1
 62
    39
  6
CONTINUOUS
 10
0.653420
 20
0.733632
  0
VERTEX
  8
EBENE_1
 62
    39
  6
CONTINUOUS
 10
0.655907
 20
0.735932
  0
VERTEX
  8
EBENE_1
 62
    39
  6
CONTINUOUS
 10
0.656807
 20
0.739185
  0
VERTEX
  8
EBENE_1
 62
    39
  6
CONTINUOUS
 10
0.655907
 20
0.742942
  0
VERTEX
  8
EBENE_1
 62
    39
  6
CONTINUOUS
 10
0.653420
 20
0.745428
  0
VERTEX
  8
EBENE_1
 62
    39
  6
CONTINUOUS
 10
0.649661
 20
0.746327
  0
VERTEX
  8
EBENE_1
 62
    39
  6
CONTINUOUS
 10
0.646409
 20
0.745428
  0
VERTEX
  8
EBENE_1
 62
    39
  6
CONTINUOUS
 10
0.644108
 20
0.742942
  0
VERTEX
  8
EBENE_1
 62
    39
  6
CONTINUOUS
 10
0.643236
 20
0.739185
  0
VERTEX
  8
EBENE_1
 62
    39
  6
CONTINUOUS
 10
0.644108
 20
0.735932
  0
VERTEX
  8
EBENE_1
 62
    39
  6
CONTINUOUS
 10
0.646409
 20
0.733632
  0
SEQEND
  8
0
  0
POLYLINE
  8
EBENE_1
 62
    39
  6
CONTINUOUS
 66
     1
 40
0.003000
 41
0.003000
 70
     1
  0
VERTEX
  8
EBENE_1
 62
    39
  6
CONTINUOUS
 10
0.720370
 20
0.705618
  0
VERTEX
  8
EBENE_1
 62
    39
  6
CONTINUOUS
 10
0.724125
 20
0.706491
  0
VERTEX
  8
EBENE_1
 62
    39
  6
CONTINUOUS
 10
0.726612
 20
0.708793
  0
VERTEX
  8
EBENE_1
 62
    39
  6
CONTINUOUS
 10
0.727512
 20
0.712047
  0
VERTEX
  8
EBENE_1
 62
    39
  6
CONTINUOUS
 10
0.726612
 20
0.715804
  0
VERTEX
  8
EBENE_1
 62
    39
  6
CONTINUOUS
 10
0.724125
 20
0.718290
  0
VERTEX
  8
EBENE_1
 62
    39
  6
CONTINUOUS
 10
0.720370
 20
0.719189
  0
VERTEX
  8
EBENE_1
 62
    39
  6
CONTINUOUS
 10
0.717116
 20
0.718290
  0
VERTEX
  8
EBENE_1
 62
    39
  6
CONTINUOUS
 10
0.714814
 20
0.715804
  0
VERTEX
  8
EBENE_1
 62
    39
  6
CONTINUOUS
 10
0.713941
 20
0.712047
  0
VERTEX
  8
EBENE_1
 62
    39
  6
CONTINUOUS
 10
0.714814
 20
0.708793
  0
VERTEX
  8
EBENE_1
 62
    39
  6
CONTINUOUS
 10
0.717116
 20
0.706491
  0
SEQEND
  8
0
  0
POLYLINE
  8
EBENE_1
 62
    39
  6
CONTINUOUS
 66
     1
 40
0.003000
 41
0.003000
 70
     1
  0
VERTEX
  8
EBENE_1
 62
    39
  6
CONTINUOUS
 10
0.946768
 20
0.782039
  0
VERTEX
  8
EBENE_1
 62
    39
  6
CONTINUOUS
 10
1.135311
 20
0.472079
  0
VERTEX
  8
EBENE_1
 62
    39
  6
CONTINUOUS
 10
0.937480
 20
0.420657
  0
VERTEX
  8
EBENE_1
 62
    39
  6
CONTINUOUS
 10
0.929761
 20
0.419319
  0
VERTEX
  8
EBENE_1
 62
    39
  6
CONTINUOUS
 10
0.921271
 20
0.418701
  0
VERTEX
  8
EBENE_1
 62
    39
  6
CONTINUOUS
 10
0.912070
 20
0.418797
  0
VERTEX
  8
EBENE_1
 62
    39
  6
CONTINUOUS
 10
0.902220
 20
0.419604
  0
VERTEX
  8
EBENE_1
 62
    39
  6
CONTINUOUS
 10
0.891779
 20
0.421118
  0
VERTEX
  8
EBENE_1
 62
    39
  6
CONTINUOUS
 10
0.880808
 20
0.423334
  0
VERTEX
  8
EBENE_1
 62
    39
  6
CONTINUOUS
 10
0.869367
 20
0.426249
  0
VERTEX
  8
EBENE_1
 62
    39
  6
CONTINUOUS
 10
0.857517
 20
0.429857
  0
VERTEX
  8
EBENE_1
 62
    39
  6
CONTINUOUS
 10
0.845316
 20
0.434155
  0
VERTEX
  8
EBENE_1
 62
    39
  6
CONTINUOUS
 10
0.832826
 20
0.439139
  0
VERTEX
  8
EBENE_1
 62
    39
  6
CONTINUOUS
 10
0.820106
 20
0.444804
  0
VERTEX
  8
EBENE_1
 62
    39
  6
CONTINUOUS
 10
0.807216
 20
0.451147
  0
VERTEX
  8
EBENE_1
 62
    39
  6
CONTINUOUS
 10
0.794217
 20
0.458162
  0
VERTEX
  8
EBENE_1
 62
    39
  6
CONTINUOUS
 10
0.781169
 20
0.465846
  0
VERTEX
  8
EBENE_1
 62
    39
  6
CONTINUOUS
 10
0.768131
 20
0.474195
  0
VERTEX
  8
EBENE_1
 62
    39
  6
CONTINUOUS
 10
0.755165
 20
0.483203
  0
VERTEX
  8
EBENE_1
 62
    39
  6
CONTINUOUS
 10
0.742329
 20
0.492868
  0
VERTEX
  8
EBENE_1
 62
    39
  6
CONTINUOUS
 10
0.729684
 20
0.503185
  0
VERTEX
  8
EBENE_1
 62
    39
  6
CONTINUOUS
 10
0.717290
 20
0.514149
  0
VERTEX
  8
EBENE_1
 62
    39
  6
CONTINUOUS
 10
0.705208
 20
0.525757
  0
VERTEX
  8
EBENE_1
 62
    39
  6
CONTINUOUS
 10
0.693496
 20
0.538004
  0
VERTEX
  8
EBENE_1
 62
    39
  6
CONTINUOUS
 10
0.682216
 20
0.550886
  0
VERTEX
  8
EBENE_1
 62
    39
  6
CONTINUOUS
 10
0.671428
 20
0.564398
  0
VERTEX
  8
EBENE_1
 62
    39
  6
CONTINUOUS
 10
0.661191
 20
0.578538
  0
VERTEX
  8
EBENE_1
 62
    39
  6
CONTINUOUS
 10
0.651565
 20
0.593299
  0
VERTEX
  8
EBENE_1
 62
    39
  6
CONTINUOUS
 10
0.642612
 20
0.608679
  0
VERTEX
  8
EBENE_1
 62
    39
  6
CONTINUOUS
 10
0.634390
 20
0.624672
  0
VERTEX
  8
EBENE_1
 62
    39
  6
CONTINUOUS
 10
0.626960
 20
0.641276
  0
VERTEX
  8
EBENE_1
 62
    39
  6
CONTINUOUS
 10
0.620382
 20
0.658484
  0
VERTEX
  8
EBENE_1
 62
    39
  6
CONTINUOUS
 10
0.620382
 20
0.658484
  0
VERTEX
  8
EBENE_1
 62
    39
  6
CONTINUOUS
 10
0.617696
 20
0.679645
  0
VERTEX
  8
EBENE_1
 62
    39
  6
CONTINUOUS
 10
0.618039
 20
0.699081
  0
VERTEX
  8
EBENE_1
 62
    39
  6
CONTINUOUS
 10
0.621161
 20
0.716609
  0
VERTEX
  8
EBENE_1
 62
    39
  6
CONTINUOUS
 10
0.626811
 20
0.732045
  0
VERTEX
  8
EBENE_1
 62
    39
  6
CONTINUOUS
 10
0.634736
 20
0.745205
  0
VERTEX
  8
EBENE_1
 62
    39
  6
CONTINUOUS
 10
0.644687
 20
0.755903
  0
VERTEX
  8
EBENE_1
 62
    39
  6
CONTINUOUS
 10
0.656413
 20
0.763957
  0
VERTEX
  8
EBENE_1
 62
    39
  6
CONTINUOUS
 10
0.669661
 20
0.769181
  0
VERTEX
  8
EBENE_1
 62
    39
  6
CONTINUOUS
 10
0.875346
 20
0.824173
  0
VERTEX
  8
EBENE_1
 62
    39
  6
CONTINUOUS
 10
0.896012
 20
0.827004
  0
VERTEX
  8
EBENE_1
 62
    39
  6
CONTINUOUS
 10
0.910210
 20
0.823249
  0
VERTEX
  8
EBENE_1
 62
    39
  6
CONTINUOUS
 10
0.920162
 20
0.814891
  0
VERTEX
  8
EBENE_1
 62
    39
  6
CONTINUOUS
 10
0.928091
 20
0.803914
  0
VERTEX
  8
EBENE_1
 62
    39
  6
CONTINUOUS
 10
0.936219
 20
0.792302
  0
SEQEND
  8
0
  0
POLYLINE
  8
EBENE_1
 62
    39
  6
CONTINUOUS
 66
     1
 40
0.003000
 41
0.003000
 70
     1
  0
VERTEX
  8
EBENE_1
 62
    39
  6
CONTINUOUS
 10
0.946768
 20
0.780610
  0
VERTEX
  8
EBENE_1
 62
    39
  6
CONTINUOUS
 10
1.132457
 20
0.475650
  0
VERTEX
  8
EBENE_1
 62
    39
  6
CONTINUOUS
 10
0.937480
 20
0.424945
  0
VERTEX
  8
EBENE_1
 62
    39
  6
CONTINUOUS
 10
0.929629
 20
0.423641
  0
VERTEX
  8
EBENE_1
 62
    39
  6
CONTINUOUS
 10
0.920964
 20
0.423091
  0
VERTEX
  8
EBENE_1
 62
    39
  6
CONTINUOUS
 10
0.911550
 20
0.423293
  0
VERTEX
  8
EBENE_1
 62
    39
  6
CONTINUOUS
 10
0.901455
 20
0.424241
  0
VERTEX
  8
EBENE_1
 62
    39
  6
CONTINUOUS
 10
0.890743
 20
0.425931
  0
VERTEX
  8
EBENE_1
 62
    39
  6
CONTINUOUS
 10
0.879482
 20
0.428357
  0
VERTEX
  8
EBENE_1
 62
    39
  6
CONTINUOUS
 10
0.867736
 20
0.431517
  0
VERTEX
  8
EBENE_1
 62
    39
  6
CONTINUOUS
 10
0.855572
 20
0.435405
  0
VERTEX
  8
EBENE_1
 62
    39
  6
CONTINUOUS
 10
0.843056
 20
0.440017
  0
VERTEX
  8
EBENE_1
 62
    39
  6
CONTINUOUS
 10
0.830254
 20
0.445348
  0
VERTEX
  8
EBENE_1
 62
    39
  6
CONTINUOUS
 10
0.817231
 20
0.451394
  0
VERTEX
  8
EBENE_1
 62
    39
  6
CONTINUOUS
 10
0.804055
 20
0.458151
  0
VERTEX
  8
EBENE_1
 62
    39
  6
CONTINUOUS
 10
0.790790
 20
0.465613
  0
VERTEX
  8
EBENE_1
 62
    39
  6
CONTINUOUS
 10
0.777503
 20
0.473777
  0
VERTEX
  8
EBENE_1
 62
    39
  6
CONTINUOUS
 10
0.764260
 20
0.482637
  0
VERTEX
  8
EBENE_1
 62
    39
  6
CONTINUOUS
 10
0.751126
 20
0.492190
  0
VERTEX
  8
EBENE_1
 62
    39
  6
CONTINUOUS
 10
0.738168
 20
0.502431
  0
VERTEX
  8
EBENE_1
 62
    39
  6
CONTINUOUS
 10
0.725452
 20
0.513355
  0
VERTEX
  8
EBENE_1
 62
    39
  6
CONTINUOUS
 10
0.713043
 20
0.524958
  0
VERTEX
  8
EBENE_1
 62
    39
  6
CONTINUOUS
 10
0.701008
 20
0.537236
  0
VERTEX
  8
EBENE_1
 62
    39
  6
CONTINUOUS
 10
0.689412
 20
0.550183
  0
VERTEX
  8
EBENE_1
 62
    39
  6
CONTINUOUS
 10
0.678322
 20
0.563796
  0
VERTEX
  8
EBENE_1
 62
    39
  6
CONTINUOUS
 10
0.667804
 20
0.578070
  0
VERTEX
  8
EBENE_1
 62
    39
  6
CONTINUOUS
 10
0.657923
 20
0.593000
  0
VERTEX
  8
EBENE_1
 62
    39
  6
CONTINUOUS
 10
0.648746
 20
0.608583
  0
VERTEX
  8
EBENE_1
 62
    39
  6
CONTINUOUS
 10
0.640338
 20
0.624813
  0
VERTEX
  8
EBENE_1
 62
    39
  6
CONTINUOUS
 10
0.632765
 20
0.641685
  0
VERTEX
  8
EBENE_1
 62
    39
  6
CONTINUOUS
 10
0.626094
 20
0.659197
  0
VERTEX
  8
EBENE_1
 62
    39
  6
CONTINUOUS
 10
0.626094
 20
0.659197
  0
VERTEX
  8
EBENE_1
 62
    39
  6
CONTINUOUS
 10
0.623202
 20
0.679885
  0
VERTEX
  8
EBENE_1
 62
    39
  6
CONTINUOUS
 10
0.623440
 20
0.698958
  0
VERTEX
  8
EBENE_1
 62
    39
  6
CONTINUOUS
 10
0.626523
 20
0.716206
  0
VERTEX
  8
EBENE_1
 62
    39
  6
CONTINUOUS
 10
0.632167
 20
0.731420
  0
VERTEX
  8
EBENE_1
 62
    39
  6
CONTINUOUS
 10
0.640087
 20
0.744390
  0
VERTEX
  8
EBENE_1
 62
    39
  6
CONTINUOUS
 10
0.649999
 20
0.754909
  0
VERTEX
  8
EBENE_1
 62
    39
  6
CONTINUOUS
 10
0.661619
 20
0.762766
  0
VERTEX
  8
EBENE_1
 62
    39
  6
CONTINUOUS
 10
0.674661
 20
0.767752
  0
VERTEX
  8
EBENE_1
 62
    39
  6
CONTINUOUS
 10
0.876776
 20
0.822031
  0
VERTEX
  8
EBENE_1
 62
    39
  6
CONTINUOUS
 10
0.897086
 20
0.824666
  0
VERTEX
  8
EBENE_1
 62
    39
  6
CONTINUOUS
 10
0.910950
 20
0.820973
  0
VERTEX
  8
EBENE_1
 62
    39
  6
CONTINUOUS
 10
0.920608
 20
0.812837
  0
VERTEX
  8
EBENE_1
 62
    39
  6
CONTINUOUS
 10
0.928302
 20
0.802141
  0
VERTEX
  8
EBENE_1
 62
    39
  6
CONTINUOUS
 10
0.936275
 20
0.790771
  0
SEQEND
  8
0
  0
POLYLINE
  8
EBENE_1
 62
    39
  6
CONTINUOUS
 66
     1
 40
0.003000
 41
0.003000
 70
     1
  0
VERTEX
  8
EBENE_1
 62
    39
  6
CONTINUOUS
 10
0.781075
 20
0.766327
  0
VERTEX
  8
EBENE_1
 62
    39
  6
CONTINUOUS
 10
0.784830
 20
0.767226
  0
VERTEX
  8
EBENE_1
 62
    39
  6
CONTINUOUS
 10
0.787317
 20
0.769711
  0
VERTEX
  8
EBENE_1
 62
    39
  6
CONTINUOUS
 10
0.788217
 20
0.773469
  0
VERTEX
  8
EBENE_1
 62
    39
  6
CONTINUOUS
 10
0.787317
 20
0.776721
  0
VERTEX
  8
EBENE_1
 62
    39
  6
CONTINUOUS
 10
0.784830
 20
0.779021
  0
VERTEX
  8
EBENE_1
 62
    39
  6
CONTINUOUS
 10
0.781075
 20
0.779894
  0
VERTEX
  8
EBENE_1
 62
    39
  6
CONTINUOUS
 10
0.777821
 20
0.779021
  0
VERTEX
  8
EBENE_1
 62
    39
  6
CONTINUOUS
 10
0.775519
 20
0.776721
  0
VERTEX
  8
EBENE_1
 62
    39
  6
CONTINUOUS
 10
0.774646
 20
0.773469
  0
VERTEX
  8
EBENE_1
 62
    39
  6
CONTINUOUS
 10
0.775519
 20
0.769711
  0
VERTEX
  8
EBENE_1
 62
    39
  6
CONTINUOUS
 10
0.777821
 20
0.767226
  0
SEQEND
  8
0
  0
POLYLINE
  8
EBENE_1
 62
    39
  6
CONTINUOUS
 66
     1
 40
0.003000
 41
0.003000
 70
     1
  0
VERTEX
  8
EBENE_1
 62
    39
  6
CONTINUOUS
 10
0.853921
 20
0.782039
  0
VERTEX
  8
EBENE_1
 62
    39
  6
CONTINUOUS
 10
0.857175
 20
0.782912
  0
VERTEX
  8
EBENE_1
 62
    39
  6
CONTINUOUS
 10
0.859477
 20
0.785212
  0
VERTEX
  8
EBENE_1
 62
    39
  6
CONTINUOUS
 10
0.860350
 20
0.788465
  0
VERTEX
  8
EBENE_1
 62
    39
  6
CONTINUOUS
 10
0.859477
 20
0.792222
  0
VERTEX
  8
EBENE_1
 62
    39
  6
CONTINUOUS
 10
0.857175
 20
0.794707
  0
VERTEX
  8
EBENE_1
 62
    39
  6
CONTINUOUS
 10
0.853921
 20
0.795606
  0
VERTEX
  8
EBENE_1
 62
    39
  6
CONTINUOUS
 10
0.850166
 20
0.794707
  0
VERTEX
  8
EBENE_1
 62
    39
  6
CONTINUOUS
 10
0.847679
 20
0.792222
  0
VERTEX
  8
EBENE_1
 62
    39
  6
CONTINUOUS
 10
0.846780
 20
0.788465
  0
VERTEX
  8
EBENE_1
 62
    39
  6
CONTINUOUS
 10
0.847679
 20
0.785212
  0
VERTEX
  8
EBENE_1
 62
    39
  6
CONTINUOUS
 10
0.850166
 20
0.782912
  0
SEQEND
  8
0
  0
POLYLINE
  8
EBENE_1
 62
    39
  6
CONTINUOUS
 66
     1
 40
0.003000
 41
0.003000
 70
     1
  0
VERTEX
  8
EBENE_1
 62
    39
  6
CONTINUOUS
 10
0.924626
 20
0.754898
  0
VERTEX
  8
EBENE_1
 62
    39
  6
CONTINUOUS
 10
0.927880
 20
0.755771
  0
VERTEX
  8
EBENE_1
 62
    39
  6
CONTINUOUS
 10
0.930182
 20
0.758073
  0
VERTEX
  8
EBENE_1
 62
    39
  6
CONTINUOUS
 10
0.931055
 20
0.761327
  0
VERTEX
  8
EBENE_1
 62
    39
  6
CONTINUOUS
 10
0.930182
 20
0.764765
  0
VERTEX
  8
EBENE_1
 62
    39
  6
CONTINUOUS
 10
0.927880
 20
0.767410
  0
VERTEX
  8
EBENE_1
 62
    39
  6
CONTINUOUS
 10
0.924626
 20
0.768469
  0
VERTEX
  8
EBENE_1
 62
    39
  6
CONTINUOUS
 10
0.920871
 20
0.767410
  0
VERTEX
  8
EBENE_1
 62
    39
  6
CONTINUOUS
 10
0.918384
 20
0.764765
  0
VERTEX
  8
EBENE_1
 62
    39
  6
CONTINUOUS
 10
0.917484
 20
0.761327
  0
VERTEX
  8
EBENE_1
 62
    39
  6
CONTINUOUS
 10
0.918384
 20
0.758073
  0
VERTEX
  8
EBENE_1
 62
    39
  6
CONTINUOUS
 10
0.920871
 20
0.755771
  0
SEQEND
  8
0
  0
POLYLINE
  8
EBENE_1
 62
    39
  6
CONTINUOUS
 66
     1
 40
0.003000
 41
0.003000
  0
VERTEX
  8
EBENE_1
 62
    39
  6
CONTINUOUS
 10
0.434693
 20
0.000717
  0
VERTEX
  8
EBENE_1
 62
    39
  6
CONTINUOUS
 10
0.900343
 20
0.121413
  0
SEQEND
  8
0
  0
POLYLINE
  8
EBENE_1
 62
    39
  6
CONTINUOUS
 66
     1
 40
0.003000
 41
0.003000
 70
     1
  0
VERTEX
  8
EBENE_1
 62
    39
  6
CONTINUOUS
 10
0.104740
 20
0.613488
  0
VERTEX
  8
EBENE_1
 62
    39
  6
CONTINUOUS
 10
0.103867
 20
0.610050
  0
VERTEX
  8
EBENE_1
 62
    39
  6
CONTINUOUS
 10
0.101565
 20
0.607404
  0
VERTEX
  8
EBENE_1
 62
    39
  6
CONTINUOUS
 10
0.098311
 20
0.606346
  0
VERTEX
  8
EBENE_1
 62
    39
  6
CONTINUOUS
 10
0.094556
 20
0.607404
  0
VERTEX
  8
EBENE_1
 62
    39
  6
CONTINUOUS
 10
0.092069
 20
0.610050
  0
VERTEX
  8
EBENE_1
 62
    39
  6
CONTINUOUS
 10
0.091169
 20
0.613488
  0
VERTEX
  8
EBENE_1
 62
    39
  6
CONTINUOUS
 10
0.092069
 20
0.616742
  0
VERTEX
  8
EBENE_1
 62
    39
  6
CONTINUOUS
 10
0.094556
 20
0.619044
  0
VERTEX
  8
EBENE_1
 62
    39
  6
CONTINUOUS
 10
0.098311
 20
0.619917
  0
VERTEX
  8
EBENE_1
 62
    39
  6
CONTINUOUS
 10
0.101565
 20
0.619044
  0
VERTEX
  8
EBENE_1
 62
    39
  6
CONTINUOUS
 10
0.103867
 20
0.616742
  0
SEQEND
  8
0
  0
POLYLINE
  8
EBENE_1
 62
    39
  6
CONTINUOUS
 66
     1
 40
0.003000
 41
0.003000
 70
     1
  0
VERTEX
  8
EBENE_1
 62
    39
  6
CONTINUOUS
 10
0.795634
 20
-0.840189
  0
VERTEX
  8
EBENE_1
 62
    39
  6
CONTINUOUS
 10
0.795634
 20
-0.588240
  0
VERTEX
  8
EBENE_1
 62
    39
  6
CONTINUOUS
 10
-0.873992
 20
-0.588240
  0
VERTEX
  8
EBENE_1
 62
    39
  6
CONTINUOUS
 10
-0.873992
 20
-0.840189
  0
SEQEND
  8
0
  0
TEXT
  8
EBENE_1
 62
    39
 10
-0.873992
 20
-0.803807
 40
0.197551
  1
Grat Schuppen, 
 41
1.000000
  7
SN0
 71
     0
 72
     5
 11
0.859232
 21
-0.803807
  0
ENDSEC
  0
EOF
