  0
SECTION
  2
HEADER
  9
$ACADVER
  1
AC1006
  9
$EXTMIN
 10
-1.597890
 20
2.230854
  9
$EXTMAX
 10
1.371606
 20
4.775291
  9
$LTSCALE
 40
0.000394
  9
$PDMODE
 70
    35
  9
$PDSIZE
 40
0.000315
  0
ENDSEC
  0
SECTION
  2
TABLES
  0
TABLE
  2
LTYPE
 70
     9
  0
LTYPE
  2
CONTINUOUS
 70
    64
  3
Solid line
 72
    65
 73
     0
 40
0.000000
  0
LTYPE
  2
DASHED
 70
    64
  3
__ __ __ __ __ __ __ __ __ __ __ __ __ __ __
 72
    65
 73
     2
 40
0.000003
 49
0.000002
 49
-0.000001
  0
LTYPE
  2
HIDDEN
 70
    64
  3
 _ _ _ _ _ _ _ _ _ _ _ _ _ _ _ _ _ _ _ _ _ _
 72
    65
 73
     2
 40
0.000001
 49
0.000001
 49
-0.000000
  0
LTYPE
  2
CENTER
 70
    64
  3
____ _ ____ _ ____ _ ____ _ ____ _ ____ _ ____
 72
    65
 73
     4
 40
0.000008
 49
0.000005
 49
-0.000001
 49
0.000001
 49
-0.000001
  0
LTYPE
  2
PHANTOM
 70
    64
  3
_____ _ _ _____ _ _ _____ _ _ _____ _ _ ____
 72
    65
 73
     6
 40
0.000010
 49
0.000005
 49
-0.000001
 49
0.000001
 49
-0.000001
 49
0.000001
 49
-0.000001
  0
LTYPE
  2
DOT
 70
    64
  3
...............................................
 72
    65
 73
     2
 40
0.000001
 49
0.000000
 49
-0.000001
  0
LTYPE
  2
DASHDOT
 70
    64
  3
__ . __ . __ . __ . __ . __ . __ . __ . __ . __
 72
    65
 73
     4
 40
0.000004
 49
0.000002
 49
-0.000001
 49
0.000000
 49
-0.000001
  0
LTYPE
  2
BORDER
 70
    64
  3
__ __ . __ __ . __ __ . __ __ . __ __ . __ __
 72
    65
 73
     6
 40
0.000007
 49
0.000002
 49
-0.000001
 49
0.000002
 49
-0.000001
 49
0.000000
 49
-0.000001
  0
LTYPE
  2
DIVIDE
 70
    64
  3
__ . . __ . . __ . . __ . . __ . . __ . . __
 72
    65
 73
     6
 40
0.000005
 49
0.000002
 49
-0.000001
 49
0.000000
 49
-0.000001
 49
0.000000
 49
-0.000001
  0
LTYPE
  2
DOTDOT
 70
    64
  3
 . .  . .  . .  . .  . .  . . 
 72
    65
 73
     5
 40
0.000002
 49
-0.000001
 49
0.000000
 49
-0.000001
 49
0.000000
 49
-0.000001
  0
ENDTAB
  0
TABLE
  2
STYLE
 70
     2
  0
STYLE
 70
     0
  2
SN0
 40
0.000000
 41
0.000004
 50
0.000000
 71
     0
 42
0.000000
  3
SCRIPTS
  0
STYLE
 70
    68
  2
SV0
 40
0.000000
 41
0.000004
 50
0.000000
 71
     0
 42
0.000000
  3
SCRIPTS
  0
ENDTAB
  0
TABLE
  2
LAYER
 70
     3
  0
LAYER
  2
FOREGROUND
 70
    64
 62
     7
  6
CONTINUOUS
  0
LAYER
  2
BACKGROUND
 70
    65
 62
    -7
  6
CONTINUOUS
  0
LAYER
  2
EBENE_1
 70
    64
 62
     7
  6
CONTINUOUS
  0
ENDTAB
  0
ENDSEC
  0
SECTION
  2
ENTITIES
  0
POLYLINE
  8
EBENE_1
 62
    39
  6
CONTINUOUS
 66
     1
 40
0.003000
 41
0.003000
  0
VERTEX
  8
EBENE_1
 62
    39
  6
CONTINUOUS
 10
-0.320110
 20
3.209937
  0
VERTEX
  8
EBENE_1
 62
    39
  6
CONTINUOUS
 10
-0.003795
 20
2.690177
  0
VERTEX
  8
EBENE_1
 62
    39
  6
CONTINUOUS
 10
-0.335654
 20
2.603661
  0
SEQEND
  8
0
  0
POLYLINE
  8
EBENE_1
 62
    39
  6
CONTINUOUS
 66
     1
 40
0.003000
 41
0.003000
  0
VERTEX
  8
EBENE_1
 62
    39
  6
CONTINUOUS
 10
-0.335654
 20
2.603661
  0
VERTEX
  8
EBENE_1
 62
    39
  6
CONTINUOUS
 10
-0.345393
 20
2.601879
  0
VERTEX
  8
EBENE_1
 62
    39
  6
CONTINUOUS
 10
-0.355904
 20
2.600799
  0
VERTEX
  8
EBENE_1
 62
    39
  6
CONTINUOUS
 10
-0.367143
 20
2.600417
  0
VERTEX
  8
EBENE_1
 62
    39
  6
CONTINUOUS
 10
-0.379063
 20
2.600731
  0
VERTEX
  8
EBENE_1
 62
    39
  6
CONTINUOUS
 10
-0.391620
 20
2.601737
  0
VERTEX
  8
EBENE_1
 62
    39
  6
CONTINUOUS
 10
-0.404770
 20
2.603433
  0
VERTEX
  8
EBENE_1
 62
    39
  6
CONTINUOUS
 10
-0.418465
 20
2.605815
  0
VERTEX
  8
EBENE_1
 62
    39
  6
CONTINUOUS
 10
-0.432663
 20
2.608880
  0
VERTEX
  8
EBENE_1
 62
    39
  6
CONTINUOUS
 10
-0.447317
 20
2.612626
  0
VERTEX
  8
EBENE_1
 62
    39
  6
CONTINUOUS
 10
-0.462383
 20
2.617048
  0
VERTEX
  8
EBENE_1
 62
    39
  6
CONTINUOUS
 10
-0.477815
 20
2.622144
  0
VERTEX
  8
EBENE_1
 62
    39
  6
CONTINUOUS
 10
-0.493568
 20
2.627911
  0
VERTEX
  8
EBENE_1
 62
    39
  6
CONTINUOUS
 10
-0.509598
 20
2.634345
  0
VERTEX
  8
EBENE_1
 62
    39
  6
CONTINUOUS
 10
-0.525858
 20
2.641444
  0
VERTEX
  8
EBENE_1
 62
    39
  6
CONTINUOUS
 10
-0.542305
 20
2.649204
  0
VERTEX
  8
EBENE_1
 62
    39
  6
CONTINUOUS
 10
-0.558893
 20
2.657623
  0
VERTEX
  8
EBENE_1
 62
    39
  6
CONTINUOUS
 10
-0.575577
 20
2.666697
  0
VERTEX
  8
EBENE_1
 62
    39
  6
CONTINUOUS
 10
-0.592311
 20
2.676423
  0
VERTEX
  8
EBENE_1
 62
    39
  6
CONTINUOUS
 10
-0.609052
 20
2.686798
  0
VERTEX
  8
EBENE_1
 62
    39
  6
CONTINUOUS
 10
-0.625753
 20
2.697819
  0
VERTEX
  8
EBENE_1
 62
    39
  6
CONTINUOUS
 10
-0.642369
 20
2.709483
  0
VERTEX
  8
EBENE_1
 62
    39
  6
CONTINUOUS
 10
-0.658857
 20
2.721787
  0
VERTEX
  8
EBENE_1
 62
    39
  6
CONTINUOUS
 10
-0.675169
 20
2.734727
  0
VERTEX
  8
EBENE_1
 62
    39
  6
CONTINUOUS
 10
-0.691262
 20
2.748301
  0
VERTEX
  8
EBENE_1
 62
    39
  6
CONTINUOUS
 10
-0.707090
 20
2.762505
  0
VERTEX
  8
EBENE_1
 62
    39
  6
CONTINUOUS
 10
-0.722609
 20
2.777336
  0
VERTEX
  8
EBENE_1
 62
    39
  6
CONTINUOUS
 10
-0.737772
 20
2.792792
  0
VERTEX
  8
EBENE_1
 62
    39
  6
CONTINUOUS
 10
-0.752536
 20
2.808869
  0
VERTEX
  8
EBENE_1
 62
    39
  6
CONTINUOUS
 10
-0.766854
 20
2.825563
  0
VERTEX
  8
EBENE_1
 62
    39
  6
CONTINUOUS
 10
-0.780683
 20
2.842873
  0
VERTEX
  8
EBENE_1
 62
    39
  6
CONTINUOUS
 10
-0.793976
 20
2.860795
  0
VERTEX
  8
EBENE_1
 62
    39
  6
CONTINUOUS
 10
-0.806689
 20
2.879325
  0
VERTEX
  8
EBENE_1
 62
    39
  6
CONTINUOUS
 10
-0.818777
 20
2.898460
  0
VERTEX
  8
EBENE_1
 62
    39
  6
CONTINUOUS
 10
-0.830194
 20
2.918199
  0
VERTEX
  8
EBENE_1
 62
    39
  6
CONTINUOUS
 10
-0.840895
 20
2.938536
  0
VERTEX
  8
EBENE_1
 62
    39
  6
CONTINUOUS
 10
-0.850836
 20
2.959470
  0
VERTEX
  8
EBENE_1
 62
    39
  6
CONTINUOUS
 10
-0.859971
 20
2.980997
  0
VERTEX
  8
EBENE_1
 62
    39
  6
CONTINUOUS
 10
-0.868256
 20
3.003114
  0
SEQEND
  8
0
  0
POLYLINE
  8
EBENE_1
 62
    39
  6
CONTINUOUS
 66
     1
 40
0.003000
 41
0.003000
  0
VERTEX
  8
EBENE_1
 62
    39
  6
CONTINUOUS
 10
-0.868256
 20
3.003114
  0
VERTEX
  8
EBENE_1
 62
    39
  6
CONTINUOUS
 10
-0.872139
 20
3.029152
  0
VERTEX
  8
EBENE_1
 62
    39
  6
CONTINUOUS
 10
-0.873212
 20
3.053727
  0
VERTEX
  8
EBENE_1
 62
    39
  6
CONTINUOUS
 10
-0.871651
 20
3.076718
  0
VERTEX
  8
EBENE_1
 62
    39
  6
CONTINUOUS
 10
-0.867627
 20
3.098003
  0
VERTEX
  8
EBENE_1
 62
    39
  6
CONTINUOUS
 10
-0.861316
 20
3.117459
  0
VERTEX
  8
EBENE_1
 62
    39
  6
CONTINUOUS
 10
-0.852890
 20
3.134966
  0
VERTEX
  8
EBENE_1
 62
    39
  6
CONTINUOUS
 10
-0.842523
 20
3.150401
  0
VERTEX
  8
EBENE_1
 62
    39
  6
CONTINUOUS
 10
-0.830390
 20
3.163642
  0
VERTEX
  8
EBENE_1
 62
    39
  6
CONTINUOUS
 10
-0.816662
 20
3.174567
  0
VERTEX
  8
EBENE_1
 62
    39
  6
CONTINUOUS
 10
-0.801515
 20
3.183056
  0
VERTEX
  8
EBENE_1
 62
    39
  6
CONTINUOUS
 10
-0.785122
 20
3.188984
  0
SEQEND
  8
0
  0
POLYLINE
  8
EBENE_1
 62
    39
  6
CONTINUOUS
 66
     1
 40
0.003000
 41
0.003000
  0
VERTEX
  8
EBENE_1
 62
    39
  6
CONTINUOUS
 10
-0.785122
 20
3.188984
  0
VERTEX
  8
EBENE_1
 62
    39
  6
CONTINUOUS
 10
-0.439740
 20
3.281579
  0
SEQEND
  8
0
  0
POLYLINE
  8
EBENE_1
 62
    39
  6
CONTINUOUS
 66
     1
 40
0.003000
 41
0.003000
  0
VERTEX
  8
EBENE_1
 62
    39
  6
CONTINUOUS
 10
-0.439740
 20
3.281579
  0
VERTEX
  8
EBENE_1
 62
    39
  6
CONTINUOUS
 10
-0.415122
 20
3.286021
  0
VERTEX
  8
EBENE_1
 62
    39
  6
CONTINUOUS
 10
-0.395944
 20
3.285116
  0
VERTEX
  8
EBENE_1
 62
    39
  6
CONTINUOUS
 10
-0.381089
 20
3.279828
  0
VERTEX
  8
EBENE_1
 62
    39
  6
CONTINUOUS
 10
-0.369438
 20
3.271119
  0
VERTEX
  8
EBENE_1
 62
    39
  6
CONTINUOUS
 10
-0.359873
 20
3.259951
  0
VERTEX
  8
EBENE_1
 62
    39
  6
CONTINUOUS
 10
-0.351276
 20
3.247286
  0
VERTEX
  8
EBENE_1
 62
    39
  6
CONTINUOUS
 10
-0.342529
 20
3.234087
  0
VERTEX
  8
EBENE_1
 62
    39
  6
CONTINUOUS
 10
-0.332513
 20
3.221317
  0
VERTEX
  8
EBENE_1
 62
    39
  6
CONTINUOUS
 10
-0.320110
 20
3.209937
  0
SEQEND
  8
0
  0
POLYLINE
  8
EBENE_1
 62
    39
  6
CONTINUOUS
 66
     1
 40
0.003000
 41
0.003000
 70
     1
  0
VERTEX
  8
EBENE_1
 62
    39
  6
CONTINUOUS
 10
-0.320110
 20
3.207909
  0
VERTEX
  8
EBENE_1
 62
    39
  6
CONTINUOUS
 10
-0.009201
 20
2.696260
  0
VERTEX
  8
EBENE_1
 62
    39
  6
CONTINUOUS
 10
-0.334980
 20
2.611776
  0
VERTEX
  8
EBENE_1
 62
    39
  6
CONTINUOUS
 10
-0.344875
 20
2.609950
  0
VERTEX
  8
EBENE_1
 62
    39
  6
CONTINUOUS
 10
-0.355566
 20
2.608856
  0
VERTEX
  8
EBENE_1
 62
    39
  6
CONTINUOUS
 10
-0.367006
 20
2.608490
  0
VERTEX
  8
EBENE_1
 62
    39
  6
CONTINUOUS
 10
-0.379146
 20
2.608848
  0
VERTEX
  8
EBENE_1
 62
    39
  6
CONTINUOUS
 10
-0.391938
 20
2.609926
  0
VERTEX
  8
EBENE_1
 62
    39
  6
CONTINUOUS
 10
-0.405335
 20
2.611723
  0
VERTEX
  8
EBENE_1
 62
    39
  6
CONTINUOUS
 10
-0.419288
 20
2.614233
  0
VERTEX
  8
EBENE_1
 62
    39
  6
CONTINUOUS
 10
-0.433749
 20
2.617454
  0
VERTEX
  8
EBENE_1
 62
    39
  6
CONTINUOUS
 10
-0.448672
 20
2.621381
  0
VERTEX
  8
EBENE_1
 62
    39
  6
CONTINUOUS
 10
-0.464007
 20
2.626013
  0
VERTEX
  8
EBENE_1
 62
    39
  6
CONTINUOUS
 10
-0.479706
 20
2.631344
  0
VERTEX
  8
EBENE_1
 62
    39
  6
CONTINUOUS
 10
-0.495723
 20
2.637373
  0
VERTEX
  8
EBENE_1
 62
    39
  6
CONTINUOUS
 10
-0.512008
 20
2.644095
  0
VERTEX
  8
EBENE_1
 62
    39
  6
CONTINUOUS
 10
-0.528514
 20
2.651506
  0
VERTEX
  8
EBENE_1
 62
    39
  6
CONTINUOUS
 10
-0.545192
 20
2.659604
  0
VERTEX
  8
EBENE_1
 62
    39
  6
CONTINUOUS
 10
-0.561996
 20
2.668385
  0
VERTEX
  8
EBENE_1
 62
    39
  6
CONTINUOUS
 10
-0.578877
 20
2.677846
  0
VERTEX
  8
EBENE_1
 62
    39
  6
CONTINUOUS
 10
-0.595786
 20
2.687983
  0
VERTEX
  8
EBENE_1
 62
    39
  6
CONTINUOUS
 10
-0.612677
 20
2.698792
  0
VERTEX
  8
EBENE_1
 62
    39
  6
CONTINUOUS
 10
-0.629500
 20
2.710271
  0
VERTEX
  8
EBENE_1
 62
    39
  6
CONTINUOUS
 10
-0.646209
 20
2.722415
  0
VERTEX
  8
EBENE_1
 62
    39
  6
CONTINUOUS
 10
-0.662755
 20
2.735222
  0
VERTEX
  8
EBENE_1
 62
    39
  6
CONTINUOUS
 10
-0.679090
 20
2.748688
  0
VERTEX
  8
EBENE_1
 62
    39
  6
CONTINUOUS
 10
-0.695166
 20
2.762809
  0
VERTEX
  8
EBENE_1
 62
    39
  6
CONTINUOUS
 10
-0.710936
 20
2.777582
  0
VERTEX
  8
EBENE_1
 62
    39
  6
CONTINUOUS
 10
-0.726351
 20
2.793004
  0
VERTEX
  8
EBENE_1
 62
    39
  6
CONTINUOUS
 10
-0.741363
 20
2.809071
  0
VERTEX
  8
EBENE_1
 62
    39
  6
CONTINUOUS
 10
-0.755925
 20
2.825779
  0
VERTEX
  8
EBENE_1
 62
    39
  6
CONTINUOUS
 10
-0.769988
 20
2.843126
  0
VERTEX
  8
EBENE_1
 62
    39
  6
CONTINUOUS
 10
-0.783505
 20
2.861108
  0
VERTEX
  8
EBENE_1
 62
    39
  6
CONTINUOUS
 10
-0.796427
 20
2.879721
  0
VERTEX
  8
EBENE_1
 62
    39
  6
CONTINUOUS
 10
-0.808707
 20
2.898962
  0
VERTEX
  8
EBENE_1
 62
    39
  6
CONTINUOUS
 10
-0.820296
 20
2.918827
  0
VERTEX
  8
EBENE_1
 62
    39
  6
CONTINUOUS
 10
-0.831147
 20
2.939313
  0
VERTEX
  8
EBENE_1
 62
    39
  6
CONTINUOUS
 10
-0.841212
 20
2.960417
  0
VERTEX
  8
EBENE_1
 62
    39
  6
CONTINUOUS
 10
-0.850443
 20
2.982136
  0
VERTEX
  8
EBENE_1
 62
    39
  6
CONTINUOUS
 10
-0.858791
 20
3.004465
  0
VERTEX
  8
EBENE_1
 62
    39
  6
CONTINUOUS
 10
-0.858791
 20
3.004465
  0
VERTEX
  8
EBENE_1
 62
    39
  6
CONTINUOUS
 10
-0.862691
 20
3.030134
  0
VERTEX
  8
EBENE_1
 62
    39
  6
CONTINUOUS
 10
-0.863812
 20
3.054345
  0
VERTEX
  8
EBENE_1
 62
    39
  6
CONTINUOUS
 10
-0.862325
 20
3.076977
  0
VERTEX
  8
EBENE_1
 62
    39
  6
CONTINUOUS
 10
-0.858400
 20
3.097911
  0
VERTEX
  8
EBENE_1
 62
    39
  6
CONTINUOUS
 10
-0.852209
 20
3.117030
  0
VERTEX
  8
EBENE_1
 62
    39
  6
CONTINUOUS
 10
-0.843921
 20
3.134214
  0
VERTEX
  8
EBENE_1
 62
    39
  6
CONTINUOUS
 10
-0.833707
 20
3.149345
  0
VERTEX
  8
EBENE_1
 62
    39
  6
CONTINUOUS
 10
-0.821738
 20
3.162303
  0
VERTEX
  8
EBENE_1
 62
    39
  6
CONTINUOUS
 10
-0.808185
 20
3.172971
  0
VERTEX
  8
EBENE_1
 62
    39
  6
CONTINUOUS
 10
-0.793218
 20
3.181228
  0
VERTEX
  8
EBENE_1
 62
    39
  6
CONTINUOUS
 10
-0.777008
 20
3.186957
  0
VERTEX
  8
EBENE_1
 62
    39
  6
CONTINUOUS
 10
-0.437713
 20
3.278201
  0
VERTEX
  8
EBENE_1
 62
    39
  6
CONTINUOUS
 10
-0.413676
 20
3.282487
  0
VERTEX
  8
EBENE_1
 62
    39
  6
CONTINUOUS
 10
-0.394912
 20
3.281556
  0
VERTEX
  8
EBENE_1
 62
    39
  6
CONTINUOUS
 10
-0.380338
 20
3.276347
  0
VERTEX
  8
EBENE_1
 62
    39
  6
CONTINUOUS
 10
-0.368867
 20
3.267801
  0
VERTEX
  8
EBENE_1
 62
    39
  6
CONTINUOUS
 10
-0.359416
 20
3.256857
  0
VERTEX
  8
EBENE_1
 62
    39
  6
CONTINUOUS
 10
-0.350900
 20
3.244456
  0
VERTEX
  8
EBENE_1
 62
    39
  6
CONTINUOUS
 10
-0.342233
 20
3.231538
  0
VERTEX
  8
EBENE_1
 62
    39
  6
CONTINUOUS
 10
-0.332332
 20
3.219042
  0
SEQEND
  8
0
  0
POLYLINE
  8
EBENE_1
 62
    39
  6
CONTINUOUS
 66
     1
 40
0.003000
 41
0.003000
  0
VERTEX
  8
EBENE_1
 62
    39
  6
CONTINUOUS
 10
-0.597898
 20
3.184252
  0
VERTEX
  8
EBENE_1
 62
    39
  6
CONTINUOUS
 10
-0.592216
 20
3.185879
  0
VERTEX
  8
EBENE_1
 62
    39
  6
CONTINUOUS
 10
-0.588036
 20
3.190059
  0
VERTEX
  8
EBENE_1
 62
    39
  6
CONTINUOUS
 10
-0.586409
 20
3.195744
  0
SEQEND
  8
0
  0
POLYLINE
  8
EBENE_1
 62
    39
  6
CONTINUOUS
 66
     1
 40
0.003000
 41
0.003000
  0
VERTEX
  8
EBENE_1
 62
    39
  6
CONTINUOUS
 10
-0.586409
 20
3.195744
  0
VERTEX
  8
EBENE_1
 62
    39
  6
CONTINUOUS
 10
-0.588036
 20
3.201424
  0
VERTEX
  8
EBENE_1
 62
    39
  6
CONTINUOUS
 10
-0.592216
 20
3.205605
  0
VERTEX
  8
EBENE_1
 62
    39
  6
CONTINUOUS
 10
-0.597898
 20
3.207232
  0
SEQEND
  8
0
  0
POLYLINE
  8
EBENE_1
 62
    39
  6
CONTINUOUS
 66
     1
 40
0.003000
 41
0.003000
  0
VERTEX
  8
EBENE_1
 62
    39
  6
CONTINUOUS
 10
-0.597898
 20
3.207232
  0
VERTEX
  8
EBENE_1
 62
    39
  6
CONTINUOUS
 10
-0.603580
 20
3.205605
  0
VERTEX
  8
EBENE_1
 62
    39
  6
CONTINUOUS
 10
-0.607762
 20
3.201424
  0
VERTEX
  8
EBENE_1
 62
    39
  6
CONTINUOUS
 10
-0.609390
 20
3.195744
  0
SEQEND
  8
0
  0
POLYLINE
  8
EBENE_1
 62
    39
  6
CONTINUOUS
 66
     1
 40
0.003000
 41
0.003000
  0
VERTEX
  8
EBENE_1
 62
    39
  6
CONTINUOUS
 10
-0.609390
 20
3.195744
  0
VERTEX
  8
EBENE_1
 62
    39
  6
CONTINUOUS
 10
-0.607762
 20
3.190059
  0
VERTEX
  8
EBENE_1
 62
    39
  6
CONTINUOUS
 10
-0.603580
 20
3.185879
  0
VERTEX
  8
EBENE_1
 62
    39
  6
CONTINUOUS
 10
-0.597898
 20
3.184252
  0
SEQEND
  8
0
  0
POLYLINE
  8
EBENE_1
 62
    39
  6
CONTINUOUS
 66
     1
 40
0.003000
 41
0.003000
  0
VERTEX
  8
EBENE_1
 62
    39
  6
CONTINUOUS
 10
-0.476240
 20
3.210610
  0
VERTEX
  8
EBENE_1
 62
    39
  6
CONTINUOUS
 10
-0.470557
 20
3.212087
  0
VERTEX
  8
EBENE_1
 62
    39
  6
CONTINUOUS
 10
-0.466376
 20
3.216119
  0
VERTEX
  8
EBENE_1
 62
    39
  6
CONTINUOUS
 10
-0.464748
 20
3.222102
  0
SEQEND
  8
0
  0
POLYLINE
  8
EBENE_1
 62
    39
  6
CONTINUOUS
 66
     1
 40
0.003000
 41
0.003000
  0
VERTEX
  8
EBENE_1
 62
    39
  6
CONTINUOUS
 10
-0.464748
 20
3.222102
  0
VERTEX
  8
EBENE_1
 62
    39
  6
CONTINUOUS
 10
-0.466376
 20
3.227610
  0
VERTEX
  8
EBENE_1
 62
    39
  6
CONTINUOUS
 10
-0.470557
 20
3.231465
  0
VERTEX
  8
EBENE_1
 62
    39
  6
CONTINUOUS
 10
-0.476240
 20
3.232917
  0
SEQEND
  8
0
  0
POLYLINE
  8
EBENE_1
 62
    39
  6
CONTINUOUS
 66
     1
 40
0.003000
 41
0.003000
  0
VERTEX
  8
EBENE_1
 62
    39
  6
CONTINUOUS
 10
-0.476240
 20
3.232917
  0
VERTEX
  8
EBENE_1
 62
    39
  6
CONTINUOUS
 10
-0.482223
 20
3.231465
  0
VERTEX
  8
EBENE_1
 62
    39
  6
CONTINUOUS
 10
-0.486252
 20
3.227610
  0
VERTEX
  8
EBENE_1
 62
    39
  6
CONTINUOUS
 10
-0.487728
 20
3.222102
  0
SEQEND
  8
0
  0
POLYLINE
  8
EBENE_1
 62
    39
  6
CONTINUOUS
 66
     1
 40
0.003000
 41
0.003000
  0
VERTEX
  8
EBENE_1
 62
    39
  6
CONTINUOUS
 10
-0.487728
 20
3.222102
  0
VERTEX
  8
EBENE_1
 62
    39
  6
CONTINUOUS
 10
-0.486252
 20
3.216119
  0
VERTEX
  8
EBENE_1
 62
    39
  6
CONTINUOUS
 10
-0.482223
 20
3.212087
  0
VERTEX
  8
EBENE_1
 62
    39
  6
CONTINUOUS
 10
-0.476240
 20
3.210610
  0
SEQEND
  8
0
  0
POLYLINE
  8
EBENE_1
 62
    39
  6
CONTINUOUS
 66
     1
 40
0.003000
 41
0.003000
  0
VERTEX
  8
EBENE_1
 62
    39
  6
CONTINUOUS
 10
-0.357961
 20
3.164650
  0
VERTEX
  8
EBENE_1
 62
    39
  6
CONTINUOUS
 10
-0.351977
 20
3.166277
  0
VERTEX
  8
EBENE_1
 62
    39
  6
CONTINUOUS
 10
-0.347946
 20
3.170459
  0
VERTEX
  8
EBENE_1
 62
    39
  6
CONTINUOUS
 10
-0.346469
 20
3.176142
  0
SEQEND
  8
0
  0
POLYLINE
  8
EBENE_1
 62
    39
  6
CONTINUOUS
 66
     1
 40
0.003000
 41
0.003000
  0
VERTEX
  8
EBENE_1
 62
    39
  6
CONTINUOUS
 10
-0.346469
 20
3.176142
  0
VERTEX
  8
EBENE_1
 62
    39
  6
CONTINUOUS
 10
-0.347946
 20
3.181824
  0
VERTEX
  8
EBENE_1
 62
    39
  6
CONTINUOUS
 10
-0.351977
 20
3.186003
  0
VERTEX
  8
EBENE_1
 62
    39
  6
CONTINUOUS
 10
-0.357961
 20
3.187630
  0
SEQEND
  8
0
  0
POLYLINE
  8
EBENE_1
 62
    39
  6
CONTINUOUS
 66
     1
 40
0.003000
 41
0.003000
  0
VERTEX
  8
EBENE_1
 62
    39
  6
CONTINUOUS
 10
-0.357961
 20
3.187630
  0
VERTEX
  8
EBENE_1
 62
    39
  6
CONTINUOUS
 10
-0.363467
 20
3.186003
  0
VERTEX
  8
EBENE_1
 62
    39
  6
CONTINUOUS
 10
-0.367321
 20
3.181824
  0
VERTEX
  8
EBENE_1
 62
    39
  6
CONTINUOUS
 10
-0.368772
 20
3.176142
  0
SEQEND
  8
0
  0
POLYLINE
  8
EBENE_1
 62
    39
  6
CONTINUOUS
 66
     1
 40
0.003000
 41
0.003000
  0
VERTEX
  8
EBENE_1
 62
    39
  6
CONTINUOUS
 10
-0.368772
 20
3.176142
  0
VERTEX
  8
EBENE_1
 62
    39
  6
CONTINUOUS
 10
-0.367321
 20
3.170459
  0
VERTEX
  8
EBENE_1
 62
    39
  6
CONTINUOUS
 10
-0.363467
 20
3.166277
  0
VERTEX
  8
EBENE_1
 62
    39
  6
CONTINUOUS
 10
-0.357961
 20
3.164650
  0
SEQEND
  8
0
  0
POLYLINE
  8
EBENE_1
 62
    39
  6
CONTINUOUS
 66
     1
 40
0.003000
 41
0.003000
  0
VERTEX
  8
EBENE_1
 62
    39
  6
CONTINUOUS
 10
-0.849331
 20
3.598571
  0
VERTEX
  8
EBENE_1
 62
    39
  6
CONTINUOUS
 10
-0.532339
 20
3.078815
  0
VERTEX
  8
EBENE_1
 62
    39
  6
CONTINUOUS
 10
-0.864201
 20
2.992299
  0
SEQEND
  8
0
  0
POLYLINE
  8
EBENE_1
 62
    39
  6
CONTINUOUS
 66
     1
 40
0.003000
 41
0.003000
  0
VERTEX
  8
EBENE_1
 62
    39
  6
CONTINUOUS
 10
-0.864201
 20
2.992299
  0
VERTEX
  8
EBENE_1
 62
    39
  6
CONTINUOUS
 10
-0.873992
 20
2.990517
  0
VERTEX
  8
EBENE_1
 62
    39
  6
CONTINUOUS
 10
-0.884552
 20
2.989436
  0
VERTEX
  8
EBENE_1
 62
    39
  6
CONTINUOUS
 10
-0.895836
 20
2.989054
  0
VERTEX
  8
EBENE_1
 62
    39
  6
CONTINUOUS
 10
-0.907800
 20
2.989368
  0
VERTEX
  8
EBENE_1
 62
    39
  6
CONTINUOUS
 10
-0.920397
 20
2.990374
  0
VERTEX
  8
EBENE_1
 62
    39
  6
CONTINUOUS
 10
-0.933584
 20
2.992069
  0
VERTEX
  8
EBENE_1
 62
    39
  6
CONTINUOUS
 10
-0.947315
 20
2.994451
  0
VERTEX
  8
EBENE_1
 62
    39
  6
CONTINUOUS
 10
-0.961544
 20
2.997516
  0
VERTEX
  8
EBENE_1
 62
    39
  6
CONTINUOUS
 10
-0.976228
 20
3.001261
  0
VERTEX
  8
EBENE_1
 62
    39
  6
CONTINUOUS
 10
-0.991320
 20
3.005683
  0
VERTEX
  8
EBENE_1
 62
    39
  6
CONTINUOUS
 10
-1.006775
 20
3.010779
  0
VERTEX
  8
EBENE_1
 62
    39
  6
CONTINUOUS
 10
-1.022550
 20
3.016546
  0
VERTEX
  8
EBENE_1
 62
    39
  6
CONTINUOUS
 10
-1.038597
 20
3.022980
  0
VERTEX
  8
EBENE_1
 62
    39
  6
CONTINUOUS
 10
-1.054874
 20
3.030079
  0
VERTEX
  8
EBENE_1
 62
    39
  6
CONTINUOUS
 10
-1.071333
 20
3.037839
  0
VERTEX
  8
EBENE_1
 62
    39
  6
CONTINUOUS
 10
-1.087931
 20
3.046258
  0
VERTEX
  8
EBENE_1
 62
    39
  6
CONTINUOUS
 10
-1.104621
 20
3.055332
  0
VERTEX
  8
EBENE_1
 62
    39
  6
CONTINUOUS
 10
-1.121360
 20
3.065058
  0
VERTEX
  8
EBENE_1
 62
    39
  6
CONTINUOUS
 10
-1.138102
 20
3.075433
  0
VERTEX
  8
EBENE_1
 62
    39
  6
CONTINUOUS
 10
-1.154802
 20
3.086454
  0
VERTEX
  8
EBENE_1
 62
    39
  6
CONTINUOUS
 10
-1.171414
 20
3.098117
  0
VERTEX
  8
EBENE_1
 62
    39
  6
CONTINUOUS
 10
-1.187894
 20
3.110421
  0
VERTEX
  8
EBENE_1
 62
    39
  6
CONTINUOUS
 10
-1.204197
 20
3.123361
  0
VERTEX
  8
EBENE_1
 62
    39
  6
CONTINUOUS
 10
-1.220277
 20
3.136935
  0
VERTEX
  8
EBENE_1
 62
    39
  6
CONTINUOUS
 10
-1.236090
 20
3.151139
  0
VERTEX
  8
EBENE_1
 62
    39
  6
CONTINUOUS
 10
-1.251590
 20
3.165970
  0
VERTEX
  8
EBENE_1
 62
    39
  6
CONTINUOUS
 10
-1.266733
 20
3.181426
  0
VERTEX
  8
EBENE_1
 62
    39
  6
CONTINUOUS
 10
-1.281473
 20
3.197503
  0
VERTEX
  8
EBENE_1
 62
    39
  6
CONTINUOUS
 10
-1.295764
 20
3.214197
  0
VERTEX
  8
EBENE_1
 62
    39
  6
CONTINUOUS
 10
-1.309563
 20
3.231507
  0
VERTEX
  8
EBENE_1
 62
    39
  6
CONTINUOUS
 10
-1.322824
 20
3.249428
  0
VERTEX
  8
EBENE_1
 62
    39
  6
CONTINUOUS
 10
-1.335502
 20
3.267959
  0
VERTEX
  8
EBENE_1
 62
    39
  6
CONTINUOUS
 10
-1.347552
 20
3.287094
  0
VERTEX
  8
EBENE_1
 62
    39
  6
CONTINUOUS
 10
-1.358928
 20
3.306832
  0
VERTEX
  8
EBENE_1
 62
    39
  6
CONTINUOUS
 10
-1.369586
 20
3.327170
  0
VERTEX
  8
EBENE_1
 62
    39
  6
CONTINUOUS
 10
-1.379481
 20
3.348104
  0
VERTEX
  8
EBENE_1
 62
    39
  6
CONTINUOUS
 10
-1.388567
 20
3.369631
  0
VERTEX
  8
EBENE_1
 62
    39
  6
CONTINUOUS
 10
-1.396799
 20
3.391748
  0
SEQEND
  8
0
  0
POLYLINE
  8
EBENE_1
 62
    39
  6
CONTINUOUS
 66
     1
 40
0.003000
 41
0.003000
  0
VERTEX
  8
EBENE_1
 62
    39
  6
CONTINUOUS
 10
-1.396799
 20
3.391748
  0
VERTEX
  8
EBENE_1
 62
    39
  6
CONTINUOUS
 10
-1.400698
 20
3.417786
  0
VERTEX
  8
EBENE_1
 62
    39
  6
CONTINUOUS
 10
-1.401814
 20
3.442361
  0
VERTEX
  8
EBENE_1
 62
    39
  6
CONTINUOUS
 10
-1.400317
 20
3.465352
  0
VERTEX
  8
EBENE_1
 62
    39
  6
CONTINUOUS
 10
-1.396373
 20
3.486637
  0
VERTEX
  8
EBENE_1
 62
    39
  6
CONTINUOUS
 10
-1.390150
 20
3.506093
  0
VERTEX
  8
EBENE_1
 62
    39
  6
CONTINUOUS
 10
-1.381816
 20
3.523600
  0
VERTEX
  8
EBENE_1
 62
    39
  6
CONTINUOUS
 10
-1.371538
 20
3.539035
  0
VERTEX
  8
EBENE_1
 62
    39
  6
CONTINUOUS
 10
-1.359483
 20
3.552276
  0
VERTEX
  8
EBENE_1
 62
    39
  6
CONTINUOUS
 10
-1.345820
 20
3.563201
  0
VERTEX
  8
EBENE_1
 62
    39
  6
CONTINUOUS
 10
-1.330716
 20
3.571689
  0
VERTEX
  8
EBENE_1
 62
    39
  6
CONTINUOUS
 10
-1.314339
 20
3.577618
  0
SEQEND
  8
0
  0
POLYLINE
  8
EBENE_1
 62
    39
  6
CONTINUOUS
 66
     1
 40
0.003000
 41
0.003000
  0
VERTEX
  8
EBENE_1
 62
    39
  6
CONTINUOUS
 10
-1.314339
 20
3.577618
  0
VERTEX
  8
EBENE_1
 62
    39
  6
CONTINUOUS
 10
-0.968287
 20
3.670217
  0
SEQEND
  8
0
  0
POLYLINE
  8
EBENE_1
 62
    39
  6
CONTINUOUS
 66
     1
 40
0.003000
 41
0.003000
  0
VERTEX
  8
EBENE_1
 62
    39
  6
CONTINUOUS
 10
-0.968287
 20
3.670217
  0
VERTEX
  8
EBENE_1
 62
    39
  6
CONTINUOUS
 10
-0.943869
 20
3.674657
  0
VERTEX
  8
EBENE_1
 62
    39
  6
CONTINUOUS
 10
-0.924847
 20
3.673752
  0
VERTEX
  8
EBENE_1
 62
    39
  6
CONTINUOUS
 10
-0.910109
 20
3.668463
  0
VERTEX
  8
EBENE_1
 62
    39
  6
CONTINUOUS
 10
-0.898542
 20
3.659753
  0
VERTEX
  8
EBENE_1
 62
    39
  6
CONTINUOUS
 10
-0.889033
 20
3.648585
  0
VERTEX
  8
EBENE_1
 62
    39
  6
CONTINUOUS
 10
-0.880470
 20
3.635920
  0
VERTEX
  8
EBENE_1
 62
    39
  6
CONTINUOUS
 10
-0.871740
 20
3.622721
  0
VERTEX
  8
EBENE_1
 62
    39
  6
CONTINUOUS
 10
-0.861731
 20
3.609951
  0
VERTEX
  8
EBENE_1
 62
    39
  6
CONTINUOUS
 10
-0.849331
 20
3.598571
  0
SEQEND
  8
0
  0
POLYLINE
  8
EBENE_1
 62
    39
  6
CONTINUOUS
 66
     1
 40
0.003000
 41
0.003000
 70
     1
  0
VERTEX
  8
EBENE_1
 62
    39
  6
CONTINUOUS
 10
-0.849331
 20
3.596543
  0
VERTEX
  8
EBENE_1
 62
    39
  6
CONTINUOUS
 10
-0.537744
 20
3.084898
  0
VERTEX
  8
EBENE_1
 62
    39
  6
CONTINUOUS
 10
-0.864201
 20
3.000409
  0
VERTEX
  8
EBENE_1
 62
    39
  6
CONTINUOUS
 10
-0.874095
 20
2.998584
  0
VERTEX
  8
EBENE_1
 62
    39
  6
CONTINUOUS
 10
-0.884786
 20
2.997490
  0
VERTEX
  8
EBENE_1
 62
    39
  6
CONTINUOUS
 10
-0.896225
 20
2.997124
  0
VERTEX
  8
EBENE_1
 62
    39
  6
CONTINUOUS
 10
-0.908365
 20
2.997482
  0
VERTEX
  8
EBENE_1
 62
    39
  6
CONTINUOUS
 10
-0.921157
 20
2.998561
  0
VERTEX
  8
EBENE_1
 62
    39
  6
CONTINUOUS
 10
-0.934554
 20
3.000357
  0
VERTEX
  8
EBENE_1
 62
    39
  6
CONTINUOUS
 10
-0.948507
 20
3.002867
  0
VERTEX
  8
EBENE_1
 62
    39
  6
CONTINUOUS
 10
-0.962968
 20
3.006088
  0
VERTEX
  8
EBENE_1
 62
    39
  6
CONTINUOUS
 10
-0.977891
 20
3.010016
  0
VERTEX
  8
EBENE_1
 62
    39
  6
CONTINUOUS
 10
-0.993225
 20
3.014647
  0
VERTEX
  8
EBENE_1
 62
    39
  6
CONTINUOUS
 10
-1.008925
 20
3.019979
  0
VERTEX
  8
EBENE_1
 62
    39
  6
CONTINUOUS
 10
-1.024941
 20
3.026008
  0
VERTEX
  8
EBENE_1
 62
    39
  6
CONTINUOUS
 10
-1.041226
 20
3.032730
  0
VERTEX
  8
EBENE_1
 62
    39
  6
CONTINUOUS
 10
-1.057732
 20
3.040141
  0
VERTEX
  8
EBENE_1
 62
    39
  6
CONTINUOUS
 10
-1.074411
 20
3.048240
  0
VERTEX
  8
EBENE_1
 62
    39
  6
CONTINUOUS
 10
-1.091215
 20
3.057021
  0
VERTEX
  8
EBENE_1
 62
    39
  6
CONTINUOUS
 10
-1.108095
 20
3.066482
  0
VERTEX
  8
EBENE_1
 62
    39
  6
CONTINUOUS
 10
-1.125005
 20
3.076619
  0
VERTEX
  8
EBENE_1
 62
    39
  6
CONTINUOUS
 10
-1.141896
 20
3.087428
  0
VERTEX
  8
EBENE_1
 62
    39
  6
CONTINUOUS
 10
-1.158719
 20
3.098907
  0
VERTEX
  8
EBENE_1
 62
    39
  6
CONTINUOUS
 10
-1.175428
 20
3.111052
  0
VERTEX
  8
EBENE_1
 62
    39
  6
CONTINUOUS
 10
-1.191974
 20
3.123858
  0
VERTEX
  8
EBENE_1
 62
    39
  6
CONTINUOUS
 10
-1.208309
 20
3.137324
  0
VERTEX
  8
EBENE_1
 62
    39
  6
CONTINUOUS
 10
-1.224386
 20
3.151446
  0
VERTEX
  8
EBENE_1
 62
    39
  6
CONTINUOUS
 10
-1.240156
 20
3.166219
  0
VERTEX
  8
EBENE_1
 62
    39
  6
CONTINUOUS
 10
-1.255571
 20
3.181641
  0
VERTEX
  8
EBENE_1
 62
    39
  6
CONTINUOUS
 10
-1.270583
 20
3.197708
  0
VERTEX
  8
EBENE_1
 62
    39
  6
CONTINUOUS
 10
-1.285145
 20
3.214416
  0
VERTEX
  8
EBENE_1
 62
    39
  6
CONTINUOUS
 10
-1.299208
 20
3.231763
  0
VERTEX
  8
EBENE_1
 62
    39
  6
CONTINUOUS
 10
-1.312725
 20
3.249745
  0
VERTEX
  8
EBENE_1
 62
    39
  6
CONTINUOUS
 10
-1.325647
 20
3.268358
  0
VERTEX
  8
EBENE_1
 62
    39
  6
CONTINUOUS
 10
-1.337927
 20
3.287599
  0
VERTEX
  8
EBENE_1
 62
    39
  6
CONTINUOUS
 10
-1.349517
 20
3.307465
  0
VERTEX
  8
EBENE_1
 62
    39
  6
CONTINUOUS
 10
-1.360368
 20
3.327951
  0
VERTEX
  8
EBENE_1
 62
    39
  6
CONTINUOUS
 10
-1.370433
 20
3.349055
  0
VERTEX
  8
EBENE_1
 62
    39
  6
CONTINUOUS
 10
-1.379663
 20
3.370773
  0
VERTEX
  8
EBENE_1
 62
    39
  6
CONTINUOUS
 10
-1.388012
 20
3.393102
  0
VERTEX
  8
EBENE_1
 62
    39
  6
CONTINUOUS
 10
-1.388012
 20
3.393102
  0
VERTEX
  8
EBENE_1
 62
    39
  6
CONTINUOUS
 10
-1.391912
 20
3.418771
  0
VERTEX
  8
EBENE_1
 62
    39
  6
CONTINUOUS
 10
-1.393033
 20
3.442981
  0
VERTEX
  8
EBENE_1
 62
    39
  6
CONTINUOUS
 10
-1.391545
 20
3.465613
  0
VERTEX
  8
EBENE_1
 62
    39
  6
CONTINUOUS
 10
-1.387621
 20
3.486547
  0
VERTEX
  8
EBENE_1
 62
    39
  6
CONTINUOUS
 10
-1.381429
 20
3.505666
  0
VERTEX
  8
EBENE_1
 62
    39
  6
CONTINUOUS
 10
-1.373141
 20
3.522850
  0
VERTEX
  8
EBENE_1
 62
    39
  6
CONTINUOUS
 10
-1.362927
 20
3.537981
  0
VERTEX
  8
EBENE_1
 62
    39
  6
CONTINUOUS
 10
-1.350959
 20
3.550939
  0
VERTEX
  8
EBENE_1
 62
    39
  6
CONTINUOUS
 10
-1.337405
 20
3.561606
  0
VERTEX
  8
EBENE_1
 62
    39
  6
CONTINUOUS
 10
-1.322439
 20
3.569863
  0
VERTEX
  8
EBENE_1
 62
    39
  6
CONTINUOUS
 10
-1.306228
 20
3.575591
  0
VERTEX
  8
EBENE_1
 62
    39
  6
CONTINUOUS
 10
-0.966256
 20
3.666835
  0
VERTEX
  8
EBENE_1
 62
    39
  6
CONTINUOUS
 10
-0.942242
 20
3.671122
  0
VERTEX
  8
EBENE_1
 62
    39
  6
CONTINUOUS
 10
-0.923541
 20
3.670191
  0
VERTEX
  8
EBENE_1
 62
    39
  6
CONTINUOUS
 10
-0.909057
 20
3.664983
  0
VERTEX
  8
EBENE_1
 62
    39
  6
CONTINUOUS
 10
-0.897693
 20
3.656436
  0
VERTEX
  8
EBENE_1
 62
    39
  6
CONTINUOUS
 10
-0.888354
 20
3.645492
  0
VERTEX
  8
EBENE_1
 62
    39
  6
CONTINUOUS
 10
-0.879945
 20
3.633091
  0
VERTEX
  8
EBENE_1
 62
    39
  6
CONTINUOUS
 10
-0.871368
 20
3.620172
  0
VERTEX
  8
EBENE_1
 62
    39
  6
CONTINUOUS
 10
-0.861529
 20
3.607676
  0
SEQEND
  8
0
  0
POLYLINE
  8
EBENE_1
 62
    39
  6
CONTINUOUS
 66
     1
 40
0.003000
 41
0.003000
  0
VERTEX
  8
EBENE_1
 62
    39
  6
CONTINUOUS
 10
-1.127118
 20
3.572886
  0
VERTEX
  8
EBENE_1
 62
    39
  6
CONTINUOUS
 10
-1.121137
 20
3.574514
  0
VERTEX
  8
EBENE_1
 62
    39
  6
CONTINUOUS
 10
-1.117107
 20
3.578695
  0
VERTEX
  8
EBENE_1
 62
    39
  6
CONTINUOUS
 10
-1.115630
 20
3.584378
  0
SEQEND
  8
0
  0
POLYLINE
  8
EBENE_1
 62
    39
  6
CONTINUOUS
 66
     1
 40
0.003000
 41
0.003000
  0
VERTEX
  8
EBENE_1
 62
    39
  6
CONTINUOUS
 10
-1.115630
 20
3.584378
  0
VERTEX
  8
EBENE_1
 62
    39
  6
CONTINUOUS
 10
-1.117107
 20
3.590060
  0
VERTEX
  8
EBENE_1
 62
    39
  6
CONTINUOUS
 10
-1.121137
 20
3.594239
  0
VERTEX
  8
EBENE_1
 62
    39
  6
CONTINUOUS
 10
-1.127118
 20
3.595866
  0
SEQEND
  8
0
  0
POLYLINE
  8
EBENE_1
 62
    39
  6
CONTINUOUS
 66
     1
 40
0.003000
 41
0.003000
  0
VERTEX
  8
EBENE_1
 62
    39
  6
CONTINUOUS
 10
-1.127118
 20
3.595866
  0
VERTEX
  8
EBENE_1
 62
    39
  6
CONTINUOUS
 10
-1.132801
 20
3.594239
  0
VERTEX
  8
EBENE_1
 62
    39
  6
CONTINUOUS
 10
-1.136983
 20
3.590060
  0
VERTEX
  8
EBENE_1
 62
    39
  6
CONTINUOUS
 10
-1.138610
 20
3.584378
  0
SEQEND
  8
0
  0
POLYLINE
  8
EBENE_1
 62
    39
  6
CONTINUOUS
 66
     1
 40
0.003000
 41
0.003000
  0
VERTEX
  8
EBENE_1
 62
    39
  6
CONTINUOUS
 10
-1.138610
 20
3.584378
  0
VERTEX
  8
EBENE_1
 62
    39
  6
CONTINUOUS
 10
-1.136983
 20
3.578695
  0
VERTEX
  8
EBENE_1
 62
    39
  6
CONTINUOUS
 10
-1.132801
 20
3.574514
  0
VERTEX
  8
EBENE_1
 62
    39
  6
CONTINUOUS
 10
-1.127118
 20
3.572886
  0
SEQEND
  8
0
  0
POLYLINE
  8
EBENE_1
 62
    39
  6
CONTINUOUS
 66
     1
 40
0.003000
 41
0.003000
  0
VERTEX
  8
EBENE_1
 62
    39
  6
CONTINUOUS
 10
-1.005461
 20
3.599248
  0
VERTEX
  8
EBENE_1
 62
    39
  6
CONTINUOUS
 10
-0.999776
 20
3.600725
  0
VERTEX
  8
EBENE_1
 62
    39
  6
CONTINUOUS
 10
-0.995595
 20
3.604755
  0
VERTEX
  8
EBENE_1
 62
    39
  6
CONTINUOUS
 10
-0.993969
 20
3.610736
  0
SEQEND
  8
0
  0
POLYLINE
  8
EBENE_1
 62
    39
  6
CONTINUOUS
 66
     1
 40
0.003000
 41
0.003000
  0
VERTEX
  8
EBENE_1
 62
    39
  6
CONTINUOUS
 10
-0.993969
 20
3.610736
  0
VERTEX
  8
EBENE_1
 62
    39
  6
CONTINUOUS
 10
-0.995595
 20
3.616419
  0
VERTEX
  8
EBENE_1
 62
    39
  6
CONTINUOUS
 10
-0.999776
 20
3.620601
  0
VERTEX
  8
EBENE_1
 62
    39
  6
CONTINUOUS
 10
-1.005461
 20
3.622228
  0
SEQEND
  8
0
  0
POLYLINE
  8
EBENE_1
 62
    39
  6
CONTINUOUS
 66
     1
 40
0.003000
 41
0.003000
  0
VERTEX
  8
EBENE_1
 62
    39
  6
CONTINUOUS
 10
-1.005461
 20
3.622228
  0
VERTEX
  8
EBENE_1
 62
    39
  6
CONTINUOUS
 10
-1.011142
 20
3.620601
  0
VERTEX
  8
EBENE_1
 62
    39
  6
CONTINUOUS
 10
-1.015322
 20
3.616419
  0
VERTEX
  8
EBENE_1
 62
    39
  6
CONTINUOUS
 10
-1.016949
 20
3.610736
  0
SEQEND
  8
0
  0
POLYLINE
  8
EBENE_1
 62
    39
  6
CONTINUOUS
 66
     1
 40
0.003000
 41
0.003000
  0
VERTEX
  8
EBENE_1
 62
    39
  6
CONTINUOUS
 10
-1.016949
 20
3.610736
  0
VERTEX
  8
EBENE_1
 62
    39
  6
CONTINUOUS
 10
-1.015322
 20
3.604755
  0
VERTEX
  8
EBENE_1
 62
    39
  6
CONTINUOUS
 10
-1.011142
 20
3.600725
  0
VERTEX
  8
EBENE_1
 62
    39
  6
CONTINUOUS
 10
-1.005461
 20
3.599248
  0
SEQEND
  8
0
  0
POLYLINE
  8
EBENE_1
 62
    39
  6
CONTINUOUS
 66
     1
 40
0.003000
 41
0.003000
  0
VERTEX
  8
EBENE_1
 62
    39
  6
CONTINUOUS
 10
-0.886504
 20
3.553287
  0
VERTEX
  8
EBENE_1
 62
    39
  6
CONTINUOUS
 10
-0.880821
 20
3.554914
  0
VERTEX
  8
EBENE_1
 62
    39
  6
CONTINUOUS
 10
-0.876640
 20
3.559094
  0
VERTEX
  8
EBENE_1
 62
    39
  6
CONTINUOUS
 10
-0.875012
 20
3.564776
  0
SEQEND
  8
0
  0
POLYLINE
  8
EBENE_1
 62
    39
  6
CONTINUOUS
 66
     1
 40
0.003000
 41
0.003000
  0
VERTEX
  8
EBENE_1
 62
    39
  6
CONTINUOUS
 10
-0.875012
 20
3.564776
  0
VERTEX
  8
EBENE_1
 62
    39
  6
CONTINUOUS
 10
-0.876640
 20
3.570458
  0
VERTEX
  8
EBENE_1
 62
    39
  6
CONTINUOUS
 10
-0.880821
 20
3.574640
  0
VERTEX
  8
EBENE_1
 62
    39
  6
CONTINUOUS
 10
-0.886504
 20
3.576268
  0
SEQEND
  8
0
  0
POLYLINE
  8
EBENE_1
 62
    39
  6
CONTINUOUS
 66
     1
 40
0.003000
 41
0.003000
  0
VERTEX
  8
EBENE_1
 62
    39
  6
CONTINUOUS
 10
-0.886504
 20
3.576268
  0
VERTEX
  8
EBENE_1
 62
    39
  6
CONTINUOUS
 10
-0.892487
 20
3.574640
  0
VERTEX
  8
EBENE_1
 62
    39
  6
CONTINUOUS
 10
-0.896516
 20
3.570458
  0
VERTEX
  8
EBENE_1
 62
    39
  6
CONTINUOUS
 10
-0.897992
 20
3.564776
  0
SEQEND
  8
0
  0
POLYLINE
  8
EBENE_1
 62
    39
  6
CONTINUOUS
 66
     1
 40
0.003000
 41
0.003000
  0
VERTEX
  8
EBENE_1
 62
    39
  6
CONTINUOUS
 10
-0.897992
 20
3.564776
  0
VERTEX
  8
EBENE_1
 62
    39
  6
CONTINUOUS
 10
-0.896516
 20
3.559094
  0
VERTEX
  8
EBENE_1
 62
    39
  6
CONTINUOUS
 10
-0.892487
 20
3.554914
  0
VERTEX
  8
EBENE_1
 62
    39
  6
CONTINUOUS
 10
-0.886504
 20
3.553287
  0
SEQEND
  8
0
  0
POLYLINE
  8
EBENE_1
 62
    39
  6
CONTINUOUS
 66
     1
 40
0.003000
 41
0.003000
  0
VERTEX
  8
EBENE_1
 62
    39
  6
CONTINUOUS
 10
0.013776
 20
3.290366
  0
VERTEX
  8
EBENE_1
 62
    39
  6
CONTINUOUS
 10
0.330768
 20
2.769933
  0
VERTEX
  8
EBENE_1
 62
    39
  6
CONTINUOUS
 10
-0.001091
 20
2.683417
  0
SEQEND
  8
0
  0
POLYLINE
  8
EBENE_1
 62
    39
  6
CONTINUOUS
 66
     1
 40
0.003000
 41
0.003000
  0
VERTEX
  8
EBENE_1
 62
    39
  6
CONTINUOUS
 10
-0.001091
 20
2.683417
  0
VERTEX
  8
EBENE_1
 62
    39
  6
CONTINUOUS
 10
-0.010880
 20
2.681635
  0
VERTEX
  8
EBENE_1
 62
    39
  6
CONTINUOUS
 10
-0.021437
 20
2.680554
  0
VERTEX
  8
EBENE_1
 62
    39
  6
CONTINUOUS
 10
-0.032715
 20
2.680172
  0
VERTEX
  8
EBENE_1
 62
    39
  6
CONTINUOUS
 10
-0.044670
 20
2.680486
  0
VERTEX
  8
EBENE_1
 62
    39
  6
CONTINUOUS
 10
-0.057256
 20
2.681492
  0
VERTEX
  8
EBENE_1
 62
    39
  6
CONTINUOUS
 10
-0.070430
 20
2.683188
  0
VERTEX
  8
EBENE_1
 62
    39
  6
CONTINUOUS
 10
-0.084146
 20
2.685570
  0
VERTEX
  8
EBENE_1
 62
    39
  6
CONTINUOUS
 10
-0.098359
 20
2.688635
  0
VERTEX
  8
EBENE_1
 62
    39
  6
CONTINUOUS
 10
-0.113024
 20
2.692380
  0
VERTEX
  8
EBENE_1
 62
    39
  6
CONTINUOUS
 10
-0.128096
 20
2.696802
  0
VERTEX
  8
EBENE_1
 62
    39
  6
CONTINUOUS
 10
-0.143530
 20
2.701898
  0
VERTEX
  8
EBENE_1
 62
    39
  6
CONTINUOUS
 10
-0.159282
 20
2.707665
  0
VERTEX
  8
EBENE_1
 62
    39
  6
CONTINUOUS
 10
-0.175306
 20
2.714099
  0
VERTEX
  8
EBENE_1
 62
    39
  6
CONTINUOUS
 10
-0.191558
 20
2.721198
  0
VERTEX
  8
EBENE_1
 62
    39
  6
CONTINUOUS
 10
-0.207992
 20
2.728958
  0
VERTEX
  8
EBENE_1
 62
    39
  6
CONTINUOUS
 10
-0.224564
 20
2.737377
  0
VERTEX
  8
EBENE_1
 62
    39
  6
CONTINUOUS
 10
-0.241229
 20
2.746451
  0
VERTEX
  8
EBENE_1
 62
    39
  6
CONTINUOUS
 10
-0.257941
 20
2.756177
  0
VERTEX
  8
EBENE_1
 62
    39
  6
CONTINUOUS
 10
-0.274656
 20
2.766553
  0
VERTEX
  8
EBENE_1
 62
    39
  6
CONTINUOUS
 10
-0.291329
 20
2.777574
  0
VERTEX
  8
EBENE_1
 62
    39
  6
CONTINUOUS
 10
-0.307915
 20
2.789238
  0
VERTEX
  8
EBENE_1
 62
    39
  6
CONTINUOUS
 10
-0.324369
 20
2.801541
  0
VERTEX
  8
EBENE_1
 62
    39
  6
CONTINUOUS
 10
-0.340646
 20
2.814482
  0
VERTEX
  8
EBENE_1
 62
    39
  6
CONTINUOUS
 10
-0.356701
 20
2.828056
  0
VERTEX
  8
EBENE_1
 62
    39
  6
CONTINUOUS
 10
-0.372489
 20
2.842260
  0
VERTEX
  8
EBENE_1
 62
    39
  6
CONTINUOUS
 10
-0.387965
 20
2.857091
  0
VERTEX
  8
EBENE_1
 62
    39
  6
CONTINUOUS
 10
-0.403085
 20
2.872547
  0
VERTEX
  8
EBENE_1
 62
    39
  6
CONTINUOUS
 10
-0.417803
 20
2.888624
  0
VERTEX
  8
EBENE_1
 62
    39
  6
CONTINUOUS
 10
-0.432075
 20
2.905319
  0
VERTEX
  8
EBENE_1
 62
    39
  6
CONTINUOUS
 10
-0.445855
 20
2.922629
  0
VERTEX
  8
EBENE_1
 62
    39
  6
CONTINUOUS
 10
-0.459099
 20
2.940550
  0
VERTEX
  8
EBENE_1
 62
    39
  6
CONTINUOUS
 10
-0.471762
 20
2.959080
  0
VERTEX
  8
EBENE_1
 62
    39
  6
CONTINUOUS
 10
-0.483798
 20
2.978216
  0
VERTEX
  8
EBENE_1
 62
    39
  6
CONTINUOUS
 10
-0.495163
 20
2.997954
  0
VERTEX
  8
EBENE_1
 62
    39
  6
CONTINUOUS
 10
-0.505812
 20
3.018292
  0
VERTEX
  8
EBENE_1
 62
    39
  6
CONTINUOUS
 10
-0.515699
 20
3.039226
  0
VERTEX
  8
EBENE_1
 62
    39
  6
CONTINUOUS
 10
-0.524781
 20
3.060753
  0
VERTEX
  8
EBENE_1
 62
    39
  6
CONTINUOUS
 10
-0.533012
 20
3.082870
  0
SEQEND
  8
0
  0
POLYLINE
  8
EBENE_1
 62
    39
  6
CONTINUOUS
 66
     1
 40
0.003000
 41
0.003000
  0
VERTEX
  8
EBENE_1
 62
    39
  6
CONTINUOUS
 10
-0.533012
 20
3.082870
  0
VERTEX
  8
EBENE_1
 62
    39
  6
CONTINUOUS
 10
-0.536911
 20
3.108907
  0
VERTEX
  8
EBENE_1
 62
    39
  6
CONTINUOUS
 10
-0.538029
 20
3.133482
  0
VERTEX
  8
EBENE_1
 62
    39
  6
CONTINUOUS
 10
-0.536532
 20
3.156472
  0
VERTEX
  8
EBENE_1
 62
    39
  6
CONTINUOUS
 10
-0.532588
 20
3.177757
  0
VERTEX
  8
EBENE_1
 62
    39
  6
CONTINUOUS
 10
-0.526366
 20
3.197214
  0
VERTEX
  8
EBENE_1
 62
    39
  6
CONTINUOUS
 10
-0.518032
 20
3.214721
  0
VERTEX
  8
EBENE_1
 62
    39
  6
CONTINUOUS
 10
-0.507754
 20
3.230156
  0
VERTEX
  8
EBENE_1
 62
    39
  6
CONTINUOUS
 10
-0.495700
 20
3.243397
  0
VERTEX
  8
EBENE_1
 62
    39
  6
CONTINUOUS
 10
-0.482037
 20
3.254323
  0
VERTEX
  8
EBENE_1
 62
    39
  6
CONTINUOUS
 10
-0.466933
 20
3.262811
  0
VERTEX
  8
EBENE_1
 62
    39
  6
CONTINUOUS
 10
-0.450555
 20
3.268740
  0
SEQEND
  8
0
  0
POLYLINE
  8
EBENE_1
 62
    39
  6
CONTINUOUS
 66
     1
 40
0.003000
 41
0.003000
  0
VERTEX
  8
EBENE_1
 62
    39
  6
CONTINUOUS
 10
-0.450555
 20
3.268740
  0
VERTEX
  8
EBENE_1
 62
    39
  6
CONTINUOUS
 10
-0.105177
 20
3.361335
  0
SEQEND
  8
0
  0
POLYLINE
  8
EBENE_1
 62
    39
  6
CONTINUOUS
 66
     1
 40
0.003000
 41
0.003000
  0
VERTEX
  8
EBENE_1
 62
    39
  6
CONTINUOUS
 10
-0.105177
 20
3.361335
  0
VERTEX
  8
EBENE_1
 62
    39
  6
CONTINUOUS
 10
-0.080760
 20
3.365776
  0
VERTEX
  8
EBENE_1
 62
    39
  6
CONTINUOUS
 10
-0.061739
 20
3.364878
  0
VERTEX
  8
EBENE_1
 62
    39
  6
CONTINUOUS
 10
-0.047002
 20
3.359606
  0
VERTEX
  8
EBENE_1
 62
    39
  6
CONTINUOUS
 10
-0.035435
 20
3.350931
  0
VERTEX
  8
EBENE_1
 62
    39
  6
CONTINUOUS
 10
-0.025926
 20
3.339819
  0
VERTEX
  8
EBENE_1
 62
    39
  6
CONTINUOUS
 10
-0.017363
 20
3.327239
  0
VERTEX
  8
EBENE_1
 62
    39
  6
CONTINUOUS
 10
-0.008634
 20
3.314158
  0
VERTEX
  8
EBENE_1
 62
    39
  6
CONTINUOUS
 10
0.001375
 20
3.301544
  0
VERTEX
  8
EBENE_1
 62
    39
  6
CONTINUOUS
 10
0.013776
 20
3.290366
  0
SEQEND
  8
0
  0
POLYLINE
  8
EBENE_1
 62
    39
  6
CONTINUOUS
 66
     1
 40
0.003000
 41
0.003000
 70
     1
  0
VERTEX
  8
EBENE_1
 62
    39
  6
CONTINUOUS
 10
0.013776
 20
3.287661
  0
VERTEX
  8
EBENE_1
 62
    39
  6
CONTINUOUS
 10
0.325362
 20
2.776693
  0
VERTEX
  8
EBENE_1
 62
    39
  6
CONTINUOUS
 10
-0.001091
 20
2.691531
  0
VERTEX
  8
EBENE_1
 62
    39
  6
CONTINUOUS
 10
-0.010984
 20
2.689758
  0
VERTEX
  8
EBENE_1
 62
    39
  6
CONTINUOUS
 10
-0.021671
 20
2.688710
  0
VERTEX
  8
EBENE_1
 62
    39
  6
CONTINUOUS
 10
-0.033103
 20
2.688384
  0
VERTEX
  8
EBENE_1
 62
    39
  6
CONTINUOUS
 10
-0.045234
 20
2.688777
  0
VERTEX
  8
EBENE_1
 62
    39
  6
CONTINUOUS
 10
-0.058014
 20
2.689887
  0
VERTEX
  8
EBENE_1
 62
    39
  6
CONTINUOUS
 10
-0.071397
 20
2.691708
  0
VERTEX
  8
EBENE_1
 62
    39
  6
CONTINUOUS
 10
-0.085334
 20
2.694240
  0
VERTEX
  8
EBENE_1
 62
    39
  6
CONTINUOUS
 10
-0.099778
 20
2.697478
  0
VERTEX
  8
EBENE_1
 62
    39
  6
CONTINUOUS
 10
-0.114681
 20
2.701419
  0
VERTEX
  8
EBENE_1
 62
    39
  6
CONTINUOUS
 10
-0.129995
 20
2.706059
  0
VERTEX
  8
EBENE_1
 62
    39
  6
CONTINUOUS
 10
-0.145673
 20
2.711397
  0
VERTEX
  8
EBENE_1
 62
    39
  6
CONTINUOUS
 10
-0.161666
 20
2.717428
  0
VERTEX
  8
EBENE_1
 62
    39
  6
CONTINUOUS
 10
-0.177926
 20
2.724149
  0
VERTEX
  8
EBENE_1
 62
    39
  6
CONTINUOUS
 10
-0.194407
 20
2.731557
  0
VERTEX
  8
EBENE_1
 62
    39
  6
CONTINUOUS
 10
-0.211059
 20
2.739650
  0
VERTEX
  8
EBENE_1
 62
    39
  6
CONTINUOUS
 10
-0.227836
 20
2.748423
  0
VERTEX
  8
EBENE_1
 62
    39
  6
CONTINUOUS
 10
-0.244690
 20
2.757873
  0
VERTEX
  8
EBENE_1
 62
    39
  6
CONTINUOUS
 10
-0.261572
 20
2.767998
  0
VERTEX
  8
EBENE_1
 62
    39
  6
CONTINUOUS
 10
-0.278435
 20
2.778794
  0
VERTEX
  8
EBENE_1
 62
    39
  6
CONTINUOUS
 10
-0.295231
 20
2.790257
  0
VERTEX
  8
EBENE_1
 62
    39
  6
CONTINUOUS
 10
-0.311913
 20
2.802386
  0
VERTEX
  8
EBENE_1
 62
    39
  6
CONTINUOUS
 10
-0.328432
 20
2.815175
  0
VERTEX
  8
EBENE_1
 62
    39
  6
CONTINUOUS
 10
-0.344741
 20
2.828623
  0
VERTEX
  8
EBENE_1
 62
    39
  6
CONTINUOUS
 10
-0.360792
 20
2.842727
  0
VERTEX
  8
EBENE_1
 62
    39
  6
CONTINUOUS
 10
-0.376538
 20
2.857482
  0
VERTEX
  8
EBENE_1
 62
    39
  6
CONTINUOUS
 10
-0.391929
 20
2.872885
  0
VERTEX
  8
EBENE_1
 62
    39
  6
CONTINUOUS
 10
-0.406919
 20
2.888934
  0
VERTEX
  8
EBENE_1
 62
    39
  6
CONTINUOUS
 10
-0.421460
 20
2.905626
  0
VERTEX
  8
EBENE_1
 62
    39
  6
CONTINUOUS
 10
-0.435504
 20
2.922956
  0
VERTEX
  8
EBENE_1
 62
    39
  6
CONTINUOUS
 10
-0.449003
 20
2.940922
  0
VERTEX
  8
EBENE_1
 62
    39
  6
CONTINUOUS
 10
-0.461910
 20
2.959521
  0
VERTEX
  8
EBENE_1
 62
    39
  6
CONTINUOUS
 10
-0.474176
 20
2.978749
  0
VERTEX
  8
EBENE_1
 62
    39
  6
CONTINUOUS
 10
-0.485754
 20
2.998604
  0
VERTEX
  8
EBENE_1
 62
    39
  6
CONTINUOUS
 10
-0.496596
 20
3.019082
  0
VERTEX
  8
EBENE_1
 62
    39
  6
CONTINUOUS
 10
-0.506654
 20
3.040179
  0
VERTEX
  8
EBENE_1
 62
    39
  6
CONTINUOUS
 10
-0.515881
 20
3.061893
  0
VERTEX
  8
EBENE_1
 62
    39
  6
CONTINUOUS
 10
-0.524228
 20
3.084220
  0
VERTEX
  8
EBENE_1
 62
    39
  6
CONTINUOUS
 10
-0.524228
 20
3.084220
  0
VERTEX
  8
EBENE_1
 62
    39
  6
CONTINUOUS
 10
-0.528127
 20
3.109889
  0
VERTEX
  8
EBENE_1
 62
    39
  6
CONTINUOUS
 10
-0.529248
 20
3.134099
  0
VERTEX
  8
EBENE_1
 62
    39
  6
CONTINUOUS
 10
-0.527760
 20
3.156731
  0
VERTEX
  8
EBENE_1
 62
    39
  6
CONTINUOUS
 10
-0.523836
 20
3.177665
  0
VERTEX
  8
EBENE_1
 62
    39
  6
CONTINUOUS
 10
-0.517644
 20
3.196784
  0
VERTEX
  8
EBENE_1
 62
    39
  6
CONTINUOUS
 10
-0.509356
 20
3.213968
  0
VERTEX
  8
EBENE_1
 62
    39
  6
CONTINUOUS
 10
-0.499143
 20
3.229099
  0
VERTEX
  8
EBENE_1
 62
    39
  6
CONTINUOUS
 10
-0.487175
 20
3.242057
  0
VERTEX
  8
EBENE_1
 62
    39
  6
CONTINUOUS
 10
-0.473622
 20
3.252724
  0
VERTEX
  8
EBENE_1
 62
    39
  6
CONTINUOUS
 10
-0.458655
 20
3.260981
  0
VERTEX
  8
EBENE_1
 62
    39
  6
CONTINUOUS
 10
-0.442445
 20
3.266709
  0
VERTEX
  8
EBENE_1
 62
    39
  6
CONTINUOUS
 10
-0.103150
 20
3.357957
  0
VERTEX
  8
EBENE_1
 62
    39
  6
CONTINUOUS
 10
-0.079136
 20
3.362243
  0
VERTEX
  8
EBENE_1
 62
    39
  6
CONTINUOUS
 10
-0.060434
 20
3.361312
  0
VERTEX
  8
EBENE_1
 62
    39
  6
CONTINUOUS
 10
-0.045949
 20
3.356103
  0
VERTEX
  8
EBENE_1
 62
    39
  6
CONTINUOUS
 10
-0.034585
 20
3.347556
  0
VERTEX
  8
EBENE_1
 62
    39
  6
CONTINUOUS
 10
-0.025246
 20
3.336612
  0
VERTEX
  8
EBENE_1
 62
    39
  6
CONTINUOUS
 10
-0.016837
 20
3.324211
  0
VERTEX
  8
EBENE_1
 62
    39
  6
CONTINUOUS
 10
-0.008260
 20
3.311292
  0
VERTEX
  8
EBENE_1
 62
    39
  6
CONTINUOUS
 10
0.001579
 20
3.298795
  0
SEQEND
  8
0
  0
POLYLINE
  8
EBENE_1
 62
    39
  6
CONTINUOUS
 66
     1
 40
0.003000
 41
0.003000
  0
VERTEX
  8
EBENE_1
 62
    39
  6
CONTINUOUS
 10
-0.263335
 20
3.264008
  0
VERTEX
  8
EBENE_1
 62
    39
  6
CONTINUOUS
 10
-0.257351
 20
3.265635
  0
VERTEX
  8
EBENE_1
 62
    39
  6
CONTINUOUS
 10
-0.253320
 20
3.269814
  0
VERTEX
  8
EBENE_1
 62
    39
  6
CONTINUOUS
 10
-0.251843
 20
3.275496
  0
SEQEND
  8
0
  0
POLYLINE
  8
EBENE_1
 62
    39
  6
CONTINUOUS
 66
     1
 40
0.003000
 41
0.003000
  0
VERTEX
  8
EBENE_1
 62
    39
  6
CONTINUOUS
 10
-0.251843
 20
3.275496
  0
VERTEX
  8
EBENE_1
 62
    39
  6
CONTINUOUS
 10
-0.253320
 20
3.281179
  0
VERTEX
  8
EBENE_1
 62
    39
  6
CONTINUOUS
 10
-0.257351
 20
3.285360
  0
VERTEX
  8
EBENE_1
 62
    39
  6
CONTINUOUS
 10
-0.263335
 20
3.286988
  0
SEQEND
  8
0
  0
POLYLINE
  8
EBENE_1
 62
    39
  6
CONTINUOUS
 66
     1
 40
0.003000
 41
0.003000
  0
VERTEX
  8
EBENE_1
 62
    39
  6
CONTINUOUS
 10
-0.263335
 20
3.286988
  0
VERTEX
  8
EBENE_1
 62
    39
  6
CONTINUOUS
 10
-0.269016
 20
3.285360
  0
VERTEX
  8
EBENE_1
 62
    39
  6
CONTINUOUS
 10
-0.273196
 20
3.281179
  0
VERTEX
  8
EBENE_1
 62
    39
  6
CONTINUOUS
 10
-0.274823
 20
3.275496
  0
SEQEND
  8
0
  0
POLYLINE
  8
EBENE_1
 62
    39
  6
CONTINUOUS
 66
     1
 40
0.003000
 41
0.003000
  0
VERTEX
  8
EBENE_1
 62
    39
  6
CONTINUOUS
 10
-0.274823
 20
3.275496
  0
VERTEX
  8
EBENE_1
 62
    39
  6
CONTINUOUS
 10
-0.273196
 20
3.269814
  0
VERTEX
  8
EBENE_1
 62
    39
  6
CONTINUOUS
 10
-0.269016
 20
3.265635
  0
VERTEX
  8
EBENE_1
 62
    39
  6
CONTINUOUS
 10
-0.263335
 20
3.264008
  0
SEQEND
  8
0
  0
POLYLINE
  8
EBENE_1
 62
    39
  6
CONTINUOUS
 66
     1
 40
0.003000
 41
0.003000
  0
VERTEX
  8
EBENE_1
 62
    39
  6
CONTINUOUS
 10
-0.141673
 20
3.290366
  0
VERTEX
  8
EBENE_1
 62
    39
  6
CONTINUOUS
 10
-0.136167
 20
3.291843
  0
VERTEX
  8
EBENE_1
 62
    39
  6
CONTINUOUS
 10
-0.132313
 20
3.295874
  0
VERTEX
  8
EBENE_1
 62
    39
  6
CONTINUOUS
 10
-0.130862
 20
3.301858
  0
SEQEND
  8
0
  0
POLYLINE
  8
EBENE_1
 62
    39
  6
CONTINUOUS
 66
     1
 40
0.003000
 41
0.003000
  0
VERTEX
  8
EBENE_1
 62
    39
  6
CONTINUOUS
 10
-0.130862
 20
3.301858
  0
VERTEX
  8
EBENE_1
 62
    39
  6
CONTINUOUS
 10
-0.132313
 20
3.307540
  0
VERTEX
  8
EBENE_1
 62
    39
  6
CONTINUOUS
 10
-0.136167
 20
3.311720
  0
VERTEX
  8
EBENE_1
 62
    39
  6
CONTINUOUS
 10
-0.141673
 20
3.313346
  0
SEQEND
  8
0
  0
POLYLINE
  8
EBENE_1
 62
    39
  6
CONTINUOUS
 66
     1
 40
0.003000
 41
0.003000
  0
VERTEX
  8
EBENE_1
 62
    39
  6
CONTINUOUS
 10
-0.141673
 20
3.313346
  0
VERTEX
  8
EBENE_1
 62
    39
  6
CONTINUOUS
 10
-0.147356
 20
3.311720
  0
VERTEX
  8
EBENE_1
 62
    39
  6
CONTINUOUS
 10
-0.151538
 20
3.307540
  0
VERTEX
  8
EBENE_1
 62
    39
  6
CONTINUOUS
 10
-0.153165
 20
3.301858
  0
SEQEND
  8
0
  0
POLYLINE
  8
EBENE_1
 62
    39
  6
CONTINUOUS
 66
     1
 40
0.003000
 41
0.003000
  0
VERTEX
  8
EBENE_1
 62
    39
  6
CONTINUOUS
 10
-0.153165
 20
3.301858
  0
VERTEX
  8
EBENE_1
 62
    39
  6
CONTINUOUS
 10
-0.151538
 20
3.295874
  0
VERTEX
  8
EBENE_1
 62
    39
  6
CONTINUOUS
 10
-0.147356
 20
3.291843
  0
VERTEX
  8
EBENE_1
 62
    39
  6
CONTINUOUS
 10
-0.141673
 20
3.290366
  0
SEQEND
  8
0
  0
POLYLINE
  8
EBENE_1
 62
    39
  6
CONTINUOUS
 66
     1
 40
0.003000
 41
0.003000
  0
VERTEX
  8
EBENE_1
 62
    39
  6
CONTINUOUS
 10
-0.023394
 20
3.244406
  0
VERTEX
  8
EBENE_1
 62
    39
  6
CONTINUOUS
 10
-0.017712
 20
3.246033
  0
VERTEX
  8
EBENE_1
 62
    39
  6
CONTINUOUS
 10
-0.013532
 20
3.250214
  0
VERTEX
  8
EBENE_1
 62
    39
  6
CONTINUOUS
 10
-0.011906
 20
3.255894
  0
SEQEND
  8
0
  0
POLYLINE
  8
EBENE_1
 62
    39
  6
CONTINUOUS
 66
     1
 40
0.003000
 41
0.003000
  0
VERTEX
  8
EBENE_1
 62
    39
  6
CONTINUOUS
 10
-0.011906
 20
3.255894
  0
VERTEX
  8
EBENE_1
 62
    39
  6
CONTINUOUS
 10
-0.013532
 20
3.261878
  0
VERTEX
  8
EBENE_1
 62
    39
  6
CONTINUOUS
 10
-0.017712
 20
3.265909
  0
VERTEX
  8
EBENE_1
 62
    39
  6
CONTINUOUS
 10
-0.023394
 20
3.267386
  0
SEQEND
  8
0
  0
POLYLINE
  8
EBENE_1
 62
    39
  6
CONTINUOUS
 66
     1
 40
0.003000
 41
0.003000
  0
VERTEX
  8
EBENE_1
 62
    39
  6
CONTINUOUS
 10
-0.023394
 20
3.267386
  0
VERTEX
  8
EBENE_1
 62
    39
  6
CONTINUOUS
 10
-0.029378
 20
3.265909
  0
VERTEX
  8
EBENE_1
 62
    39
  6
CONTINUOUS
 10
-0.033409
 20
3.261878
  0
VERTEX
  8
EBENE_1
 62
    39
  6
CONTINUOUS
 10
-0.034886
 20
3.255894
  0
SEQEND
  8
0
  0
POLYLINE
  8
EBENE_1
 62
    39
  6
CONTINUOUS
 66
     1
 40
0.003000
 41
0.003000
  0
VERTEX
  8
EBENE_1
 62
    39
  6
CONTINUOUS
 10
-0.034886
 20
3.255894
  0
VERTEX
  8
EBENE_1
 62
    39
  6
CONTINUOUS
 10
-0.033409
 20
3.250214
  0
VERTEX
  8
EBENE_1
 62
    39
  6
CONTINUOUS
 10
-0.029378
 20
3.246033
  0
VERTEX
  8
EBENE_1
 62
    39
  6
CONTINUOUS
 10
-0.023394
 20
3.244406
  0
SEQEND
  8
0
  0
POLYLINE
  8
EBENE_1
 62
    39
  6
CONTINUOUS
 66
     1
 40
0.003000
 41
0.003000
  0
VERTEX
  8
EBENE_1
 62
    39
  6
CONTINUOUS
 10
0.348339
 20
3.370122
  0
VERTEX
  8
EBENE_1
 62
    39
  6
CONTINUOUS
 10
0.665331
 20
2.850362
  0
VERTEX
  8
EBENE_1
 62
    39
  6
CONTINUOUS
 10
0.333469
 20
2.763850
  0
SEQEND
  8
0
  0
POLYLINE
  8
EBENE_1
 62
    39
  6
CONTINUOUS
 66
     1
 40
0.003000
 41
0.003000
  0
VERTEX
  8
EBENE_1
 62
    39
  6
CONTINUOUS
 10
0.333469
 20
2.763850
  0
VERTEX
  8
EBENE_1
 62
    39
  6
CONTINUOUS
 10
0.323678
 20
2.762067
  0
VERTEX
  8
EBENE_1
 62
    39
  6
CONTINUOUS
 10
0.313118
 20
2.760982
  0
VERTEX
  8
EBENE_1
 62
    39
  6
CONTINUOUS
 10
0.301834
 20
2.760594
  0
VERTEX
  8
EBENE_1
 62
    39
  6
CONTINUOUS
 10
0.289871
 20
2.760899
  0
VERTEX
  8
EBENE_1
 62
    39
  6
CONTINUOUS
 10
0.277274
 20
2.761895
  0
VERTEX
  8
EBENE_1
 62
    39
  6
CONTINUOUS
 10
0.264088
 20
2.763578
  0
VERTEX
  8
EBENE_1
 62
    39
  6
CONTINUOUS
 10
0.250359
 20
2.765946
  0
VERTEX
  8
EBENE_1
 62
    39
  6
CONTINUOUS
 10
0.236132
 20
2.768997
  0
VERTEX
  8
EBENE_1
 62
    39
  6
CONTINUOUS
 10
0.221451
 20
2.772726
  0
VERTEX
  8
EBENE_1
 62
    39
  6
CONTINUOUS
 10
0.206363
 20
2.777131
  0
VERTEX
  8
EBENE_1
 62
    39
  6
CONTINUOUS
 10
0.190911
 20
2.782210
  0
VERTEX
  8
EBENE_1
 62
    39
  6
CONTINUOUS
 10
0.175142
 20
2.787959
  0
VERTEX
  8
EBENE_1
 62
    39
  6
CONTINUOUS
 10
0.159100
 20
2.794376
  0
VERTEX
  8
EBENE_1
 62
    39
  6
CONTINUOUS
 10
0.142831
 20
2.801457
  0
VERTEX
  8
EBENE_1
 62
    39
  6
CONTINUOUS
 10
0.126379
 20
2.809200
  0
VERTEX
  8
EBENE_1
 62
    39
  6
CONTINUOUS
 10
0.109791
 20
2.817602
  0
VERTEX
  8
EBENE_1
 62
    39
  6
CONTINUOUS
 10
0.093110
 20
2.826659
  0
VERTEX
  8
EBENE_1
 62
    39
  6
CONTINUOUS
 10
0.076383
 20
2.836370
  0
VERTEX
  8
EBENE_1
 62
    39
  6
CONTINUOUS
 10
0.059654
 20
2.846731
  0
VERTEX
  8
EBENE_1
 62
    39
  6
CONTINUOUS
 10
0.042969
 20
2.857740
  0
VERTEX
  8
EBENE_1
 62
    39
  6
CONTINUOUS
 10
0.026372
 20
2.869393
  0
VERTEX
  8
EBENE_1
 62
    39
  6
CONTINUOUS
 10
0.009909
 20
2.881687
  0
VERTEX
  8
EBENE_1
 62
    39
  6
CONTINUOUS
 10
-0.006375
 20
2.894620
  0
VERTEX
  8
EBENE_1
 62
    39
  6
CONTINUOUS
 10
-0.022435
 20
2.908189
  0
VERTEX
  8
EBENE_1
 62
    39
  6
CONTINUOUS
 10
-0.038225
 20
2.922391
  0
VERTEX
  8
EBENE_1
 62
    39
  6
CONTINUOUS
 10
-0.053701
 20
2.937223
  0
VERTEX
  8
EBENE_1
 62
    39
  6
CONTINUOUS
 10
-0.068818
 20
2.952682
  0
VERTEX
  8
EBENE_1
 62
    39
  6
CONTINUOUS
 10
-0.083529
 20
2.968765
  0
VERTEX
  8
EBENE_1
 62
    39
  6
CONTINUOUS
 10
-0.097791
 20
2.985470
  0
VERTEX
  8
EBENE_1
 62
    39
  6
CONTINUOUS
 10
-0.111557
 20
3.002793
  0
VERTEX
  8
EBENE_1
 62
    39
  6
CONTINUOUS
 10
-0.124784
 20
3.020732
  0
VERTEX
  8
EBENE_1
 62
    39
  6
CONTINUOUS
 10
-0.137425
 20
3.039284
  0
VERTEX
  8
EBENE_1
 62
    39
  6
CONTINUOUS
 10
-0.149435
 20
3.058445
  0
VERTEX
  8
EBENE_1
 62
    39
  6
CONTINUOUS
 10
-0.160770
 20
3.078213
  0
VERTEX
  8
EBENE_1
 62
    39
  6
CONTINUOUS
 10
-0.171384
 20
3.098586
  0
VERTEX
  8
EBENE_1
 62
    39
  6
CONTINUOUS
 10
-0.181232
 20
3.119560
  0
VERTEX
  8
EBENE_1
 62
    39
  6
CONTINUOUS
 10
-0.190268
 20
3.141132
  0
VERTEX
  8
EBENE_1
 62
    39
  6
CONTINUOUS
 10
-0.198449
 20
3.163299
  0
SEQEND
  8
0
  0
POLYLINE
  8
EBENE_1
 62
    39
  6
CONTINUOUS
 66
     1
 40
0.003000
 41
0.003000
  0
VERTEX
  8
EBENE_1
 62
    39
  6
CONTINUOUS
 10
-0.198449
 20
3.163299
  0
VERTEX
  8
EBENE_1
 62
    39
  6
CONTINUOUS
 10
-0.202333
 20
3.189336
  0
VERTEX
  8
EBENE_1
 62
    39
  6
CONTINUOUS
 10
-0.203411
 20
3.213908
  0
VERTEX
  8
EBENE_1
 62
    39
  6
CONTINUOUS
 10
-0.201859
 20
3.236889
  0
VERTEX
  8
EBENE_1
 62
    39
  6
CONTINUOUS
 10
-0.197854
 20
3.258155
  0
VERTEX
  8
EBENE_1
 62
    39
  6
CONTINUOUS
 10
-0.191574
 20
3.277581
  0
VERTEX
  8
EBENE_1
 62
    39
  6
CONTINUOUS
 10
-0.183194
 20
3.295041
  0
VERTEX
  8
EBENE_1
 62
    39
  6
CONTINUOUS
 10
-0.172892
 20
3.310411
  0
VERTEX
  8
EBENE_1
 62
    39
  6
CONTINUOUS
 10
-0.160844
 20
3.323566
  0
VERTEX
  8
EBENE_1
 62
    39
  6
CONTINUOUS
 10
-0.147226
 20
3.334382
  0
VERTEX
  8
EBENE_1
 62
    39
  6
CONTINUOUS
 10
-0.132217
 20
3.342732
  0
VERTEX
  8
EBENE_1
 62
    39
  6
CONTINUOUS
 10
-0.115992
 20
3.348492
  0
SEQEND
  8
0
  0
POLYLINE
  8
EBENE_1
 62
    39
  6
CONTINUOUS
 66
     1
 40
0.003000
 41
0.003000
  0
VERTEX
  8
EBENE_1
 62
    39
  6
CONTINUOUS
 10
-0.115992
 20
3.348492
  0
VERTEX
  8
EBENE_1
 62
    39
  6
CONTINUOUS
 10
0.229386
 20
3.441091
  0
SEQEND
  8
0
  0
POLYLINE
  8
EBENE_1
 62
    39
  6
CONTINUOUS
 66
     1
 40
0.003000
 41
0.003000
  0
VERTEX
  8
EBENE_1
 62
    39
  6
CONTINUOUS
 10
0.229386
 20
3.441091
  0
VERTEX
  8
EBENE_1
 62
    39
  6
CONTINUOUS
 10
0.253803
 20
3.445532
  0
VERTEX
  8
EBENE_1
 62
    39
  6
CONTINUOUS
 10
0.272824
 20
3.444633
  0
VERTEX
  8
EBENE_1
 62
    39
  6
CONTINUOUS
 10
0.287561
 20
3.439362
  0
VERTEX
  8
EBENE_1
 62
    39
  6
CONTINUOUS
 10
0.299128
 20
3.430687
  0
VERTEX
  8
EBENE_1
 62
    39
  6
CONTINUOUS
 10
0.308637
 20
3.419575
  0
VERTEX
  8
EBENE_1
 62
    39
  6
CONTINUOUS
 10
0.317200
 20
3.406995
  0
VERTEX
  8
EBENE_1
 62
    39
  6
CONTINUOUS
 10
0.325929
 20
3.393914
  0
VERTEX
  8
EBENE_1
 62
    39
  6
CONTINUOUS
 10
0.335938
 20
3.381300
  0
VERTEX
  8
EBENE_1
 62
    39
  6
CONTINUOUS
 10
0.348339
 20
3.370122
  0
SEQEND
  8
0
  0
POLYLINE
  8
EBENE_1
 62
    39
  6
CONTINUOUS
 66
     1
 40
0.003000
 41
0.003000
 70
     1
  0
VERTEX
  8
EBENE_1
 62
    39
  6
CONTINUOUS
 10
0.348339
 20
3.367417
  0
VERTEX
  8
EBENE_1
 62
    39
  6
CONTINUOUS
 10
0.659925
 20
2.856445
  0
VERTEX
  8
EBENE_1
 62
    39
  6
CONTINUOUS
 10
0.333469
 20
2.771283
  0
VERTEX
  8
EBENE_1
 62
    39
  6
CONTINUOUS
 10
0.323574
 20
2.769510
  0
VERTEX
  8
EBENE_1
 62
    39
  6
CONTINUOUS
 10
0.312883
 20
2.768462
  0
VERTEX
  8
EBENE_1
 62
    39
  6
CONTINUOUS
 10
0.301444
 20
2.768137
  0
VERTEX
  8
EBENE_1
 62
    39
  6
CONTINUOUS
 10
0.289305
 20
2.768530
  0
VERTEX
  8
EBENE_1
 62
    39
  6
CONTINUOUS
 10
0.276514
 20
2.769640
  0
VERTEX
  8
EBENE_1
 62
    39
  6
CONTINUOUS
 10
0.263119
 20
2.771462
  0
VERTEX
  8
EBENE_1
 62
    39
  6
CONTINUOUS
 10
0.249168
 20
2.773994
  0
VERTEX
  8
EBENE_1
 62
    39
  6
CONTINUOUS
 10
0.234708
 20
2.777232
  0
VERTEX
  8
EBENE_1
 62
    39
  6
CONTINUOUS
 10
0.219789
 20
2.781173
  0
VERTEX
  8
EBENE_1
 62
    39
  6
CONTINUOUS
 10
0.204458
 20
2.785814
  0
VERTEX
  8
EBENE_1
 62
    39
  6
CONTINUOUS
 10
0.188763
 20
2.791151
  0
VERTEX
  8
EBENE_1
 62
    39
  6
CONTINUOUS
 10
0.172752
 20
2.797183
  0
VERTEX
  8
EBENE_1
 62
    39
  6
CONTINUOUS
 10
0.156473
 20
2.803904
  0
VERTEX
  8
EBENE_1
 62
    39
  6
CONTINUOUS
 10
0.139975
 20
2.811312
  0
VERTEX
  8
EBENE_1
 62
    39
  6
CONTINUOUS
 10
0.123305
 20
2.819405
  0
VERTEX
  8
EBENE_1
 62
    39
  6
CONTINUOUS
 10
0.106511
 20
2.828178
  0
VERTEX
  8
EBENE_1
 62
    39
  6
CONTINUOUS
 10
0.089641
 20
2.837628
  0
VERTEX
  8
EBENE_1
 62
    39
  6
CONTINUOUS
 10
0.072744
 20
2.847753
  0
VERTEX
  8
EBENE_1
 62
    39
  6
CONTINUOUS
 10
0.055867
 20
2.858549
  0
VERTEX
  8
EBENE_1
 62
    39
  6
CONTINUOUS
 10
0.039059
 20
2.870013
  0
VERTEX
  8
EBENE_1
 62
    39
  6
CONTINUOUS
 10
0.022367
 20
2.882141
  0
VERTEX
  8
EBENE_1
 62
    39
  6
CONTINUOUS
 10
0.005840
 20
2.894931
  0
VERTEX
  8
EBENE_1
 62
    39
  6
CONTINUOUS
 10
-0.010475
 20
2.908379
  0
VERTEX
  8
EBENE_1
 62
    39
  6
CONTINUOUS
 10
-0.026529
 20
2.922482
  0
VERTEX
  8
EBENE_1
 62
    39
  6
CONTINUOUS
 10
-0.042274
 20
2.937237
  0
VERTEX
  8
EBENE_1
 62
    39
  6
CONTINUOUS
 10
-0.057663
 20
2.952641
  0
VERTEX
  8
EBENE_1
 62
    39
  6
CONTINUOUS
 10
-0.072647
 20
2.968690
  0
VERTEX
  8
EBENE_1
 62
    39
  6
CONTINUOUS
 10
-0.087179
 20
2.985381
  0
VERTEX
  8
EBENE_1
 62
    39
  6
CONTINUOUS
 10
-0.101209
 20
3.002712
  0
VERTEX
  8
EBENE_1
 62
    39
  6
CONTINUOUS
 10
-0.114691
 20
3.020678
  0
VERTEX
  8
EBENE_1
 62
    39
  6
CONTINUOUS
 10
-0.127576
 20
3.039277
  0
VERTEX
  8
EBENE_1
 62
    39
  6
CONTINUOUS
 10
-0.139816
 20
3.058505
  0
VERTEX
  8
EBENE_1
 62
    39
  6
CONTINUOUS
 10
-0.151363
 20
3.078360
  0
VERTEX
  8
EBENE_1
 62
    39
  6
CONTINUOUS
 10
-0.162169
 20
3.098837
  0
VERTEX
  8
EBENE_1
 62
    39
  6
CONTINUOUS
 10
-0.172186
 20
3.119935
  0
VERTEX
  8
EBENE_1
 62
    39
  6
CONTINUOUS
 10
-0.181366
 20
3.141649
  0
VERTEX
  8
EBENE_1
 62
    39
  6
CONTINUOUS
 10
-0.189661
 20
3.163976
  0
VERTEX
  8
EBENE_1
 62
    39
  6
CONTINUOUS
 10
-0.189661
 20
3.163976
  0
VERTEX
  8
EBENE_1
 62
    39
  6
CONTINUOUS
 10
-0.193409
 20
3.189646
  0
VERTEX
  8
EBENE_1
 62
    39
  6
CONTINUOUS
 10
-0.194439
 20
3.213859
  0
VERTEX
  8
EBENE_1
 62
    39
  6
CONTINUOUS
 10
-0.192916
 20
3.236500
  0
VERTEX
  8
EBENE_1
 62
    39
  6
CONTINUOUS
 10
-0.189004
 20
3.257454
  0
VERTEX
  8
EBENE_1
 62
    39
  6
CONTINUOUS
 10
-0.182868
 20
3.276604
  0
VERTEX
  8
EBENE_1
 62
    39
  6
CONTINUOUS
 10
-0.174672
 20
3.293834
  0
VERTEX
  8
EBENE_1
 62
    39
  6
CONTINUOUS
 10
-0.164581
 20
3.309029
  0
VERTEX
  8
EBENE_1
 62
    39
  6
CONTINUOUS
 10
-0.152759
 20
3.322073
  0
VERTEX
  8
EBENE_1
 62
    39
  6
CONTINUOUS
 10
-0.139371
 20
3.332851
  0
VERTEX
  8
EBENE_1
 62
    39
  6
CONTINUOUS
 10
-0.124582
 20
3.341245
  0
VERTEX
  8
EBENE_1
 62
    39
  6
CONTINUOUS
 10
-0.108555
 20
3.347142
  0
VERTEX
  8
EBENE_1
 62
    39
  6
CONTINUOUS
 10
0.231413
 20
3.437709
  0
VERTEX
  8
EBENE_1
 62
    39
  6
CONTINUOUS
 10
0.255426
 20
3.441996
  0
VERTEX
  8
EBENE_1
 62
    39
  6
CONTINUOUS
 10
0.274127
 20
3.441066
  0
VERTEX
  8
EBENE_1
 62
    39
  6
CONTINUOUS
 10
0.288611
 20
3.435858
  0
VERTEX
  8
EBENE_1
 62
    39
  6
CONTINUOUS
 10
0.299975
 20
3.427312
  0
VERTEX
  8
EBENE_1
 62
    39
  6
CONTINUOUS
 10
0.309314
 20
3.416368
  0
VERTEX
  8
EBENE_1
 62
    39
  6
CONTINUOUS
 10
0.317724
 20
3.403966
  0
VERTEX
  8
EBENE_1
 62
    39
  6
CONTINUOUS
 10
0.326301
 20
3.391048
  0
VERTEX
  8
EBENE_1
 62
    39
  6
CONTINUOUS
 10
0.336140
 20
3.378551
  0
SEQEND
  8
0
  0
POLYLINE
  8
EBENE_1
 62
    39
  6
CONTINUOUS
 66
     1
 40
0.003000
 41
0.003000
  0
VERTEX
  8
EBENE_1
 62
    39
  6
CONTINUOUS
 10
0.071224
 20
3.343764
  0
VERTEX
  8
EBENE_1
 62
    39
  6
CONTINUOUS
 10
0.076733
 20
3.345390
  0
VERTEX
  8
EBENE_1
 62
    39
  6
CONTINUOUS
 10
0.080588
 20
3.349570
  0
VERTEX
  8
EBENE_1
 62
    39
  6
CONTINUOUS
 10
0.082039
 20
3.355252
  0
SEQEND
  8
0
  0
POLYLINE
  8
EBENE_1
 62
    39
  6
CONTINUOUS
 66
     1
 40
0.003000
 41
0.003000
  0
VERTEX
  8
EBENE_1
 62
    39
  6
CONTINUOUS
 10
0.082039
 20
3.355252
  0
VERTEX
  8
EBENE_1
 62
    39
  6
CONTINUOUS
 10
0.080588
 20
3.361235
  0
VERTEX
  8
EBENE_1
 62
    39
  6
CONTINUOUS
 10
0.076733
 20
3.365264
  0
VERTEX
  8
EBENE_1
 62
    39
  6
CONTINUOUS
 10
0.071224
 20
3.366740
  0
SEQEND
  8
0
  0
POLYLINE
  8
EBENE_1
 62
    39
  6
CONTINUOUS
 66
     1
 40
0.003000
 41
0.003000
  0
VERTEX
  8
EBENE_1
 62
    39
  6
CONTINUOUS
 10
0.071224
 20
3.366740
  0
VERTEX
  8
EBENE_1
 62
    39
  6
CONTINUOUS
 10
0.065243
 20
3.365264
  0
VERTEX
  8
EBENE_1
 62
    39
  6
CONTINUOUS
 10
0.061213
 20
3.361235
  0
VERTEX
  8
EBENE_1
 62
    39
  6
CONTINUOUS
 10
0.059736
 20
3.355252
  0
SEQEND
  8
0
  0
POLYLINE
  8
EBENE_1
 62
    39
  6
CONTINUOUS
 66
     1
 40
0.003000
 41
0.003000
  0
VERTEX
  8
EBENE_1
 62
    39
  6
CONTINUOUS
 10
0.059736
 20
3.355252
  0
VERTEX
  8
EBENE_1
 62
    39
  6
CONTINUOUS
 10
0.061213
 20
3.349570
  0
VERTEX
  8
EBENE_1
 62
    39
  6
CONTINUOUS
 10
0.065243
 20
3.345390
  0
VERTEX
  8
EBENE_1
 62
    39
  6
CONTINUOUS
 10
0.071224
 20
3.343764
  0
SEQEND
  8
0
  0
POLYLINE
  8
EBENE_1
 62
    39
  6
CONTINUOUS
 66
     1
 40
0.003000
 41
0.003000
  0
VERTEX
  8
EBENE_1
 62
    39
  6
CONTINUOUS
 10
0.192209
 20
3.370122
  0
VERTEX
  8
EBENE_1
 62
    39
  6
CONTINUOUS
 10
0.198192
 20
3.371749
  0
VERTEX
  8
EBENE_1
 62
    39
  6
CONTINUOUS
 10
0.202224
 20
3.375928
  0
VERTEX
  8
EBENE_1
 62
    39
  6
CONTINUOUS
 10
0.203701
 20
3.381610
  0
SEQEND
  8
0
  0
POLYLINE
  8
EBENE_1
 62
    39
  6
CONTINUOUS
 66
     1
 40
0.003000
 41
0.003000
  0
VERTEX
  8
EBENE_1
 62
    39
  6
CONTINUOUS
 10
0.203701
 20
3.381610
  0
VERTEX
  8
EBENE_1
 62
    39
  6
CONTINUOUS
 10
0.202224
 20
3.387293
  0
VERTEX
  8
EBENE_1
 62
    39
  6
CONTINUOUS
 10
0.198192
 20
3.391475
  0
VERTEX
  8
EBENE_1
 62
    39
  6
CONTINUOUS
 10
0.192209
 20
3.393102
  0
SEQEND
  8
0
  0
POLYLINE
  8
EBENE_1
 62
    39
  6
CONTINUOUS
 66
     1
 40
0.003000
 41
0.003000
  0
VERTEX
  8
EBENE_1
 62
    39
  6
CONTINUOUS
 10
0.192209
 20
3.393102
  0
VERTEX
  8
EBENE_1
 62
    39
  6
CONTINUOUS
 10
0.186527
 20
3.391475
  0
VERTEX
  8
EBENE_1
 62
    39
  6
CONTINUOUS
 10
0.182347
 20
3.387293
  0
VERTEX
  8
EBENE_1
 62
    39
  6
CONTINUOUS
 10
0.180720
 20
3.381610
  0
SEQEND
  8
0
  0
POLYLINE
  8
EBENE_1
 62
    39
  6
CONTINUOUS
 66
     1
 40
0.003000
 41
0.003000
  0
VERTEX
  8
EBENE_1
 62
    39
  6
CONTINUOUS
 10
0.180720
 20
3.381610
  0
VERTEX
  8
EBENE_1
 62
    39
  6
CONTINUOUS
 10
0.182347
 20
3.375928
  0
VERTEX
  8
EBENE_1
 62
    39
  6
CONTINUOUS
 10
0.186527
 20
3.371749
  0
VERTEX
  8
EBENE_1
 62
    39
  6
CONTINUOUS
 10
0.192209
 20
3.370122
  0
SEQEND
  8
0
  0
POLYLINE
  8
EBENE_1
 62
    39
  6
CONTINUOUS
 66
     1
 40
0.003000
 41
0.003000
  0
VERTEX
  8
EBENE_1
 62
    39
  6
CONTINUOUS
 10
0.311165
 20
3.324839
  0
VERTEX
  8
EBENE_1
 62
    39
  6
CONTINUOUS
 10
0.316848
 20
3.326290
  0
VERTEX
  8
EBENE_1
 62
    39
  6
CONTINUOUS
 10
0.321030
 20
3.330143
  0
VERTEX
  8
EBENE_1
 62
    39
  6
CONTINUOUS
 10
0.322657
 20
3.335650
  0
SEQEND
  8
0
  0
POLYLINE
  8
EBENE_1
 62
    39
  6
CONTINUOUS
 66
     1
 40
0.003000
 41
0.003000
  0
VERTEX
  8
EBENE_1
 62
    39
  6
CONTINUOUS
 10
0.322657
 20
3.335650
  0
VERTEX
  8
EBENE_1
 62
    39
  6
CONTINUOUS
 10
0.321030
 20
3.341633
  0
VERTEX
  8
EBENE_1
 62
    39
  6
CONTINUOUS
 10
0.316848
 20
3.345664
  0
VERTEX
  8
EBENE_1
 62
    39
  6
CONTINUOUS
 10
0.311165
 20
3.347142
  0
SEQEND
  8
0
  0
POLYLINE
  8
EBENE_1
 62
    39
  6
CONTINUOUS
 66
     1
 40
0.003000
 41
0.003000
  0
VERTEX
  8
EBENE_1
 62
    39
  6
CONTINUOUS
 10
0.311165
 20
3.347142
  0
VERTEX
  8
EBENE_1
 62
    39
  6
CONTINUOUS
 10
0.305484
 20
3.345664
  0
VERTEX
  8
EBENE_1
 62
    39
  6
CONTINUOUS
 10
0.301304
 20
3.341633
  0
VERTEX
  8
EBENE_1
 62
    39
  6
CONTINUOUS
 10
0.299677
 20
3.335650
  0
SEQEND
  8
0
  0
POLYLINE
  8
EBENE_1
 62
    39
  6
CONTINUOUS
 66
     1
 40
0.003000
 41
0.003000
  0
VERTEX
  8
EBENE_1
 62
    39
  6
CONTINUOUS
 10
0.299677
 20
3.335650
  0
VERTEX
  8
EBENE_1
 62
    39
  6
CONTINUOUS
 10
0.301304
 20
3.330143
  0
VERTEX
  8
EBENE_1
 62
    39
  6
CONTINUOUS
 10
0.305484
 20
3.326290
  0
VERTEX
  8
EBENE_1
 62
    39
  6
CONTINUOUS
 10
0.311165
 20
3.324839
  0
SEQEND
  8
0
  0
POLYLINE
  8
EBENE_1
 62
    39
  6
CONTINUOUS
 66
     1
 40
0.003000
 41
0.003000
  0
VERTEX
  8
EBENE_1
 62
    39
  6
CONTINUOUS
 10
0.680878
 20
3.452579
  0
VERTEX
  8
EBENE_1
 62
    39
  6
CONTINUOUS
 10
0.997870
 20
2.932823
  0
VERTEX
  8
EBENE_1
 62
    39
  6
CONTINUOUS
 10
0.666008
 20
2.846307
  0
SEQEND
  8
0
  0
POLYLINE
  8
EBENE_1
 62
    39
  6
CONTINUOUS
 66
     1
 40
0.003000
 41
0.003000
  0
VERTEX
  8
EBENE_1
 62
    39
  6
CONTINUOUS
 10
0.666008
 20
2.846307
  0
VERTEX
  8
EBENE_1
 62
    39
  6
CONTINUOUS
 10
0.656217
 20
2.844523
  0
VERTEX
  8
EBENE_1
 62
    39
  6
CONTINUOUS
 10
0.645656
 20
2.843439
  0
VERTEX
  8
EBENE_1
 62
    39
  6
CONTINUOUS
 10
0.634372
 20
2.843050
  0
VERTEX
  8
EBENE_1
 62
    39
  6
CONTINUOUS
 10
0.622408
 20
2.843356
  0
VERTEX
  8
EBENE_1
 62
    39
  6
CONTINUOUS
 10
0.609810
 20
2.844351
  0
VERTEX
  8
EBENE_1
 62
    39
  6
CONTINUOUS
 10
0.596623
 20
2.846035
  0
VERTEX
  8
EBENE_1
 62
    39
  6
CONTINUOUS
 10
0.582892
 20
2.848403
  0
VERTEX
  8
EBENE_1
 62
    39
  6
CONTINUOUS
 10
0.568662
 20
2.851453
  0
VERTEX
  8
EBENE_1
 62
    39
  6
CONTINUOUS
 10
0.553979
 20
2.855183
  0
VERTEX
  8
EBENE_1
 62
    39
  6
CONTINUOUS
 10
0.538887
 20
2.859588
  0
VERTEX
  8
EBENE_1
 62
    39
  6
CONTINUOUS
 10
0.523431
 20
2.864667
  0
VERTEX
  8
EBENE_1
 62
    39
  6
CONTINUOUS
 10
0.507656
 20
2.870416
  0
VERTEX
  8
EBENE_1
 62
    39
  6
CONTINUOUS
 10
0.491609
 20
2.876832
  0
VERTEX
  8
EBENE_1
 62
    39
  6
CONTINUOUS
 10
0.475332
 20
2.883913
  0
VERTEX
  8
EBENE_1
 62
    39
  6
CONTINUOUS
 10
0.458873
 20
2.891656
  0
VERTEX
  8
EBENE_1
 62
    39
  6
CONTINUOUS
 10
0.442275
 20
2.900058
  0
VERTEX
  8
EBENE_1
 62
    39
  6
CONTINUOUS
 10
0.425584
 20
2.909116
  0
VERTEX
  8
EBENE_1
 62
    39
  6
CONTINUOUS
 10
0.408846
 20
2.918827
  0
VERTEX
  8
EBENE_1
 62
    39
  6
CONTINUOUS
 10
0.392104
 20
2.929188
  0
VERTEX
  8
EBENE_1
 62
    39
  6
CONTINUOUS
 10
0.375404
 20
2.940196
  0
VERTEX
  8
EBENE_1
 62
    39
  6
CONTINUOUS
 10
0.358792
 20
2.951849
  0
VERTEX
  8
EBENE_1
 62
    39
  6
CONTINUOUS
 10
0.342312
 20
2.964144
  0
VERTEX
  8
EBENE_1
 62
    39
  6
CONTINUOUS
 10
0.326009
 20
2.977077
  0
VERTEX
  8
EBENE_1
 62
    39
  6
CONTINUOUS
 10
0.309929
 20
2.990646
  0
VERTEX
  8
EBENE_1
 62
    39
  6
CONTINUOUS
 10
0.294116
 20
3.004848
  0
VERTEX
  8
EBENE_1
 62
    39
  6
CONTINUOUS
 10
0.278616
 20
3.019680
  0
VERTEX
  8
EBENE_1
 62
    39
  6
CONTINUOUS
 10
0.263473
 20
3.035139
  0
VERTEX
  8
EBENE_1
 62
    39
  6
CONTINUOUS
 10
0.248734
 20
3.051222
  0
VERTEX
  8
EBENE_1
 62
    39
  6
CONTINUOUS
 10
0.234442
 20
3.067927
  0
VERTEX
  8
EBENE_1
 62
    39
  6
CONTINUOUS
 10
0.220643
 20
3.085250
  0
VERTEX
  8
EBENE_1
 62
    39
  6
CONTINUOUS
 10
0.207383
 20
3.103189
  0
VERTEX
  8
EBENE_1
 62
    39
  6
CONTINUOUS
 10
0.194705
 20
3.121740
  0
VERTEX
  8
EBENE_1
 62
    39
  6
CONTINUOUS
 10
0.182656
 20
3.140902
  0
VERTEX
  8
EBENE_1
 62
    39
  6
CONTINUOUS
 10
0.171279
 20
3.160670
  0
VERTEX
  8
EBENE_1
 62
    39
  6
CONTINUOUS
 10
0.160622
 20
3.181043
  0
VERTEX
  8
EBENE_1
 62
    39
  6
CONTINUOUS
 10
0.150727
 20
3.202016
  0
VERTEX
  8
EBENE_1
 62
    39
  6
CONTINUOUS
 10
0.141642
 20
3.223588
  0
VERTEX
  8
EBENE_1
 62
    39
  6
CONTINUOUS
 10
0.133409
 20
3.245756
  0
SEQEND
  8
0
  0
POLYLINE
  8
EBENE_1
 62
    39
  6
CONTINUOUS
 66
     1
 40
0.003000
 41
0.003000
  0
VERTEX
  8
EBENE_1
 62
    39
  6
CONTINUOUS
 10
0.133409
 20
3.245756
  0
VERTEX
  8
EBENE_1
 62
    39
  6
CONTINUOUS
 10
0.129526
 20
3.271794
  0
VERTEX
  8
EBENE_1
 62
    39
  6
CONTINUOUS
 10
0.128452
 20
3.296366
  0
VERTEX
  8
EBENE_1
 62
    39
  6
CONTINUOUS
 10
0.130013
 20
3.319348
  0
VERTEX
  8
EBENE_1
 62
    39
  6
CONTINUOUS
 10
0.134036
 20
3.340614
  0
VERTEX
  8
EBENE_1
 62
    39
  6
CONTINUOUS
 10
0.140348
 20
3.360039
  0
VERTEX
  8
EBENE_1
 62
    39
  6
CONTINUOUS
 10
0.148774
 20
3.377500
  0
VERTEX
  8
EBENE_1
 62
    39
  6
CONTINUOUS
 10
0.159141
 20
3.392870
  0
VERTEX
  8
EBENE_1
 62
    39
  6
CONTINUOUS
 10
0.171275
 20
3.406025
  0
VERTEX
  8
EBENE_1
 62
    39
  6
CONTINUOUS
 10
0.185003
 20
3.416841
  0
VERTEX
  8
EBENE_1
 62
    39
  6
CONTINUOUS
 10
0.200150
 20
3.425192
  0
VERTEX
  8
EBENE_1
 62
    39
  6
CONTINUOUS
 10
0.216543
 20
3.430953
  0
SEQEND
  8
0
  0
POLYLINE
  8
EBENE_1
 62
    39
  6
CONTINUOUS
 66
     1
 40
0.003000
 41
0.003000
  0
VERTEX
  8
EBENE_1
 62
    39
  6
CONTINUOUS
 10
0.216543
 20
3.430953
  0
VERTEX
  8
EBENE_1
 62
    39
  6
CONTINUOUS
 10
0.561921
 20
3.523547
  0
SEQEND
  8
0
  0
POLYLINE
  8
EBENE_1
 62
    39
  6
CONTINUOUS
 66
     1
 40
0.003000
 41
0.003000
  0
VERTEX
  8
EBENE_1
 62
    39
  6
CONTINUOUS
 10
0.561921
 20
3.523547
  0
VERTEX
  8
EBENE_1
 62
    39
  6
CONTINUOUS
 10
0.586338
 20
3.527989
  0
VERTEX
  8
EBENE_1
 62
    39
  6
CONTINUOUS
 10
0.605359
 20
3.527090
  0
VERTEX
  8
EBENE_1
 62
    39
  6
CONTINUOUS
 10
0.620097
 20
3.521819
  0
VERTEX
  8
EBENE_1
 62
    39
  6
CONTINUOUS
 10
0.631664
 20
3.513144
  0
VERTEX
  8
EBENE_1
 62
    39
  6
CONTINUOUS
 10
0.641173
 20
3.502032
  0
VERTEX
  8
EBENE_1
 62
    39
  6
CONTINUOUS
 10
0.649736
 20
3.489451
  0
VERTEX
  8
EBENE_1
 62
    39
  6
CONTINUOUS
 10
0.658467
 20
3.476370
  0
VERTEX
  8
EBENE_1
 62
    39
  6
CONTINUOUS
 10
0.668476
 20
3.463757
  0
VERTEX
  8
EBENE_1
 62
    39
  6
CONTINUOUS
 10
0.680878
 20
3.452579
  0
SEQEND
  8
0
  0
POLYLINE
  8
EBENE_1
 62
    39
  6
CONTINUOUS
 66
     1
 40
0.003000
 41
0.003000
 70
     1
  0
VERTEX
  8
EBENE_1
 62
    39
  6
CONTINUOUS
 10
0.680878
 20
3.449874
  0
VERTEX
  8
EBENE_1
 62
    39
  6
CONTINUOUS
 10
0.993138
 20
2.938906
  0
VERTEX
  8
EBENE_1
 62
    39
  6
CONTINUOUS
 10
0.666008
 20
2.853744
  0
VERTEX
  8
EBENE_1
 62
    39
  6
CONTINUOUS
 10
0.656113
 20
2.851970
  0
VERTEX
  8
EBENE_1
 62
    39
  6
CONTINUOUS
 10
0.645422
 20
2.850922
  0
VERTEX
  8
EBENE_1
 62
    39
  6
CONTINUOUS
 10
0.633982
 20
2.850597
  0
VERTEX
  8
EBENE_1
 62
    39
  6
CONTINUOUS
 10
0.621842
 20
2.850990
  0
VERTEX
  8
EBENE_1
 62
    39
  6
CONTINUOUS
 10
0.609050
 20
2.852099
  0
VERTEX
  8
EBENE_1
 62
    39
  6
CONTINUOUS
 10
0.595653
 20
2.853921
  0
VERTEX
  8
EBENE_1
 62
    39
  6
CONTINUOUS
 10
0.581700
 20
2.856453
  0
VERTEX
  8
EBENE_1
 62
    39
  6
CONTINUOUS
 10
0.567238
 20
2.859690
  0
VERTEX
  8
EBENE_1
 62
    39
  6
CONTINUOUS
 10
0.552316
 20
2.863631
  0
VERTEX
  8
EBENE_1
 62
    39
  6
CONTINUOUS
 10
0.536981
 20
2.868272
  0
VERTEX
  8
EBENE_1
 62
    39
  6
CONTINUOUS
 10
0.521281
 20
2.873609
  0
VERTEX
  8
EBENE_1
 62
    39
  6
CONTINUOUS
 10
0.505265
 20
2.879640
  0
VERTEX
  8
EBENE_1
 62
    39
  6
CONTINUOUS
 10
0.488979
 20
2.886362
  0
VERTEX
  8
EBENE_1
 62
    39
  6
CONTINUOUS
 10
0.472473
 20
2.893770
  0
VERTEX
  8
EBENE_1
 62
    39
  6
CONTINUOUS
 10
0.455794
 20
2.901862
  0
VERTEX
  8
EBENE_1
 62
    39
  6
CONTINUOUS
 10
0.438991
 20
2.910635
  0
VERTEX
  8
EBENE_1
 62
    39
  6
CONTINUOUS
 10
0.422110
 20
2.920086
  0
VERTEX
  8
EBENE_1
 62
    39
  6
CONTINUOUS
 10
0.405200
 20
2.930210
  0
VERTEX
  8
EBENE_1
 62
    39
  6
CONTINUOUS
 10
0.388310
 20
2.941006
  0
VERTEX
  8
EBENE_1
 62
    39
  6
CONTINUOUS
 10
0.371486
 20
2.952470
  0
VERTEX
  8
EBENE_1
 62
    39
  6
CONTINUOUS
 10
0.354777
 20
2.964598
  0
VERTEX
  8
EBENE_1
 62
    39
  6
CONTINUOUS
 10
0.338231
 20
2.977388
  0
VERTEX
  8
EBENE_1
 62
    39
  6
CONTINUOUS
 10
0.321896
 20
2.990836
  0
VERTEX
  8
EBENE_1
 62
    39
  6
CONTINUOUS
 10
0.305819
 20
3.004939
  0
VERTEX
  8
EBENE_1
 62
    39
  6
CONTINUOUS
 10
0.290049
 20
3.019694
  0
VERTEX
  8
EBENE_1
 62
    39
  6
CONTINUOUS
 10
0.274634
 20
3.035098
  0
VERTEX
  8
EBENE_1
 62
    39
  6
CONTINUOUS
 10
0.259622
 20
3.051147
  0
VERTEX
  8
EBENE_1
 62
    39
  6
CONTINUOUS
 10
0.245060
 20
3.067838
  0
VERTEX
  8
EBENE_1
 62
    39
  6
CONTINUOUS
 10
0.230997
 20
3.085169
  0
VERTEX
  8
EBENE_1
 62
    39
  6
CONTINUOUS
 10
0.217480
 20
3.103135
  0
VERTEX
  8
EBENE_1
 62
    39
  6
CONTINUOUS
 10
0.204558
 20
3.121734
  0
VERTEX
  8
EBENE_1
 62
    39
  6
CONTINUOUS
 10
0.192278
 20
3.140962
  0
VERTEX
  8
EBENE_1
 62
    39
  6
CONTINUOUS
 10
0.180688
 20
3.160817
  0
VERTEX
  8
EBENE_1
 62
    39
  6
CONTINUOUS
 10
0.169837
 20
3.181294
  0
VERTEX
  8
EBENE_1
 62
    39
  6
CONTINUOUS
 10
0.159772
 20
3.202392
  0
VERTEX
  8
EBENE_1
 62
    39
  6
CONTINUOUS
 10
0.150541
 20
3.224106
  0
VERTEX
  8
EBENE_1
 62
    39
  6
CONTINUOUS
 10
0.142193
 20
3.246433
  0
VERTEX
  8
EBENE_1
 62
    39
  6
CONTINUOUS
 10
0.142193
 20
3.246433
  0
VERTEX
  8
EBENE_1
 62
    39
  6
CONTINUOUS
 10
0.138446
 20
3.272103
  0
VERTEX
  8
EBENE_1
 62
    39
  6
CONTINUOUS
 10
0.137420
 20
3.296317
  0
VERTEX
  8
EBENE_1
 62
    39
  6
CONTINUOUS
 10
0.138953
 20
3.318959
  0
VERTEX
  8
EBENE_1
 62
    39
  6
CONTINUOUS
 10
0.142884
 20
3.339912
  0
VERTEX
  8
EBENE_1
 62
    39
  6
CONTINUOUS
 10
0.149052
 20
3.359062
  0
VERTEX
  8
EBENE_1
 62
    39
  6
CONTINUOUS
 10
0.157294
 20
3.376292
  0
VERTEX
  8
EBENE_1
 62
    39
  6
CONTINUOUS
 10
0.167450
 20
3.391487
  0
VERTEX
  8
EBENE_1
 62
    39
  6
CONTINUOUS
 10
0.179358
 20
3.404531
  0
VERTEX
  8
EBENE_1
 62
    39
  6
CONTINUOUS
 10
0.192856
 20
3.415308
  0
VERTEX
  8
EBENE_1
 62
    39
  6
CONTINUOUS
 10
0.207782
 20
3.423702
  0
VERTEX
  8
EBENE_1
 62
    39
  6
CONTINUOUS
 10
0.223976
 20
3.429598
  0
VERTEX
  8
EBENE_1
 62
    39
  6
CONTINUOUS
 10
0.563949
 20
3.520169
  0
VERTEX
  8
EBENE_1
 62
    39
  6
CONTINUOUS
 10
0.587963
 20
3.524456
  0
VERTEX
  8
EBENE_1
 62
    39
  6
CONTINUOUS
 10
0.606664
 20
3.523524
  0
VERTEX
  8
EBENE_1
 62
    39
  6
CONTINUOUS
 10
0.621149
 20
3.518316
  0
VERTEX
  8
EBENE_1
 62
    39
  6
CONTINUOUS
 10
0.632513
 20
3.509769
  0
VERTEX
  8
EBENE_1
 62
    39
  6
CONTINUOUS
 10
0.641853
 20
3.498825
  0
VERTEX
  8
EBENE_1
 62
    39
  6
CONTINUOUS
 10
0.650263
 20
3.486423
  0
VERTEX
  8
EBENE_1
 62
    39
  6
CONTINUOUS
 10
0.658840
 20
3.473504
  0
VERTEX
  8
EBENE_1
 62
    39
  6
CONTINUOUS
 10
0.668680
 20
3.461008
  0
SEQEND
  8
0
  0
POLYLINE
  8
EBENE_1
 62
    39
  6
CONTINUOUS
 66
     1
 40
0.003000
 41
0.003000
  0
VERTEX
  8
EBENE_1
 62
    39
  6
CONTINUOUS
 10
0.403764
 20
3.426894
  0
VERTEX
  8
EBENE_1
 62
    39
  6
CONTINUOUS
 10
0.409446
 20
3.428346
  0
VERTEX
  8
EBENE_1
 62
    39
  6
CONTINUOUS
 10
0.413625
 20
3.432201
  0
VERTEX
  8
EBENE_1
 62
    39
  6
CONTINUOUS
 10
0.415252
 20
3.437709
  0
SEQEND
  8
0
  0
POLYLINE
  8
EBENE_1
 62
    39
  6
CONTINUOUS
 66
     1
 40
0.003000
 41
0.003000
  0
VERTEX
  8
EBENE_1
 62
    39
  6
CONTINUOUS
 10
0.415252
 20
3.437709
  0
VERTEX
  8
EBENE_1
 62
    39
  6
CONTINUOUS
 10
0.413625
 20
3.443692
  0
VERTEX
  8
EBENE_1
 62
    39
  6
CONTINUOUS
 10
0.409446
 20
3.447724
  0
VERTEX
  8
EBENE_1
 62
    39
  6
CONTINUOUS
 10
0.403764
 20
3.449201
  0
SEQEND
  8
0
  0
POLYLINE
  8
EBENE_1
 62
    39
  6
CONTINUOUS
 66
     1
 40
0.003000
 41
0.003000
  0
VERTEX
  8
EBENE_1
 62
    39
  6
CONTINUOUS
 10
0.403764
 20
3.449201
  0
VERTEX
  8
EBENE_1
 62
    39
  6
CONTINUOUS
 10
0.397780
 20
3.447724
  0
VERTEX
  8
EBENE_1
 62
    39
  6
CONTINUOUS
 10
0.393749
 20
3.443692
  0
VERTEX
  8
EBENE_1
 62
    39
  6
CONTINUOUS
 10
0.392272
 20
3.437709
  0
SEQEND
  8
0
  0
POLYLINE
  8
EBENE_1
 62
    39
  6
CONTINUOUS
 66
     1
 40
0.003000
 41
0.003000
  0
VERTEX
  8
EBENE_1
 62
    39
  6
CONTINUOUS
 10
0.392272
 20
3.437709
  0
VERTEX
  8
EBENE_1
 62
    39
  6
CONTINUOUS
 10
0.393749
 20
3.432201
  0
VERTEX
  8
EBENE_1
 62
    39
  6
CONTINUOUS
 10
0.397780
 20
3.428346
  0
VERTEX
  8
EBENE_1
 62
    39
  6
CONTINUOUS
 10
0.403764
 20
3.426894
  0
SEQEND
  8
0
  0
POLYLINE
  8
EBENE_1
 62
    39
  6
CONTINUOUS
 66
     1
 40
0.003000
 41
0.003000
  0
VERTEX
  8
EBENE_1
 62
    39
  6
CONTINUOUS
 10
0.524748
 20
3.452579
  0
VERTEX
  8
EBENE_1
 62
    39
  6
CONTINUOUS
 10
0.530731
 20
3.454206
  0
VERTEX
  8
EBENE_1
 62
    39
  6
CONTINUOUS
 10
0.534760
 20
3.458387
  0
VERTEX
  8
EBENE_1
 62
    39
  6
CONTINUOUS
 10
0.536236
 20
3.464067
  0
SEQEND
  8
0
  0
POLYLINE
  8
EBENE_1
 62
    39
  6
CONTINUOUS
 66
     1
 40
0.003000
 41
0.003000
  0
VERTEX
  8
EBENE_1
 62
    39
  6
CONTINUOUS
 10
0.536236
 20
3.464067
  0
VERTEX
  8
EBENE_1
 62
    39
  6
CONTINUOUS
 10
0.534760
 20
3.469752
  0
VERTEX
  8
EBENE_1
 62
    39
  6
CONTINUOUS
 10
0.530731
 20
3.473932
  0
VERTEX
  8
EBENE_1
 62
    39
  6
CONTINUOUS
 10
0.524748
 20
3.475559
  0
SEQEND
  8
0
  0
POLYLINE
  8
EBENE_1
 62
    39
  6
CONTINUOUS
 66
     1
 40
0.003000
 41
0.003000
  0
VERTEX
  8
EBENE_1
 62
    39
  6
CONTINUOUS
 10
0.524748
 20
3.475559
  0
VERTEX
  8
EBENE_1
 62
    39
  6
CONTINUOUS
 10
0.519063
 20
3.473932
  0
VERTEX
  8
EBENE_1
 62
    39
  6
CONTINUOUS
 10
0.514883
 20
3.469752
  0
VERTEX
  8
EBENE_1
 62
    39
  6
CONTINUOUS
 10
0.513256
 20
3.464067
  0
SEQEND
  8
0
  0
POLYLINE
  8
EBENE_1
 62
    39
  6
CONTINUOUS
 66
     1
 40
0.003000
 41
0.003000
  0
VERTEX
  8
EBENE_1
 62
    39
  6
CONTINUOUS
 10
0.513256
 20
3.464067
  0
VERTEX
  8
EBENE_1
 62
    39
  6
CONTINUOUS
 10
0.514883
 20
3.458387
  0
VERTEX
  8
EBENE_1
 62
    39
  6
CONTINUOUS
 10
0.519063
 20
3.454206
  0
VERTEX
  8
EBENE_1
 62
    39
  6
CONTINUOUS
 10
0.524748
 20
3.452579
  0
SEQEND
  8
0
  0
POLYLINE
  8
EBENE_1
 62
    39
  6
CONTINUOUS
 66
     1
 40
0.003000
 41
0.003000
  0
VERTEX
  8
EBENE_1
 62
    39
  6
CONTINUOUS
 10
0.643705
 20
3.407295
  0
VERTEX
  8
EBENE_1
 62
    39
  6
CONTINUOUS
 10
0.649387
 20
3.408747
  0
VERTEX
  8
EBENE_1
 62
    39
  6
CONTINUOUS
 10
0.653566
 20
3.412603
  0
VERTEX
  8
EBENE_1
 62
    39
  6
CONTINUOUS
 10
0.655193
 20
3.418110
  0
SEQEND
  8
0
  0
POLYLINE
  8
EBENE_1
 62
    39
  6
CONTINUOUS
 66
     1
 40
0.003000
 41
0.003000
  0
VERTEX
  8
EBENE_1
 62
    39
  6
CONTINUOUS
 10
0.655193
 20
3.418110
  0
VERTEX
  8
EBENE_1
 62
    39
  6
CONTINUOUS
 10
0.653566
 20
3.424091
  0
VERTEX
  8
EBENE_1
 62
    39
  6
CONTINUOUS
 10
0.649387
 20
3.428121
  0
VERTEX
  8
EBENE_1
 62
    39
  6
CONTINUOUS
 10
0.643705
 20
3.429598
  0
SEQEND
  8
0
  0
POLYLINE
  8
EBENE_1
 62
    39
  6
CONTINUOUS
 66
     1
 40
0.003000
 41
0.003000
  0
VERTEX
  8
EBENE_1
 62
    39
  6
CONTINUOUS
 10
0.643705
 20
3.429598
  0
VERTEX
  8
EBENE_1
 62
    39
  6
CONTINUOUS
 10
0.638022
 20
3.428121
  0
VERTEX
  8
EBENE_1
 62
    39
  6
CONTINUOUS
 10
0.633840
 20
3.424091
  0
VERTEX
  8
EBENE_1
 62
    39
  6
CONTINUOUS
 10
0.632213
 20
3.418110
  0
SEQEND
  8
0
  0
POLYLINE
  8
EBENE_1
 62
    39
  6
CONTINUOUS
 66
     1
 40
0.003000
 41
0.003000
  0
VERTEX
  8
EBENE_1
 62
    39
  6
CONTINUOUS
 10
0.632213
 20
3.418110
  0
VERTEX
  8
EBENE_1
 62
    39
  6
CONTINUOUS
 10
0.633840
 20
3.412603
  0
VERTEX
  8
EBENE_1
 62
    39
  6
CONTINUOUS
 10
0.638022
 20
3.408747
  0
VERTEX
  8
EBENE_1
 62
    39
  6
CONTINUOUS
 10
0.643705
 20
3.407295
  0
SEQEND
  8
0
  0
POLYLINE
  8
EBENE_1
 62
    39
  6
CONTINUOUS
 66
     1
 40
0.003000
 41
0.003000
  0
VERTEX
  8
EBENE_1
 62
    39
  6
CONTINUOUS
 10
1.257409
 20
2.654354
  0
VERTEX
  8
EBENE_1
 62
    39
  6
CONTINUOUS
 10
1.257409
 20
4.775291
  0
SEQEND
  8
0
  0
POLYLINE
  8
EBENE_1
 62
    39
  6
CONTINUOUS
 66
     1
 40
0.003000
 41
0.003000
  0
VERTEX
  8
EBENE_1
 62
    39
  6
CONTINUOUS
 10
-0.514764
 20
3.679004
  0
VERTEX
  8
EBENE_1
 62
    39
  6
CONTINUOUS
 10
-0.197772
 20
3.158567
  0
VERTEX
  8
EBENE_1
 62
    39
  6
CONTINUOUS
 10
-0.529634
 20
3.072728
  0
SEQEND
  8
0
  0
POLYLINE
  8
EBENE_1
 62
    39
  6
CONTINUOUS
 66
     1
 40
0.003000
 41
0.003000
  0
VERTEX
  8
EBENE_1
 62
    39
  6
CONTINUOUS
 10
-0.529634
 20
3.072728
  0
VERTEX
  8
EBENE_1
 62
    39
  6
CONTINUOUS
 10
-0.539425
 20
3.070945
  0
VERTEX
  8
EBENE_1
 62
    39
  6
CONTINUOUS
 10
-0.549985
 20
3.069861
  0
VERTEX
  8
EBENE_1
 62
    39
  6
CONTINUOUS
 10
-0.561270
 20
3.069472
  0
VERTEX
  8
EBENE_1
 62
    39
  6
CONTINUOUS
 10
-0.573234
 20
3.069778
  0
VERTEX
  8
EBENE_1
 62
    39
  6
CONTINUOUS
 10
-0.585832
 20
3.070774
  0
VERTEX
  8
EBENE_1
 62
    39
  6
CONTINUOUS
 10
-0.599019
 20
3.072457
  0
VERTEX
  8
EBENE_1
 62
    39
  6
CONTINUOUS
 10
-0.612750
 20
3.074826
  0
VERTEX
  8
EBENE_1
 62
    39
  6
CONTINUOUS
 10
-0.626979
 20
3.077876
  0
VERTEX
  8
EBENE_1
 62
    39
  6
CONTINUOUS
 10
-0.641663
 20
3.081606
  0
VERTEX
  8
EBENE_1
 62
    39
  6
CONTINUOUS
 10
-0.656755
 20
3.086011
  0
VERTEX
  8
EBENE_1
 62
    39
  6
CONTINUOUS
 10
-0.672211
 20
3.091090
  0
VERTEX
  8
EBENE_1
 62
    39
  6
CONTINUOUS
 10
-0.687985
 20
3.096839
  0
VERTEX
  8
EBENE_1
 62
    39
  6
CONTINUOUS
 10
-0.704033
 20
3.103255
  0
VERTEX
  8
EBENE_1
 62
    39
  6
CONTINUOUS
 10
-0.720309
 20
3.110337
  0
VERTEX
  8
EBENE_1
 62
    39
  6
CONTINUOUS
 10
-0.736769
 20
3.118080
  0
VERTEX
  8
EBENE_1
 62
    39
  6
CONTINUOUS
 10
-0.753367
 20
3.126481
  0
VERTEX
  8
EBENE_1
 62
    39
  6
CONTINUOUS
 10
-0.770057
 20
3.135539
  0
VERTEX
  8
EBENE_1
 62
    39
  6
CONTINUOUS
 10
-0.786796
 20
3.145250
  0
VERTEX
  8
EBENE_1
 62
    39
  6
CONTINUOUS
 10
-0.803538
 20
3.155611
  0
VERTEX
  8
EBENE_1
 62
    39
  6
CONTINUOUS
 10
-0.820238
 20
3.166620
  0
VERTEX
  8
EBENE_1
 62
    39
  6
CONTINUOUS
 10
-0.836850
 20
3.178273
  0
VERTEX
  8
EBENE_1
 62
    39
  6
CONTINUOUS
 10
-0.853330
 20
3.190567
  0
VERTEX
  8
EBENE_1
 62
    39
  6
CONTINUOUS
 10
-0.869633
 20
3.203500
  0
VERTEX
  8
EBENE_1
 62
    39
  6
CONTINUOUS
 10
-0.885713
 20
3.217069
  0
VERTEX
  8
EBENE_1
 62
    39
  6
CONTINUOUS
 10
-0.901526
 20
3.231271
  0
VERTEX
  8
EBENE_1
 62
    39
  6
CONTINUOUS
 10
-0.917026
 20
3.246103
  0
VERTEX
  8
EBENE_1
 62
    39
  6
CONTINUOUS
 10
-0.932168
 20
3.261562
  0
VERTEX
  8
EBENE_1
 62
    39
  6
CONTINUOUS
 10
-0.946908
 20
3.277645
  0
VERTEX
  8
EBENE_1
 62
    39
  6
CONTINUOUS
 10
-0.961200
 20
3.294350
  0
VERTEX
  8
EBENE_1
 62
    39
  6
CONTINUOUS
 10
-0.974998
 20
3.311673
  0
VERTEX
  8
EBENE_1
 62
    39
  6
CONTINUOUS
 10
-0.988259
 20
3.329612
  0
VERTEX
  8
EBENE_1
 62
    39
  6
CONTINUOUS
 10
-1.000937
 20
3.348164
  0
VERTEX
  8
EBENE_1
 62
    39
  6
CONTINUOUS
 10
-1.012986
 20
3.367326
  0
VERTEX
  8
EBENE_1
 62
    39
  6
CONTINUOUS
 10
-1.024362
 20
3.387094
  0
VERTEX
  8
EBENE_1
 62
    39
  6
CONTINUOUS
 10
-1.035020
 20
3.407467
  0
VERTEX
  8
EBENE_1
 62
    39
  6
CONTINUOUS
 10
-1.044914
 20
3.428441
  0
VERTEX
  8
EBENE_1
 62
    39
  6
CONTINUOUS
 10
-1.054000
 20
3.450013
  0
VERTEX
  8
EBENE_1
 62
    39
  6
CONTINUOUS
 10
-1.062232
 20
3.472181
  0
SEQEND
  8
0
  0
POLYLINE
  8
EBENE_1
 62
    39
  6
CONTINUOUS
 66
     1
 40
0.003000
 41
0.003000
  0
VERTEX
  8
EBENE_1
 62
    39
  6
CONTINUOUS
 10
-1.062232
 20
3.472181
  0
VERTEX
  8
EBENE_1
 62
    39
  6
CONTINUOUS
 10
-1.066116
 20
3.498218
  0
VERTEX
  8
EBENE_1
 62
    39
  6
CONTINUOUS
 10
-1.067190
 20
3.522790
  0
VERTEX
  8
EBENE_1
 62
    39
  6
CONTINUOUS
 10
-1.065629
 20
3.545771
  0
VERTEX
  8
EBENE_1
 62
    39
  6
CONTINUOUS
 10
-1.061605
 20
3.567037
  0
VERTEX
  8
EBENE_1
 62
    39
  6
CONTINUOUS
 10
-1.055294
 20
3.586463
  0
VERTEX
  8
EBENE_1
 62
    39
  6
CONTINUOUS
 10
-1.046868
 20
3.603923
  0
VERTEX
  8
EBENE_1
 62
    39
  6
CONTINUOUS
 10
-1.036501
 20
3.619293
  0
VERTEX
  8
EBENE_1
 62
    39
  6
CONTINUOUS
 10
-1.024367
 20
3.632448
  0
VERTEX
  8
EBENE_1
 62
    39
  6
CONTINUOUS
 10
-1.010639
 20
3.643263
  0
VERTEX
  8
EBENE_1
 62
    39
  6
CONTINUOUS
 10
-0.995492
 20
3.651614
  0
VERTEX
  8
EBENE_1
 62
    39
  6
CONTINUOUS
 10
-0.979098
 20
3.657374
  0
SEQEND
  8
0
  0
POLYLINE
  8
EBENE_1
 62
    39
  6
CONTINUOUS
 66
     1
 40
0.003000
 41
0.003000
  0
VERTEX
  8
EBENE_1
 62
    39
  6
CONTINUOUS
 10
-0.979098
 20
3.657374
  0
VERTEX
  8
EBENE_1
 62
    39
  6
CONTINUOUS
 10
-0.633720
 20
3.749969
  0
SEQEND
  8
0
  0
POLYLINE
  8
EBENE_1
 62
    39
  6
CONTINUOUS
 66
     1
 40
0.003000
 41
0.003000
  0
VERTEX
  8
EBENE_1
 62
    39
  6
CONTINUOUS
 10
-0.633720
 20
3.749969
  0
VERTEX
  8
EBENE_1
 62
    39
  6
CONTINUOUS
 10
-0.609304
 20
3.754411
  0
VERTEX
  8
EBENE_1
 62
    39
  6
CONTINUOUS
 10
-0.590283
 20
3.753513
  0
VERTEX
  8
EBENE_1
 62
    39
  6
CONTINUOUS
 10
-0.575545
 20
3.748243
  0
VERTEX
  8
EBENE_1
 62
    39
  6
CONTINUOUS
 10
-0.563978
 20
3.739568
  0
VERTEX
  8
EBENE_1
 62
    39
  6
CONTINUOUS
 10
-0.554469
 20
3.728457
  0
VERTEX
  8
EBENE_1
 62
    39
  6
CONTINUOUS
 10
-0.545905
 20
3.715876
  0
VERTEX
  8
EBENE_1
 62
    39
  6
CONTINUOUS
 10
-0.537175
 20
3.702796
  0
VERTEX
  8
EBENE_1
 62
    39
  6
CONTINUOUS
 10
-0.527165
 20
3.690182
  0
VERTEX
  8
EBENE_1
 62
    39
  6
CONTINUOUS
 10
-0.514764
 20
3.679004
  0
SEQEND
  8
0
  0
POLYLINE
  8
EBENE_1
 62
    39
  6
CONTINUOUS
 66
     1
 40
0.003000
 41
0.003000
 70
     1
  0
VERTEX
  8
EBENE_1
 62
    39
  6
CONTINUOUS
 10
-0.514764
 20
3.676299
  0
VERTEX
  8
EBENE_1
 62
    39
  6
CONTINUOUS
 10
-0.203181
 20
3.165327
  0
VERTEX
  8
EBENE_1
 62
    39
  6
CONTINUOUS
 10
-0.529634
 20
3.080165
  0
VERTEX
  8
EBENE_1
 62
    39
  6
CONTINUOUS
 10
-0.539529
 20
3.078392
  0
VERTEX
  8
EBENE_1
 62
    39
  6
CONTINUOUS
 10
-0.550220
 20
3.077344
  0
VERTEX
  8
EBENE_1
 62
    39
  6
CONTINUOUS
 10
-0.561659
 20
3.077018
  0
VERTEX
  8
EBENE_1
 62
    39
  6
CONTINUOUS
 10
-0.573799
 20
3.077411
  0
VERTEX
  8
EBENE_1
 62
    39
  6
CONTINUOUS
 10
-0.586592
 20
3.078521
  0
VERTEX
  8
EBENE_1
 62
    39
  6
CONTINUOUS
 10
-0.599988
 20
3.080343
  0
VERTEX
  8
EBENE_1
 62
    39
  6
CONTINUOUS
 10
-0.613942
 20
3.082874
  0
VERTEX
  8
EBENE_1
 62
    39
  6
CONTINUOUS
 10
-0.628403
 20
3.086112
  0
VERTEX
  8
EBENE_1
 62
    39
  6
CONTINUOUS
 10
-0.643326
 20
3.090053
  0
VERTEX
  8
EBENE_1
 62
    39
  6
CONTINUOUS
 10
-0.658661
 20
3.094694
  0
VERTEX
  8
EBENE_1
 62
    39
  6
CONTINUOUS
 10
-0.674361
 20
3.100032
  0
VERTEX
  8
EBENE_1
 62
    39
  6
CONTINUOUS
 10
-0.690377
 20
3.106063
  0
VERTEX
  8
EBENE_1
 62
    39
  6
CONTINUOUS
 10
-0.706662
 20
3.112784
  0
VERTEX
  8
EBENE_1
 62
    39
  6
CONTINUOUS
 10
-0.723168
 20
3.120193
  0
VERTEX
  8
EBENE_1
 62
    39
  6
CONTINUOUS
 10
-0.739847
 20
3.128285
  0
VERTEX
  8
EBENE_1
 62
    39
  6
CONTINUOUS
 10
-0.756651
 20
3.137058
  0
VERTEX
  8
EBENE_1
 62
    39
  6
CONTINUOUS
 10
-0.773532
 20
3.146509
  0
VERTEX
  8
EBENE_1
 62
    39
  6
CONTINUOUS
 10
-0.790441
 20
3.156634
  0
VERTEX
  8
EBENE_1
 62
    39
  6
CONTINUOUS
 10
-0.807332
 20
3.167429
  0
VERTEX
  8
EBENE_1
 62
    39
  6
CONTINUOUS
 10
-0.824156
 20
3.178893
  0
VERTEX
  8
EBENE_1
 62
    39
  6
CONTINUOUS
 10
-0.840865
 20
3.191022
  0
VERTEX
  8
EBENE_1
 62
    39
  6
CONTINUOUS
 10
-0.857411
 20
3.203812
  0
VERTEX
  8
EBENE_1
 62
    39
  6
CONTINUOUS
 10
-0.873746
 20
3.217260
  0
VERTEX
  8
EBENE_1
 62
    39
  6
CONTINUOUS
 10
-0.889823
 20
3.231363
  0
VERTEX
  8
EBENE_1
 62
    39
  6
CONTINUOUS
 10
-0.905592
 20
3.246118
  0
VERTEX
  8
EBENE_1
 62
    39
  6
CONTINUOUS
 10
-0.921007
 20
3.261522
  0
VERTEX
  8
EBENE_1
 62
    39
  6
CONTINUOUS
 10
-0.936020
 20
3.277571
  0
VERTEX
  8
EBENE_1
 62
    39
  6
CONTINUOUS
 10
-0.950582
 20
3.294263
  0
VERTEX
  8
EBENE_1
 62
    39
  6
CONTINUOUS
 10
-0.964645
 20
3.311593
  0
VERTEX
  8
EBENE_1
 62
    39
  6
CONTINUOUS
 10
-0.978162
 20
3.329560
  0
VERTEX
  8
EBENE_1
 62
    39
  6
CONTINUOUS
 10
-0.991084
 20
3.348159
  0
VERTEX
  8
EBENE_1
 62
    39
  6
CONTINUOUS
 10
-1.003364
 20
3.367387
  0
VERTEX
  8
EBENE_1
 62
    39
  6
CONTINUOUS
 10
-1.014954
 20
3.387242
  0
VERTEX
  8
EBENE_1
 62
    39
  6
CONTINUOUS
 10
-1.025805
 20
3.407719
  0
VERTEX
  8
EBENE_1
 62
    39
  6
CONTINUOUS
 10
-1.035870
 20
3.428817
  0
VERTEX
  8
EBENE_1
 62
    39
  6
CONTINUOUS
 10
-1.045100
 20
3.450531
  0
VERTEX
  8
EBENE_1
 62
    39
  6
CONTINUOUS
 10
-1.053449
 20
3.472858
  0
VERTEX
  8
EBENE_1
 62
    39
  6
CONTINUOUS
 10
-1.053449
 20
3.472858
  0
VERTEX
  8
EBENE_1
 62
    39
  6
CONTINUOUS
 10
-1.057196
 20
3.498527
  0
VERTEX
  8
EBENE_1
 62
    39
  6
CONTINUOUS
 10
-1.058222
 20
3.522737
  0
VERTEX
  8
EBENE_1
 62
    39
  6
CONTINUOUS
 10
-1.056689
 20
3.545369
  0
VERTEX
  8
EBENE_1
 62
    39
  6
CONTINUOUS
 10
-1.052759
 20
3.566303
  0
VERTEX
  8
EBENE_1
 62
    39
  6
CONTINUOUS
 10
-1.046591
 20
3.585422
  0
VERTEX
  8
EBENE_1
 62
    39
  6
CONTINUOUS
 10
-1.038349
 20
3.602606
  0
VERTEX
  8
EBENE_1
 62
    39
  6
CONTINUOUS
 10
-1.028193
 20
3.617737
  0
VERTEX
  8
EBENE_1
 62
    39
  6
CONTINUOUS
 10
-1.016286
 20
3.630695
  0
VERTEX
  8
EBENE_1
 62
    39
  6
CONTINUOUS
 10
-1.002788
 20
3.641362
  0
VERTEX
  8
EBENE_1
 62
    39
  6
CONTINUOUS
 10
-0.987860
 20
3.649619
  0
VERTEX
  8
EBENE_1
 62
    39
  6
CONTINUOUS
 10
-0.971665
 20
3.655346
  0
VERTEX
  8
EBENE_1
 62
    39
  6
CONTINUOUS
 10
-0.631693
 20
3.746591
  0
VERTEX
  8
EBENE_1
 62
    39
  6
CONTINUOUS
 10
-0.607679
 20
3.750878
  0
VERTEX
  8
EBENE_1
 62
    39
  6
CONTINUOUS
 10
-0.588977
 20
3.749947
  0
VERTEX
  8
EBENE_1
 62
    39
  6
CONTINUOUS
 10
-0.574493
 20
3.744739
  0
VERTEX
  8
EBENE_1
 62
    39
  6
CONTINUOUS
 10
-0.563128
 20
3.736192
  0
VERTEX
  8
EBENE_1
 62
    39
  6
CONTINUOUS
 10
-0.553789
 20
3.725248
  0
VERTEX
  8
EBENE_1
 62
    39
  6
CONTINUOUS
 10
-0.545379
 20
3.712847
  0
VERTEX
  8
EBENE_1
 62
    39
  6
CONTINUOUS
 10
-0.536802
 20
3.699928
  0
VERTEX
  8
EBENE_1
 62
    39
  6
CONTINUOUS
 10
-0.526962
 20
3.687432
  0
SEQEND
  8
0
  0
POLYLINE
  8
EBENE_1
 62
    39
  6
CONTINUOUS
 66
     1
 40
0.003000
 41
0.003000
  0
VERTEX
  8
EBENE_1
 62
    39
  6
CONTINUOUS
 10
-0.791878
 20
3.652642
  0
VERTEX
  8
EBENE_1
 62
    39
  6
CONTINUOUS
 10
-0.786371
 20
3.654269
  0
VERTEX
  8
EBENE_1
 62
    39
  6
CONTINUOUS
 10
-0.782515
 20
3.658451
  0
VERTEX
  8
EBENE_1
 62
    39
  6
CONTINUOUS
 10
-0.781063
 20
3.664134
  0
SEQEND
  8
0
  0
POLYLINE
  8
EBENE_1
 62
    39
  6
CONTINUOUS
 66
     1
 40
0.003000
 41
0.003000
  0
VERTEX
  8
EBENE_1
 62
    39
  6
CONTINUOUS
 10
-0.781063
 20
3.664134
  0
VERTEX
  8
EBENE_1
 62
    39
  6
CONTINUOUS
 10
-0.782515
 20
3.670115
  0
VERTEX
  8
EBENE_1
 62
    39
  6
CONTINUOUS
 10
-0.786371
 20
3.674145
  0
VERTEX
  8
EBENE_1
 62
    39
  6
CONTINUOUS
 10
-0.791878
 20
3.675622
  0
SEQEND
  8
0
  0
POLYLINE
  8
EBENE_1
 62
    39
  6
CONTINUOUS
 66
     1
 40
0.003000
 41
0.003000
  0
VERTEX
  8
EBENE_1
 62
    39
  6
CONTINUOUS
 10
-0.791878
 20
3.675622
  0
VERTEX
  8
EBENE_1
 62
    39
  6
CONTINUOUS
 10
-0.797862
 20
3.674145
  0
VERTEX
  8
EBENE_1
 62
    39
  6
CONTINUOUS
 10
-0.801893
 20
3.670115
  0
VERTEX
  8
EBENE_1
 62
    39
  6
CONTINUOUS
 10
-0.803370
 20
3.664134
  0
SEQEND
  8
0
  0
POLYLINE
  8
EBENE_1
 62
    39
  6
CONTINUOUS
 66
     1
 40
0.003000
 41
0.003000
  0
VERTEX
  8
EBENE_1
 62
    39
  6
CONTINUOUS
 10
-0.803370
 20
3.664134
  0
VERTEX
  8
EBENE_1
 62
    39
  6
CONTINUOUS
 10
-0.801893
 20
3.658451
  0
VERTEX
  8
EBENE_1
 62
    39
  6
CONTINUOUS
 10
-0.797862
 20
3.654269
  0
VERTEX
  8
EBENE_1
 62
    39
  6
CONTINUOUS
 10
-0.791878
 20
3.652642
  0
SEQEND
  8
0
  0
POLYLINE
  8
EBENE_1
 62
    39
  6
CONTINUOUS
 66
     1
 40
0.003000
 41
0.003000
  0
VERTEX
  8
EBENE_1
 62
    39
  6
CONTINUOUS
 10
-0.670894
 20
3.679004
  0
VERTEX
  8
EBENE_1
 62
    39
  6
CONTINUOUS
 10
-0.664911
 20
3.680631
  0
VERTEX
  8
EBENE_1
 62
    39
  6
CONTINUOUS
 10
-0.660882
 20
3.684810
  0
VERTEX
  8
EBENE_1
 62
    39
  6
CONTINUOUS
 10
-0.659406
 20
3.690492
  0
SEQEND
  8
0
  0
POLYLINE
  8
EBENE_1
 62
    39
  6
CONTINUOUS
 66
     1
 40
0.003000
 41
0.003000
  0
VERTEX
  8
EBENE_1
 62
    39
  6
CONTINUOUS
 10
-0.659406
 20
3.690492
  0
VERTEX
  8
EBENE_1
 62
    39
  6
CONTINUOUS
 10
-0.660882
 20
3.696174
  0
VERTEX
  8
EBENE_1
 62
    39
  6
CONTINUOUS
 10
-0.664911
 20
3.700354
  0
VERTEX
  8
EBENE_1
 62
    39
  6
CONTINUOUS
 10
-0.670894
 20
3.701980
  0
SEQEND
  8
0
  0
POLYLINE
  8
EBENE_1
 62
    39
  6
CONTINUOUS
 66
     1
 40
0.003000
 41
0.003000
  0
VERTEX
  8
EBENE_1
 62
    39
  6
CONTINUOUS
 10
-0.670894
 20
3.701980
  0
VERTEX
  8
EBENE_1
 62
    39
  6
CONTINUOUS
 10
-0.676578
 20
3.700354
  0
VERTEX
  8
EBENE_1
 62
    39
  6
CONTINUOUS
 10
-0.680759
 20
3.696174
  0
VERTEX
  8
EBENE_1
 62
    39
  6
CONTINUOUS
 10
-0.682386
 20
3.690492
  0
SEQEND
  8
0
  0
POLYLINE
  8
EBENE_1
 62
    39
  6
CONTINUOUS
 66
     1
 40
0.003000
 41
0.003000
  0
VERTEX
  8
EBENE_1
 62
    39
  6
CONTINUOUS
 10
-0.682386
 20
3.690492
  0
VERTEX
  8
EBENE_1
 62
    39
  6
CONTINUOUS
 10
-0.680759
 20
3.684810
  0
VERTEX
  8
EBENE_1
 62
    39
  6
CONTINUOUS
 10
-0.676578
 20
3.680631
  0
VERTEX
  8
EBENE_1
 62
    39
  6
CONTINUOUS
 10
-0.670894
 20
3.679004
  0
SEQEND
  8
0
  0
POLYLINE
  8
EBENE_1
 62
    39
  6
CONTINUOUS
 66
     1
 40
0.003000
 41
0.003000
  0
VERTEX
  8
EBENE_1
 62
    39
  6
CONTINUOUS
 10
-0.551937
 20
3.633039
  0
VERTEX
  8
EBENE_1
 62
    39
  6
CONTINUOUS
 10
-0.546257
 20
3.634667
  0
VERTEX
  8
EBENE_1
 62
    39
  6
CONTINUOUS
 10
-0.542076
 20
3.638849
  0
VERTEX
  8
EBENE_1
 62
    39
  6
CONTINUOUS
 10
-0.540449
 20
3.644531
  0
SEQEND
  8
0
  0
POLYLINE
  8
EBENE_1
 62
    39
  6
CONTINUOUS
 66
     1
 40
0.003000
 41
0.003000
  0
VERTEX
  8
EBENE_1
 62
    39
  6
CONTINUOUS
 10
-0.540449
 20
3.644531
  0
VERTEX
  8
EBENE_1
 62
    39
  6
CONTINUOUS
 10
-0.542076
 20
3.650514
  0
VERTEX
  8
EBENE_1
 62
    39
  6
CONTINUOUS
 10
-0.546257
 20
3.654543
  0
VERTEX
  8
EBENE_1
 62
    39
  6
CONTINUOUS
 10
-0.551937
 20
3.656020
  0
SEQEND
  8
0
  0
POLYLINE
  8
EBENE_1
 62
    39
  6
CONTINUOUS
 66
     1
 40
0.003000
 41
0.003000
  0
VERTEX
  8
EBENE_1
 62
    39
  6
CONTINUOUS
 10
-0.551937
 20
3.656020
  0
VERTEX
  8
EBENE_1
 62
    39
  6
CONTINUOUS
 10
-0.557620
 20
3.654543
  0
VERTEX
  8
EBENE_1
 62
    39
  6
CONTINUOUS
 10
-0.561801
 20
3.650514
  0
VERTEX
  8
EBENE_1
 62
    39
  6
CONTINUOUS
 10
-0.563429
 20
3.644531
  0
SEQEND
  8
0
  0
POLYLINE
  8
EBENE_1
 62
    39
  6
CONTINUOUS
 66
     1
 40
0.003000
 41
0.003000
  0
VERTEX
  8
EBENE_1
 62
    39
  6
CONTINUOUS
 10
-0.563429
 20
3.644531
  0
VERTEX
  8
EBENE_1
 62
    39
  6
CONTINUOUS
 10
-0.561801
 20
3.638849
  0
VERTEX
  8
EBENE_1
 62
    39
  6
CONTINUOUS
 10
-0.557620
 20
3.634667
  0
VERTEX
  8
EBENE_1
 62
    39
  6
CONTINUOUS
 10
-0.551937
 20
3.633039
  0
SEQEND
  8
0
  0
POLYLINE
  8
EBENE_1
 62
    39
  6
CONTINUOUS
 66
     1
 40
0.003000
 41
0.003000
  0
VERTEX
  8
EBENE_1
 62
    39
  6
CONTINUOUS
 10
-1.043984
 20
4.067638
  0
VERTEX
  8
EBENE_1
 62
    39
  6
CONTINUOUS
 10
-0.726992
 20
3.547882
  0
VERTEX
  8
EBENE_1
 62
    39
  6
CONTINUOUS
 10
-1.058854
 20
3.461366
  0
SEQEND
  8
0
  0
POLYLINE
  8
EBENE_1
 62
    39
  6
CONTINUOUS
 66
     1
 40
0.003000
 41
0.003000
  0
VERTEX
  8
EBENE_1
 62
    39
  6
CONTINUOUS
 10
-1.058854
 20
3.461366
  0
VERTEX
  8
EBENE_1
 62
    39
  6
CONTINUOUS
 10
-1.068644
 20
3.459582
  0
VERTEX
  8
EBENE_1
 62
    39
  6
CONTINUOUS
 10
-1.079200
 20
3.458498
  0
VERTEX
  8
EBENE_1
 62
    39
  6
CONTINUOUS
 10
-1.090479
 20
3.458109
  0
VERTEX
  8
EBENE_1
 62
    39
  6
CONTINUOUS
 10
-1.102434
 20
3.458415
  0
VERTEX
  8
EBENE_1
 62
    39
  6
CONTINUOUS
 10
-1.115022
 20
3.459410
  0
VERTEX
  8
EBENE_1
 62
    39
  6
CONTINUOUS
 10
-1.128196
 20
3.461094
  0
VERTEX
  8
EBENE_1
 62
    39
  6
CONTINUOUS
 10
-1.141914
 20
3.463462
  0
VERTEX
  8
EBENE_1
 62
    39
  6
CONTINUOUS
 10
-1.156129
 20
3.466512
  0
VERTEX
  8
EBENE_1
 62
    39
  6
CONTINUOUS
 10
-1.170796
 20
3.470242
  0
VERTEX
  8
EBENE_1
 62
    39
  6
CONTINUOUS
 10
-1.185872
 20
3.474647
  0
VERTEX
  8
EBENE_1
 62
    39
  6
CONTINUOUS
 10
-1.201311
 20
3.479726
  0
VERTEX
  8
EBENE_1
 62
    39
  6
CONTINUOUS
 10
-1.217067
 20
3.485475
  0
VERTEX
  8
EBENE_1
 62
    39
  6
CONTINUOUS
 10
-1.233097
 20
3.491891
  0
VERTEX
  8
EBENE_1
 62
    39
  6
CONTINUOUS
 10
-1.249356
 20
3.498973
  0
VERTEX
  8
EBENE_1
 62
    39
  6
CONTINUOUS
 10
-1.265798
 20
3.506715
  0
VERTEX
  8
EBENE_1
 62
    39
  6
CONTINUOUS
 10
-1.282379
 20
3.515117
  0
VERTEX
  8
EBENE_1
 62
    39
  6
CONTINUOUS
 10
-1.299053
 20
3.524175
  0
VERTEX
  8
EBENE_1
 62
    39
  6
CONTINUOUS
 10
-1.315777
 20
3.533886
  0
VERTEX
  8
EBENE_1
 62
    39
  6
CONTINUOUS
 10
-1.332505
 20
3.544247
  0
VERTEX
  8
EBENE_1
 62
    39
  6
CONTINUOUS
 10
-1.349192
 20
3.555255
  0
VERTEX
  8
EBENE_1
 62
    39
  6
CONTINUOUS
 10
-1.365794
 20
3.566908
  0
VERTEX
  8
EBENE_1
 62
    39
  6
CONTINUOUS
 10
-1.382265
 20
3.579203
  0
VERTEX
  8
EBENE_1
 62
    39
  6
CONTINUOUS
 10
-1.398560
 20
3.592136
  0
VERTEX
  8
EBENE_1
 62
    39
  6
CONTINUOUS
 10
-1.414636
 20
3.605705
  0
VERTEX
  8
EBENE_1
 62
    39
  6
CONTINUOUS
 10
-1.430447
 20
3.619907
  0
VERTEX
  8
EBENE_1
 62
    39
  6
CONTINUOUS
 10
-1.445947
 20
3.634739
  0
VERTEX
  8
EBENE_1
 62
    39
  6
CONTINUOUS
 10
-1.461093
 20
3.650198
  0
VERTEX
  8
EBENE_1
 62
    39
  6
CONTINUOUS
 10
-1.475840
 20
3.666281
  0
VERTEX
  8
EBENE_1
 62
    39
  6
CONTINUOUS
 10
-1.490142
 20
3.682986
  0
VERTEX
  8
EBENE_1
 62
    39
  6
CONTINUOUS
 10
-1.503954
 20
3.700309
  0
VERTEX
  8
EBENE_1
 62
    39
  6
CONTINUOUS
 10
-1.517233
 20
3.718248
  0
VERTEX
  8
EBENE_1
 62
    39
  6
CONTINUOUS
 10
-1.529932
 20
3.736799
  0
VERTEX
  8
EBENE_1
 62
    39
  6
CONTINUOUS
 10
-1.542008
 20
3.755961
  0
VERTEX
  8
EBENE_1
 62
    39
  6
CONTINUOUS
 10
-1.553414
 20
3.775729
  0
VERTEX
  8
EBENE_1
 62
    39
  6
CONTINUOUS
 10
-1.564108
 20
3.796102
  0
VERTEX
  8
EBENE_1
 62
    39
  6
CONTINUOUS
 10
-1.574042
 20
3.817075
  0
VERTEX
  8
EBENE_1
 62
    39
  6
CONTINUOUS
 10
-1.583174
 20
3.838647
  0
VERTEX
  8
EBENE_1
 62
    39
  6
CONTINUOUS
 10
-1.591457
 20
3.860815
  0
SEQEND
  8
0
  0
POLYLINE
  8
EBENE_1
 62
    39
  6
CONTINUOUS
 66
     1
 40
0.003000
 41
0.003000
  0
VERTEX
  8
EBENE_1
 62
    39
  6
CONTINUOUS
 10
-1.591457
 20
3.860815
  0
VERTEX
  8
EBENE_1
 62
    39
  6
CONTINUOUS
 10
-1.595339
 20
3.886852
  0
VERTEX
  8
EBENE_1
 62
    39
  6
CONTINUOUS
 10
-1.596413
 20
3.911424
  0
VERTEX
  8
EBENE_1
 62
    39
  6
CONTINUOUS
 10
-1.594851
 20
3.934405
  0
VERTEX
  8
EBENE_1
 62
    39
  6
CONTINUOUS
 10
-1.590828
 20
3.955671
  0
VERTEX
  8
EBENE_1
 62
    39
  6
CONTINUOUS
 10
-1.584516
 20
3.975097
  0
VERTEX
  8
EBENE_1
 62
    39
  6
CONTINUOUS
 10
-1.576090
 20
3.992557
  0
VERTEX
  8
EBENE_1
 62
    39
  6
CONTINUOUS
 10
-1.565723
 20
4.007927
  0
VERTEX
  8
EBENE_1
 62
    39
  6
CONTINUOUS
 10
-1.553589
 20
4.021082
  0
VERTEX
  8
EBENE_1
 62
    39
  6
CONTINUOUS
 10
-1.539861
 20
4.031897
  0
VERTEX
  8
EBENE_1
 62
    39
  6
CONTINUOUS
 10
-1.524713
 20
4.040248
  0
VERTEX
  8
EBENE_1
 62
    39
  6
CONTINUOUS
 10
-1.508319
 20
4.046008
  0
SEQEND
  8
0
  0
POLYLINE
  8
EBENE_1
 62
    39
  6
CONTINUOUS
 66
     1
 40
0.003000
 41
0.003000
  0
VERTEX
  8
EBENE_1
 62
    39
  6
CONTINUOUS
 10
-1.508319
 20
4.046008
  0
VERTEX
  8
EBENE_1
 62
    39
  6
CONTINUOUS
 10
-1.162941
 20
4.138606
  0
SEQEND
  8
0
  0
POLYLINE
  8
EBENE_1
 62
    39
  6
CONTINUOUS
 66
     1
 40
0.003000
 41
0.003000
  0
VERTEX
  8
EBENE_1
 62
    39
  6
CONTINUOUS
 10
-1.162941
 20
4.138606
  0
VERTEX
  8
EBENE_1
 62
    39
  6
CONTINUOUS
 10
-1.138524
 20
4.143048
  0
VERTEX
  8
EBENE_1
 62
    39
  6
CONTINUOUS
 10
-1.119503
 20
4.142149
  0
VERTEX
  8
EBENE_1
 62
    39
  6
CONTINUOUS
 10
-1.104765
 20
4.136878
  0
VERTEX
  8
EBENE_1
 62
    39
  6
CONTINUOUS
 10
-1.093198
 20
4.128203
  0
VERTEX
  8
EBENE_1
 62
    39
  6
CONTINUOUS
 10
-1.083689
 20
4.117091
  0
VERTEX
  8
EBENE_1
 62
    39
  6
CONTINUOUS
 10
-1.075126
 20
4.104510
  0
VERTEX
  8
EBENE_1
 62
    39
  6
CONTINUOUS
 10
-1.066396
 20
4.091429
  0
VERTEX
  8
EBENE_1
 62
    39
  6
CONTINUOUS
 10
-1.056386
 20
4.078816
  0
VERTEX
  8
EBENE_1
 62
    39
  6
CONTINUOUS
 10
-1.043984
 20
4.067638
  0
SEQEND
  8
0
  0
POLYLINE
  8
EBENE_1
 62
    39
  6
CONTINUOUS
 66
     1
 40
0.003000
 41
0.003000
 70
     1
  0
VERTEX
  8
EBENE_1
 62
    39
  6
CONTINUOUS
 10
-1.043984
 20
4.064933
  0
VERTEX
  8
EBENE_1
 62
    39
  6
CONTINUOUS
 10
-0.731724
 20
3.553961
  0
VERTEX
  8
EBENE_1
 62
    39
  6
CONTINUOUS
 10
-1.058854
 20
3.468799
  0
VERTEX
  8
EBENE_1
 62
    39
  6
CONTINUOUS
 10
-1.068749
 20
3.467026
  0
VERTEX
  8
EBENE_1
 62
    39
  6
CONTINUOUS
 10
-1.079440
 20
3.465978
  0
VERTEX
  8
EBENE_1
 62
    39
  6
CONTINUOUS
 10
-1.090880
 20
3.465653
  0
VERTEX
  8
EBENE_1
 62
    39
  6
CONTINUOUS
 10
-1.103020
 20
3.466046
  0
VERTEX
  8
EBENE_1
 62
    39
  6
CONTINUOUS
 10
-1.115812
 20
3.467156
  0
VERTEX
  8
EBENE_1
 62
    39
  6
CONTINUOUS
 10
-1.129209
 20
3.468978
  0
VERTEX
  8
EBENE_1
 62
    39
  6
CONTINUOUS
 10
-1.143162
 20
3.471509
  0
VERTEX
  8
EBENE_1
 62
    39
  6
CONTINUOUS
 10
-1.157624
 20
3.474747
  0
VERTEX
  8
EBENE_1
 62
    39
  6
CONTINUOUS
 10
-1.172546
 20
3.478689
  0
VERTEX
  8
EBENE_1
 62
    39
  6
CONTINUOUS
 10
-1.187881
 20
3.483329
  0
VERTEX
  8
EBENE_1
 62
    39
  6
CONTINUOUS
 10
-1.203580
 20
3.488667
  0
VERTEX
  8
EBENE_1
 62
    39
  6
CONTINUOUS
 10
-1.219597
 20
3.494698
  0
VERTEX
  8
EBENE_1
 62
    39
  6
CONTINUOUS
 10
-1.235882
 20
3.501420
  0
VERTEX
  8
EBENE_1
 62
    39
  6
CONTINUOUS
 10
-1.252388
 20
3.508828
  0
VERTEX
  8
EBENE_1
 62
    39
  6
CONTINUOUS
 10
-1.269067
 20
3.516921
  0
VERTEX
  8
EBENE_1
 62
    39
  6
CONTINUOUS
 10
-1.285870
 20
3.525694
  0
VERTEX
  8
EBENE_1
 62
    39
  6
CONTINUOUS
 10
-1.302751
 20
3.535144
  0
VERTEX
  8
EBENE_1
 62
    39
  6
CONTINUOUS
 10
-1.319661
 20
3.545269
  0
VERTEX
  8
EBENE_1
 62
    39
  6
CONTINUOUS
 10
-1.336551
 20
3.556065
  0
VERTEX
  8
EBENE_1
 62
    39
  6
CONTINUOUS
 10
-1.353375
 20
3.567529
  0
VERTEX
  8
EBENE_1
 62
    39
  6
CONTINUOUS
 10
-1.370084
 20
3.579657
  0
VERTEX
  8
EBENE_1
 62
    39
  6
CONTINUOUS
 10
-1.386630
 20
3.592447
  0
VERTEX
  8
EBENE_1
 62
    39
  6
CONTINUOUS
 10
-1.402965
 20
3.605895
  0
VERTEX
  8
EBENE_1
 62
    39
  6
CONTINUOUS
 10
-1.419041
 20
3.619998
  0
VERTEX
  8
EBENE_1
 62
    39
  6
CONTINUOUS
 10
-1.434811
 20
3.634753
  0
VERTEX
  8
EBENE_1
 62
    39
  6
CONTINUOUS
 10
-1.450226
 20
3.650157
  0
VERTEX
  8
EBENE_1
 62
    39
  6
CONTINUOUS
 10
-1.465239
 20
3.666206
  0
VERTEX
  8
EBENE_1
 62
    39
  6
CONTINUOUS
 10
-1.479801
 20
3.682897
  0
VERTEX
  8
EBENE_1
 62
    39
  6
CONTINUOUS
 10
-1.493864
 20
3.700228
  0
VERTEX
  8
EBENE_1
 62
    39
  6
CONTINUOUS
 10
-1.507381
 20
3.718194
  0
VERTEX
  8
EBENE_1
 62
    39
  6
CONTINUOUS
 10
-1.520303
 20
3.736793
  0
VERTEX
  8
EBENE_1
 62
    39
  6
CONTINUOUS
 10
-1.532583
 20
3.756021
  0
VERTEX
  8
EBENE_1
 62
    39
  6
CONTINUOUS
 10
-1.544173
 20
3.775876
  0
VERTEX
  8
EBENE_1
 62
    39
  6
CONTINUOUS
 10
-1.555024
 20
3.796353
  0
VERTEX
  8
EBENE_1
 62
    39
  6
CONTINUOUS
 10
-1.565090
 20
3.817451
  0
VERTEX
  8
EBENE_1
 62
    39
  6
CONTINUOUS
 10
-1.574321
 20
3.839165
  0
VERTEX
  8
EBENE_1
 62
    39
  6
CONTINUOUS
 10
-1.582669
 20
3.861492
  0
VERTEX
  8
EBENE_1
 62
    39
  6
CONTINUOUS
 10
-1.582669
 20
3.861492
  0
VERTEX
  8
EBENE_1
 62
    39
  6
CONTINUOUS
 10
-1.586400
 20
3.887162
  0
VERTEX
  8
EBENE_1
 62
    39
  6
CONTINUOUS
 10
-1.587386
 20
3.911376
  0
VERTEX
  8
EBENE_1
 62
    39
  6
CONTINUOUS
 10
-1.585798
 20
3.934018
  0
VERTEX
  8
EBENE_1
 62
    39
  6
CONTINUOUS
 10
-1.581806
 20
3.954971
  0
VERTEX
  8
EBENE_1
 62
    39
  6
CONTINUOUS
 10
-1.575581
 20
3.974121
  0
VERTEX
  8
EBENE_1
 62
    39
  6
CONTINUOUS
 10
-1.567294
 20
3.991351
  0
VERTEX
  8
EBENE_1
 62
    39
  6
CONTINUOUS
 10
-1.557114
 20
4.006546
  0
VERTEX
  8
EBENE_1
 62
    39
  6
CONTINUOUS
 10
-1.545213
 20
4.019590
  0
VERTEX
  8
EBENE_1
 62
    39
  6
CONTINUOUS
 10
-1.531760
 20
4.030367
  0
VERTEX
  8
EBENE_1
 62
    39
  6
CONTINUOUS
 10
-1.516928
 20
4.038761
  0
VERTEX
  8
EBENE_1
 62
    39
  6
CONTINUOUS
 10
-1.500886
 20
4.044657
  0
VERTEX
  8
EBENE_1
 62
    39
  6
CONTINUOUS
 10
-1.500886
 20
4.044657
  0
VERTEX
  8
EBENE_1
 62
    39
  6
CONTINUOUS
 10
-1.160913
 20
4.135224
  0
VERTEX
  8
EBENE_1
 62
    39
  6
CONTINUOUS
 10
-1.136900
 20
4.139512
  0
VERTEX
  8
EBENE_1
 62
    39
  6
CONTINUOUS
 10
-1.118198
 20
4.138581
  0
VERTEX
  8
EBENE_1
 62
    39
  6
CONTINUOUS
 10
-1.103714
 20
4.133373
  0
VERTEX
  8
EBENE_1
 62
    39
  6
CONTINUOUS
 10
-1.092350
 20
4.124826
  0
VERTEX
  8
EBENE_1
 62
    39
  6
CONTINUOUS
 10
-1.083011
 20
4.113882
  0
VERTEX
  8
EBENE_1
 62
    39
  6
CONTINUOUS
 10
-1.074601
 20
4.101480
  0
VERTEX
  8
EBENE_1
 62
    39
  6
CONTINUOUS
 10
-1.066024
 20
4.088562
  0
VERTEX
  8
EBENE_1
 62
    39
  6
CONTINUOUS
 10
-1.056184
 20
4.076066
  0
SEQEND
  8
0
  0
POLYLINE
  8
EBENE_1
 62
    39
  6
CONTINUOUS
 66
     1
 40
0.003000
 41
0.003000
  0
VERTEX
  8
EBENE_1
 62
    39
  6
CONTINUOUS
 10
-1.321098
 20
4.041276
  0
VERTEX
  8
EBENE_1
 62
    39
  6
CONTINUOUS
 10
-1.315417
 20
4.042903
  0
VERTEX
  8
EBENE_1
 62
    39
  6
CONTINUOUS
 10
-1.311237
 20
4.047085
  0
VERTEX
  8
EBENE_1
 62
    39
  6
CONTINUOUS
 10
-1.309610
 20
4.052768
  0
SEQEND
  8
0
  0
POLYLINE
  8
EBENE_1
 62
    39
  6
CONTINUOUS
 66
     1
 40
0.003000
 41
0.003000
  0
VERTEX
  8
EBENE_1
 62
    39
  6
CONTINUOUS
 10
-1.309610
 20
4.052768
  0
VERTEX
  8
EBENE_1
 62
    39
  6
CONTINUOUS
 10
-1.311237
 20
4.058751
  0
VERTEX
  8
EBENE_1
 62
    39
  6
CONTINUOUS
 10
-1.315417
 20
4.062780
  0
VERTEX
  8
EBENE_1
 62
    39
  6
CONTINUOUS
 10
-1.321098
 20
4.064256
  0
SEQEND
  8
0
  0
POLYLINE
  8
EBENE_1
 62
    39
  6
CONTINUOUS
 66
     1
 40
0.003000
 41
0.003000
  0
VERTEX
  8
EBENE_1
 62
    39
  6
CONTINUOUS
 10
-1.321098
 20
4.064256
  0
VERTEX
  8
EBENE_1
 62
    39
  6
CONTINUOUS
 10
-1.326781
 20
4.062780
  0
VERTEX
  8
EBENE_1
 62
    39
  6
CONTINUOUS
 10
-1.330963
 20
4.058751
  0
VERTEX
  8
EBENE_1
 62
    39
  6
CONTINUOUS
 10
-1.332591
 20
4.052768
  0
SEQEND
  8
0
  0
POLYLINE
  8
EBENE_1
 62
    39
  6
CONTINUOUS
 66
     1
 40
0.003000
 41
0.003000
  0
VERTEX
  8
EBENE_1
 62
    39
  6
CONTINUOUS
 10
-1.332591
 20
4.052768
  0
VERTEX
  8
EBENE_1
 62
    39
  6
CONTINUOUS
 10
-1.330963
 20
4.047085
  0
VERTEX
  8
EBENE_1
 62
    39
  6
CONTINUOUS
 10
-1.326781
 20
4.042903
  0
VERTEX
  8
EBENE_1
 62
    39
  6
CONTINUOUS
 10
-1.321098
 20
4.041276
  0
SEQEND
  8
0
  0
POLYLINE
  8
EBENE_1
 62
    39
  6
CONTINUOUS
 66
     1
 40
0.003000
 41
0.003000
  0
VERTEX
  8
EBENE_1
 62
    39
  6
CONTINUOUS
 10
-1.200114
 20
4.067638
  0
VERTEX
  8
EBENE_1
 62
    39
  6
CONTINUOUS
 10
-1.194133
 20
4.069265
  0
VERTEX
  8
EBENE_1
 62
    39
  6
CONTINUOUS
 10
-1.190103
 20
4.073444
  0
VERTEX
  8
EBENE_1
 62
    39
  6
CONTINUOUS
 10
-1.188626
 20
4.079126
  0
SEQEND
  8
0
  0
POLYLINE
  8
EBENE_1
 62
    39
  6
CONTINUOUS
 66
     1
 40
0.003000
 41
0.003000
  0
VERTEX
  8
EBENE_1
 62
    39
  6
CONTINUOUS
 10
-1.188626
 20
4.079126
  0
VERTEX
  8
EBENE_1
 62
    39
  6
CONTINUOUS
 10
-1.190103
 20
4.084809
  0
VERTEX
  8
EBENE_1
 62
    39
  6
CONTINUOUS
 10
-1.194133
 20
4.088990
  0
VERTEX
  8
EBENE_1
 62
    39
  6
CONTINUOUS
 10
-1.200114
 20
4.090618
  0
SEQEND
  8
0
  0
POLYLINE
  8
EBENE_1
 62
    39
  6
CONTINUOUS
 66
     1
 40
0.003000
 41
0.003000
  0
VERTEX
  8
EBENE_1
 62
    39
  6
CONTINUOUS
 10
-1.200114
 20
4.090618
  0
VERTEX
  8
EBENE_1
 62
    39
  6
CONTINUOUS
 10
-1.205621
 20
4.088990
  0
VERTEX
  8
EBENE_1
 62
    39
  6
CONTINUOUS
 10
-1.209477
 20
4.084809
  0
VERTEX
  8
EBENE_1
 62
    39
  6
CONTINUOUS
 10
-1.210929
 20
4.079126
  0
SEQEND
  8
0
  0
POLYLINE
  8
EBENE_1
 62
    39
  6
CONTINUOUS
 66
     1
 40
0.003000
 41
0.003000
  0
VERTEX
  8
EBENE_1
 62
    39
  6
CONTINUOUS
 10
-1.210929
 20
4.079126
  0
VERTEX
  8
EBENE_1
 62
    39
  6
CONTINUOUS
 10
-1.209477
 20
4.073444
  0
VERTEX
  8
EBENE_1
 62
    39
  6
CONTINUOUS
 10
-1.205621
 20
4.069265
  0
VERTEX
  8
EBENE_1
 62
    39
  6
CONTINUOUS
 10
-1.200114
 20
4.067638
  0
SEQEND
  8
0
  0
POLYLINE
  8
EBENE_1
 62
    39
  6
CONTINUOUS
 66
     1
 40
0.003000
 41
0.003000
  0
VERTEX
  8
EBENE_1
 62
    39
  6
CONTINUOUS
 10
-1.081157
 20
4.022350
  0
VERTEX
  8
EBENE_1
 62
    39
  6
CONTINUOUS
 10
-1.075476
 20
4.023803
  0
VERTEX
  8
EBENE_1
 62
    39
  6
CONTINUOUS
 10
-1.071296
 20
4.027659
  0
VERTEX
  8
EBENE_1
 62
    39
  6
CONTINUOUS
 10
-1.069669
 20
4.033169
  0
SEQEND
  8
0
  0
POLYLINE
  8
EBENE_1
 62
    39
  6
CONTINUOUS
 66
     1
 40
0.003000
 41
0.003000
  0
VERTEX
  8
EBENE_1
 62
    39
  6
CONTINUOUS
 10
-1.069669
 20
4.033169
  0
VERTEX
  8
EBENE_1
 62
    39
  6
CONTINUOUS
 10
-1.071296
 20
4.039150
  0
VERTEX
  8
EBENE_1
 62
    39
  6
CONTINUOUS
 10
-1.075476
 20
4.043180
  0
VERTEX
  8
EBENE_1
 62
    39
  6
CONTINUOUS
 10
-1.081157
 20
4.044657
  0
SEQEND
  8
0
  0
POLYLINE
  8
EBENE_1
 62
    39
  6
CONTINUOUS
 66
     1
 40
0.003000
 41
0.003000
  0
VERTEX
  8
EBENE_1
 62
    39
  6
CONTINUOUS
 10
-1.081157
 20
4.044657
  0
VERTEX
  8
EBENE_1
 62
    39
  6
CONTINUOUS
 10
-1.086842
 20
4.043180
  0
VERTEX
  8
EBENE_1
 62
    39
  6
CONTINUOUS
 10
-1.091023
 20
4.039150
  0
VERTEX
  8
EBENE_1
 62
    39
  6
CONTINUOUS
 10
-1.092650
 20
4.033169
  0
SEQEND
  8
0
  0
POLYLINE
  8
EBENE_1
 62
    39
  6
CONTINUOUS
 66
     1
 40
0.003000
 41
0.003000
  0
VERTEX
  8
EBENE_1
 62
    39
  6
CONTINUOUS
 10
-1.092650
 20
4.033169
  0
VERTEX
  8
EBENE_1
 62
    39
  6
CONTINUOUS
 10
-1.091023
 20
4.027659
  0
VERTEX
  8
EBENE_1
 62
    39
  6
CONTINUOUS
 10
-1.086842
 20
4.023803
  0
VERTEX
  8
EBENE_1
 62
    39
  6
CONTINUOUS
 10
-1.081157
 20
4.022350
  0
SEQEND
  8
0
  0
POLYLINE
  8
EBENE_1
 62
    39
  6
CONTINUOUS
 66
     1
 40
0.003000
 41
0.003000
  0
VERTEX
  8
EBENE_1
 62
    39
  6
CONTINUOUS
 10
-0.180201
 20
3.758756
  0
VERTEX
  8
EBENE_1
 62
    39
  6
CONTINUOUS
 10
0.136110
 20
3.239000
  0
VERTEX
  8
EBENE_1
 62
    39
  6
CONTINUOUS
 10
-0.195071
 20
3.152484
  0
SEQEND
  8
0
  0
POLYLINE
  8
EBENE_1
 62
    39
  6
CONTINUOUS
 66
     1
 40
0.003000
 41
0.003000
  0
VERTEX
  8
EBENE_1
 62
    39
  6
CONTINUOUS
 10
-0.195071
 20
3.152484
  0
VERTEX
  8
EBENE_1
 62
    39
  6
CONTINUOUS
 10
-0.204861
 20
3.150702
  0
VERTEX
  8
EBENE_1
 62
    39
  6
CONTINUOUS
 10
-0.215417
 20
3.149621
  0
VERTEX
  8
EBENE_1
 62
    39
  6
CONTINUOUS
 10
-0.226695
 20
3.149239
  0
VERTEX
  8
EBENE_1
 62
    39
  6
CONTINUOUS
 10
-0.238651
 20
3.149553
  0
VERTEX
  8
EBENE_1
 62
    39
  6
CONTINUOUS
 10
-0.251238
 20
3.150559
  0
VERTEX
  8
EBENE_1
 62
    39
  6
CONTINUOUS
 10
-0.264413
 20
3.152255
  0
VERTEX
  8
EBENE_1
 62
    39
  6
CONTINUOUS
 10
-0.278130
 20
3.154637
  0
VERTEX
  8
EBENE_1
 62
    39
  6
CONTINUOUS
 10
-0.292345
 20
3.157702
  0
VERTEX
  8
EBENE_1
 62
    39
  6
CONTINUOUS
 10
-0.307013
 20
3.161447
  0
VERTEX
  8
EBENE_1
 62
    39
  6
CONTINUOUS
 10
-0.322088
 20
3.165869
  0
VERTEX
  8
EBENE_1
 62
    39
  6
CONTINUOUS
 10
-0.337527
 20
3.170965
  0
VERTEX
  8
EBENE_1
 62
    39
  6
CONTINUOUS
 10
-0.353284
 20
3.176731
  0
VERTEX
  8
EBENE_1
 62
    39
  6
CONTINUOUS
 10
-0.369314
 20
3.183166
  0
VERTEX
  8
EBENE_1
 62
    39
  6
CONTINUOUS
 10
-0.385572
 20
3.190265
  0
VERTEX
  8
EBENE_1
 62
    39
  6
CONTINUOUS
 10
-0.402014
 20
3.198025
  0
VERTEX
  8
EBENE_1
 62
    39
  6
CONTINUOUS
 10
-0.418595
 20
3.206444
  0
VERTEX
  8
EBENE_1
 62
    39
  6
CONTINUOUS
 10
-0.435270
 20
3.215518
  0
VERTEX
  8
EBENE_1
 62
    39
  6
CONTINUOUS
 10
-0.451993
 20
3.225244
  0
VERTEX
  8
EBENE_1
 62
    39
  6
CONTINUOUS
 10
-0.468721
 20
3.235619
  0
VERTEX
  8
EBENE_1
 62
    39
  6
CONTINUOUS
 10
-0.485408
 20
3.246640
  0
VERTEX
  8
EBENE_1
 62
    39
  6
CONTINUOUS
 10
-0.502009
 20
3.258304
  0
VERTEX
  8
EBENE_1
 62
    39
  6
CONTINUOUS
 10
-0.518480
 20
3.270608
  0
VERTEX
  8
EBENE_1
 62
    39
  6
CONTINUOUS
 10
-0.534776
 20
3.283548
  0
VERTEX
  8
EBENE_1
 62
    39
  6
CONTINUOUS
 10
-0.550852
 20
3.297122
  0
VERTEX
  8
EBENE_1
 62
    39
  6
CONTINUOUS
 10
-0.566662
 20
3.311326
  0
VERTEX
  8
EBENE_1
 62
    39
  6
CONTINUOUS
 10
-0.582163
 20
3.326157
  0
VERTEX
  8
EBENE_1
 62
    39
  6
CONTINUOUS
 10
-0.597308
 20
3.341613
  0
VERTEX
  8
EBENE_1
 62
    39
  6
CONTINUOUS
 10
-0.612055
 20
3.357689
  0
VERTEX
  8
EBENE_1
 62
    39
  6
CONTINUOUS
 10
-0.626356
 20
3.374384
  0
VERTEX
  8
EBENE_1
 62
    39
  6
CONTINUOUS
 10
-0.640169
 20
3.391694
  0
VERTEX
  8
EBENE_1
 62
    39
  6
CONTINUOUS
 10
-0.653447
 20
3.409615
  0
VERTEX
  8
EBENE_1
 62
    39
  6
CONTINUOUS
 10
-0.666146
 20
3.428145
  0
VERTEX
  8
EBENE_1
 62
    39
  6
CONTINUOUS
 10
-0.678222
 20
3.447280
  0
VERTEX
  8
EBENE_1
 62
    39
  6
CONTINUOUS
 10
-0.689628
 20
3.467018
  0
VERTEX
  8
EBENE_1
 62
    39
  6
CONTINUOUS
 10
-0.700321
 20
3.487356
  0
VERTEX
  8
EBENE_1
 62
    39
  6
CONTINUOUS
 10
-0.710255
 20
3.508289
  0
VERTEX
  8
EBENE_1
 62
    39
  6
CONTINUOUS
 10
-0.719386
 20
3.529816
  0
VERTEX
  8
EBENE_1
 62
    39
  6
CONTINUOUS
 10
-0.727669
 20
3.551933
  0
SEQEND
  8
0
  0
POLYLINE
  8
EBENE_1
 62
    39
  6
CONTINUOUS
 66
     1
 40
0.003000
 41
0.003000
  0
VERTEX
  8
EBENE_1
 62
    39
  6
CONTINUOUS
 10
-0.727669
 20
3.551933
  0
VERTEX
  8
EBENE_1
 62
    39
  6
CONTINUOUS
 10
-0.731553
 20
3.577970
  0
VERTEX
  8
EBENE_1
 62
    39
  6
CONTINUOUS
 10
-0.732627
 20
3.602542
  0
VERTEX
  8
EBENE_1
 62
    39
  6
CONTINUOUS
 10
-0.731066
 20
3.625523
  0
VERTEX
  8
EBENE_1
 62
    39
  6
CONTINUOUS
 10
-0.727042
 20
3.646789
  0
VERTEX
  8
EBENE_1
 62
    39
  6
CONTINUOUS
 10
-0.720731
 20
3.666215
  0
VERTEX
  8
EBENE_1
 62
    39
  6
CONTINUOUS
 10
-0.712305
 20
3.683676
  0
VERTEX
  8
EBENE_1
 62
    39
  6
CONTINUOUS
 10
-0.701938
 20
3.699046
  0
VERTEX
  8
EBENE_1
 62
    39
  6
CONTINUOUS
 10
-0.689804
 20
3.712202
  0
VERTEX
  8
EBENE_1
 62
    39
  6
CONTINUOUS
 10
-0.676076
 20
3.723018
  0
VERTEX
  8
EBENE_1
 62
    39
  6
CONTINUOUS
 10
-0.660929
 20
3.731369
  0
VERTEX
  8
EBENE_1
 62
    39
  6
CONTINUOUS
 10
-0.644535
 20
3.737130
  0
SEQEND
  8
0
  0
POLYLINE
  8
EBENE_1
 62
    39
  6
CONTINUOUS
 66
     1
 40
0.003000
 41
0.003000
  0
VERTEX
  8
EBENE_1
 62
    39
  6
CONTINUOUS
 10
-0.644535
 20
3.737130
  0
VERTEX
  8
EBENE_1
 62
    39
  6
CONTINUOUS
 10
-0.299157
 20
3.829724
  0
SEQEND
  8
0
  0
POLYLINE
  8
EBENE_1
 62
    39
  6
CONTINUOUS
 66
     1
 40
0.003000
 41
0.003000
  0
VERTEX
  8
EBENE_1
 62
    39
  6
CONTINUOUS
 10
-0.299157
 20
3.829724
  0
VERTEX
  8
EBENE_1
 62
    39
  6
CONTINUOUS
 10
-0.274740
 20
3.834166
  0
VERTEX
  8
EBENE_1
 62
    39
  6
CONTINUOUS
 10
-0.255718
 20
3.833268
  0
VERTEX
  8
EBENE_1
 62
    39
  6
CONTINUOUS
 10
-0.240980
 20
3.827997
  0
VERTEX
  8
EBENE_1
 62
    39
  6
CONTINUOUS
 10
-0.229413
 20
3.819322
  0
VERTEX
  8
EBENE_1
 62
    39
  6
CONTINUOUS
 10
-0.219904
 20
3.808210
  0
VERTEX
  8
EBENE_1
 62
    39
  6
CONTINUOUS
 10
-0.211341
 20
3.795630
  0
VERTEX
  8
EBENE_1
 62
    39
  6
CONTINUOUS
 10
-0.202612
 20
3.782549
  0
VERTEX
  8
EBENE_1
 62
    39
  6
CONTINUOUS
 10
-0.192602
 20
3.769935
  0
VERTEX
  8
EBENE_1
 62
    39
  6
CONTINUOUS
 10
-0.180201
 20
3.758756
  0
SEQEND
  8
0
  0
POLYLINE
  8
EBENE_1
 62
    39
  6
CONTINUOUS
 66
     1
 40
0.003000
 41
0.003000
 70
     1
  0
VERTEX
  8
EBENE_1
 62
    39
  6
CONTINUOUS
 10
-0.180201
 20
3.756055
  0
VERTEX
  8
EBENE_1
 62
    39
  6
CONTINUOUS
 10
0.131382
 20
3.245083
  0
VERTEX
  8
EBENE_1
 62
    39
  6
CONTINUOUS
 10
-0.195071
 20
3.159921
  0
VERTEX
  8
EBENE_1
 62
    39
  6
CONTINUOUS
 10
-0.204964
 20
3.158148
  0
VERTEX
  8
EBENE_1
 62
    39
  6
CONTINUOUS
 10
-0.215651
 20
3.157099
  0
VERTEX
  8
EBENE_1
 62
    39
  6
CONTINUOUS
 10
-0.227084
 20
3.156774
  0
VERTEX
  8
EBENE_1
 62
    39
  6
CONTINUOUS
 10
-0.239215
 20
3.157167
  0
VERTEX
  8
EBENE_1
 62
    39
  6
CONTINUOUS
 10
-0.251996
 20
3.158276
  0
VERTEX
  8
EBENE_1
 62
    39
  6
CONTINUOUS
 10
-0.265380
 20
3.160098
  0
VERTEX
  8
EBENE_1
 62
    39
  6
CONTINUOUS
 10
-0.279319
 20
3.162630
  0
VERTEX
  8
EBENE_1
 62
    39
  6
CONTINUOUS
 10
-0.293766
 20
3.165867
  0
VERTEX
  8
EBENE_1
 62
    39
  6
CONTINUOUS
 10
-0.308671
 20
3.169808
  0
VERTEX
  8
EBENE_1
 62
    39
  6
CONTINUOUS
 10
-0.323989
 20
3.174449
  0
VERTEX
  8
EBENE_1
 62
    39
  6
CONTINUOUS
 10
-0.339671
 20
3.179787
  0
VERTEX
  8
EBENE_1
 62
    39
  6
CONTINUOUS
 10
-0.355669
 20
3.185818
  0
VERTEX
  8
EBENE_1
 62
    39
  6
CONTINUOUS
 10
-0.371936
 20
3.192539
  0
VERTEX
  8
EBENE_1
 62
    39
  6
CONTINUOUS
 10
-0.388423
 20
3.199947
  0
VERTEX
  8
EBENE_1
 62
    39
  6
CONTINUOUS
 10
-0.405084
 20
3.208039
  0
VERTEX
  8
EBENE_1
 62
    39
  6
CONTINUOUS
 10
-0.421871
 20
3.216812
  0
VERTEX
  8
EBENE_1
 62
    39
  6
CONTINUOUS
 10
-0.438735
 20
3.226263
  0
VERTEX
  8
EBENE_1
 62
    39
  6
CONTINUOUS
 10
-0.455630
 20
3.236388
  0
VERTEX
  8
EBENE_1
 62
    39
  6
CONTINUOUS
 10
-0.472507
 20
3.247183
  0
VERTEX
  8
EBENE_1
 62
    39
  6
CONTINUOUS
 10
-0.489318
 20
3.258647
  0
VERTEX
  8
EBENE_1
 62
    39
  6
CONTINUOUS
 10
-0.506017
 20
3.270775
  0
VERTEX
  8
EBENE_1
 62
    39
  6
CONTINUOUS
 10
-0.522554
 20
3.283565
  0
VERTEX
  8
EBENE_1
 62
    39
  6
CONTINUOUS
 10
-0.538883
 20
3.297013
  0
VERTEX
  8
EBENE_1
 62
    39
  6
CONTINUOUS
 10
-0.554957
 20
3.311116
  0
VERTEX
  8
EBENE_1
 62
    39
  6
CONTINUOUS
 10
-0.570726
 20
3.325871
  0
VERTEX
  8
EBENE_1
 62
    39
  6
CONTINUOUS
 10
-0.586143
 20
3.341275
  0
VERTEX
  8
EBENE_1
 62
    39
  6
CONTINUOUS
 10
-0.601161
 20
3.357324
  0
VERTEX
  8
EBENE_1
 62
    39
  6
CONTINUOUS
 10
-0.615732
 20
3.374015
  0
VERTEX
  8
EBENE_1
 62
    39
  6
CONTINUOUS
 10
-0.629809
 20
3.391346
  0
VERTEX
  8
EBENE_1
 62
    39
  6
CONTINUOUS
 10
-0.643343
 20
3.409312
  0
VERTEX
  8
EBENE_1
 62
    39
  6
CONTINUOUS
 10
-0.656286
 20
3.427911
  0
VERTEX
  8
EBENE_1
 62
    39
  6
CONTINUOUS
 10
-0.668592
 20
3.447139
  0
VERTEX
  8
EBENE_1
 62
    39
  6
CONTINUOUS
 10
-0.680212
 20
3.466994
  0
VERTEX
  8
EBENE_1
 62
    39
  6
CONTINUOUS
 10
-0.691099
 20
3.487471
  0
VERTEX
  8
EBENE_1
 62
    39
  6
CONTINUOUS
 10
-0.701205
 20
3.508569
  0
VERTEX
  8
EBENE_1
 62
    39
  6
CONTINUOUS
 10
-0.710481
 20
3.530283
  0
VERTEX
  8
EBENE_1
 62
    39
  6
CONTINUOUS
 10
-0.718882
 20
3.552610
  0
VERTEX
  8
EBENE_1
 62
    39
  6
CONTINUOUS
 10
-0.718882
 20
3.552610
  0
VERTEX
  8
EBENE_1
 62
    39
  6
CONTINUOUS
 10
-0.722614
 20
3.578281
  0
VERTEX
  8
EBENE_1
 62
    39
  6
CONTINUOUS
 10
-0.723601
 20
3.602494
  0
VERTEX
  8
EBENE_1
 62
    39
  6
CONTINUOUS
 10
-0.722013
 20
3.625136
  0
VERTEX
  8
EBENE_1
 62
    39
  6
CONTINUOUS
 10
-0.718021
 20
3.646089
  0
VERTEX
  8
EBENE_1
 62
    39
  6
CONTINUOUS
 10
-0.711796
 20
3.665239
  0
VERTEX
  8
EBENE_1
 62
    39
  6
CONTINUOUS
 10
-0.703508
 20
3.682469
  0
VERTEX
  8
EBENE_1
 62
    39
  6
CONTINUOUS
 10
-0.693328
 20
3.697664
  0
VERTEX
  8
EBENE_1
 62
    39
  6
CONTINUOUS
 10
-0.681427
 20
3.710708
  0
VERTEX
  8
EBENE_1
 62
    39
  6
CONTINUOUS
 10
-0.667976
 20
3.721485
  0
VERTEX
  8
EBENE_1
 62
    39
  6
CONTINUOUS
 10
-0.653144
 20
3.729879
  0
VERTEX
  8
EBENE_1
 62
    39
  6
CONTINUOUS
 10
-0.637102
 20
3.735776
  0
VERTEX
  8
EBENE_1
 62
    39
  6
CONTINUOUS
 10
-0.297130
 20
3.826346
  0
VERTEX
  8
EBENE_1
 62
    39
  6
CONTINUOUS
 10
-0.273115
 20
3.830811
  0
VERTEX
  8
EBENE_1
 62
    39
  6
CONTINUOUS
 10
-0.254413
 20
3.829975
  0
VERTEX
  8
EBENE_1
 62
    39
  6
CONTINUOUS
 10
-0.239928
 20
3.824794
  0
VERTEX
  8
EBENE_1
 62
    39
  6
CONTINUOUS
 10
-0.228564
 20
3.816225
  0
VERTEX
  8
EBENE_1
 62
    39
  6
CONTINUOUS
 10
-0.219225
 20
3.805226
  0
VERTEX
  8
EBENE_1
 62
    39
  6
CONTINUOUS
 10
-0.210815
 20
3.792752
  0
VERTEX
  8
EBENE_1
 62
    39
  6
CONTINUOUS
 10
-0.202238
 20
3.779761
  0
VERTEX
  8
EBENE_1
 62
    39
  6
CONTINUOUS
 10
-0.192399
 20
3.767210
  0
VERTEX
  8
EBENE_1
 62
    39
  6
CONTINUOUS
 10
-0.180201
 20
3.756055
  0
SEQEND
  8
0
  0
POLYLINE
  8
EBENE_1
 62
    39
  6
CONTINUOUS
 66
     1
 40
0.003000
 41
0.003000
  0
VERTEX
  8
EBENE_1
 62
    39
  6
CONTINUOUS
 10
-0.457315
 20
3.733075
  0
VERTEX
  8
EBENE_1
 62
    39
  6
CONTINUOUS
 10
-0.451632
 20
3.734526
  0
VERTEX
  8
EBENE_1
 62
    39
  6
CONTINUOUS
 10
-0.447451
 20
3.738380
  0
VERTEX
  8
EBENE_1
 62
    39
  6
CONTINUOUS
 10
-0.445823
 20
3.743886
  0
SEQEND
  8
0
  0
POLYLINE
  8
EBENE_1
 62
    39
  6
CONTINUOUS
 66
     1
 40
0.003000
 41
0.003000
  0
VERTEX
  8
EBENE_1
 62
    39
  6
CONTINUOUS
 10
-0.445823
 20
3.743886
  0
VERTEX
  8
EBENE_1
 62
    39
  6
CONTINUOUS
 10
-0.447451
 20
3.749870
  0
VERTEX
  8
EBENE_1
 62
    39
  6
CONTINUOUS
 10
-0.451632
 20
3.753901
  0
VERTEX
  8
EBENE_1
 62
    39
  6
CONTINUOUS
 10
-0.457315
 20
3.755378
  0
SEQEND
  8
0
  0
POLYLINE
  8
EBENE_1
 62
    39
  6
CONTINUOUS
 66
     1
 40
0.003000
 41
0.003000
  0
VERTEX
  8
EBENE_1
 62
    39
  6
CONTINUOUS
 10
-0.457315
 20
3.755378
  0
VERTEX
  8
EBENE_1
 62
    39
  6
CONTINUOUS
 10
-0.462997
 20
3.753901
  0
VERTEX
  8
EBENE_1
 62
    39
  6
CONTINUOUS
 10
-0.467176
 20
3.749870
  0
VERTEX
  8
EBENE_1
 62
    39
  6
CONTINUOUS
 10
-0.468803
 20
3.743886
  0
SEQEND
  8
0
  0
POLYLINE
  8
EBENE_1
 62
    39
  6
CONTINUOUS
 66
     1
 40
0.003000
 41
0.003000
  0
VERTEX
  8
EBENE_1
 62
    39
  6
CONTINUOUS
 10
-0.468803
 20
3.743886
  0
VERTEX
  8
EBENE_1
 62
    39
  6
CONTINUOUS
 10
-0.467176
 20
3.738380
  0
VERTEX
  8
EBENE_1
 62
    39
  6
CONTINUOUS
 10
-0.462997
 20
3.734526
  0
VERTEX
  8
EBENE_1
 62
    39
  6
CONTINUOUS
 10
-0.457315
 20
3.733075
  0
SEQEND
  8
0
  0
POLYLINE
  8
EBENE_1
 62
    39
  6
CONTINUOUS
 66
     1
 40
0.003000
 41
0.003000
  0
VERTEX
  8
EBENE_1
 62
    39
  6
CONTINUOUS
 10
-0.336331
 20
3.758756
  0
VERTEX
  8
EBENE_1
 62
    39
  6
CONTINUOUS
 10
-0.330347
 20
3.760383
  0
VERTEX
  8
EBENE_1
 62
    39
  6
CONTINUOUS
 10
-0.326316
 20
3.764563
  0
VERTEX
  8
EBENE_1
 62
    39
  6
CONTINUOUS
 10
-0.324839
 20
3.770248
  0
SEQEND
  8
0
  0
POLYLINE
  8
EBENE_1
 62
    39
  6
CONTINUOUS
 66
     1
 40
0.003000
 41
0.003000
  0
VERTEX
  8
EBENE_1
 62
    39
  6
CONTINUOUS
 10
-0.324839
 20
3.770248
  0
VERTEX
  8
EBENE_1
 62
    39
  6
CONTINUOUS
 10
-0.326316
 20
3.775930
  0
VERTEX
  8
EBENE_1
 62
    39
  6
CONTINUOUS
 10
-0.330347
 20
3.780110
  0
VERTEX
  8
EBENE_1
 62
    39
  6
CONTINUOUS
 10
-0.336331
 20
3.781736
  0
SEQEND
  8
0
  0
POLYLINE
  8
EBENE_1
 62
    39
  6
CONTINUOUS
 66
     1
 40
0.003000
 41
0.003000
  0
VERTEX
  8
EBENE_1
 62
    39
  6
CONTINUOUS
 10
-0.336331
 20
3.781736
  0
VERTEX
  8
EBENE_1
 62
    39
  6
CONTINUOUS
 10
-0.341838
 20
3.780110
  0
VERTEX
  8
EBENE_1
 62
    39
  6
CONTINUOUS
 10
-0.345693
 20
3.775930
  0
VERTEX
  8
EBENE_1
 62
    39
  6
CONTINUOUS
 10
-0.347146
 20
3.770248
  0
SEQEND
  8
0
  0
POLYLINE
  8
EBENE_1
 62
    39
  6
CONTINUOUS
 66
     1
 40
0.003000
 41
0.003000
  0
VERTEX
  8
EBENE_1
 62
    39
  6
CONTINUOUS
 10
-0.347146
 20
3.770248
  0
VERTEX
  8
EBENE_1
 62
    39
  6
CONTINUOUS
 10
-0.345693
 20
3.764563
  0
VERTEX
  8
EBENE_1
 62
    39
  6
CONTINUOUS
 10
-0.341838
 20
3.760383
  0
VERTEX
  8
EBENE_1
 62
    39
  6
CONTINUOUS
 10
-0.336331
 20
3.758756
  0
SEQEND
  8
0
  0
POLYLINE
  8
EBENE_1
 62
    39
  6
CONTINUOUS
 66
     1
 40
0.003000
 41
0.003000
  0
VERTEX
  8
EBENE_1
 62
    39
  6
CONTINUOUS
 10
-0.217374
 20
3.713472
  0
VERTEX
  8
EBENE_1
 62
    39
  6
CONTINUOUS
 10
-0.211692
 20
3.714950
  0
VERTEX
  8
EBENE_1
 62
    39
  6
CONTINUOUS
 10
-0.207513
 20
3.718980
  0
VERTEX
  8
EBENE_1
 62
    39
  6
CONTINUOUS
 10
-0.205886
 20
3.724961
  0
SEQEND
  8
0
  0
POLYLINE
  8
EBENE_1
 62
    39
  6
CONTINUOUS
 66
     1
 40
0.003000
 41
0.003000
  0
VERTEX
  8
EBENE_1
 62
    39
  6
CONTINUOUS
 10
-0.205886
 20
3.724961
  0
VERTEX
  8
EBENE_1
 62
    39
  6
CONTINUOUS
 10
-0.207513
 20
3.730468
  0
VERTEX
  8
EBENE_1
 62
    39
  6
CONTINUOUS
 10
-0.211692
 20
3.734323
  0
VERTEX
  8
EBENE_1
 62
    39
  6
CONTINUOUS
 10
-0.217374
 20
3.735776
  0
SEQEND
  8
0
  0
POLYLINE
  8
EBENE_1
 62
    39
  6
CONTINUOUS
 66
     1
 40
0.003000
 41
0.003000
  0
VERTEX
  8
EBENE_1
 62
    39
  6
CONTINUOUS
 10
-0.217374
 20
3.735776
  0
VERTEX
  8
EBENE_1
 62
    39
  6
CONTINUOUS
 10
-0.223057
 20
3.734323
  0
VERTEX
  8
EBENE_1
 62
    39
  6
CONTINUOUS
 10
-0.227238
 20
3.730468
  0
VERTEX
  8
EBENE_1
 62
    39
  6
CONTINUOUS
 10
-0.228866
 20
3.724961
  0
SEQEND
  8
0
  0
POLYLINE
  8
EBENE_1
 62
    39
  6
CONTINUOUS
 66
     1
 40
0.003000
 41
0.003000
  0
VERTEX
  8
EBENE_1
 62
    39
  6
CONTINUOUS
 10
-0.228866
 20
3.724961
  0
VERTEX
  8
EBENE_1
 62
    39
  6
CONTINUOUS
 10
-0.227238
 20
3.718980
  0
VERTEX
  8
EBENE_1
 62
    39
  6
CONTINUOUS
 10
-0.223057
 20
3.714950
  0
VERTEX
  8
EBENE_1
 62
    39
  6
CONTINUOUS
 10
-0.217374
 20
3.713472
  0
SEQEND
  8
0
  0
POLYLINE
  8
EBENE_1
 62
    39
  6
CONTINUOUS
 66
     1
 40
0.003000
 41
0.003000
  0
VERTEX
  8
EBENE_1
 62
    39
  6
CONTINUOUS
 10
0.151657
 20
3.841217
  0
VERTEX
  8
EBENE_1
 62
    39
  6
CONTINUOUS
 10
0.468650
 20
3.321457
  0
VERTEX
  8
EBENE_1
 62
    39
  6
CONTINUOUS
 10
0.136787
 20
3.234945
  0
SEQEND
  8
0
  0
POLYLINE
  8
EBENE_1
 62
    39
  6
CONTINUOUS
 66
     1
 40
0.003000
 41
0.003000
  0
VERTEX
  8
EBENE_1
 62
    39
  6
CONTINUOUS
 10
0.136787
 20
3.234945
  0
VERTEX
  8
EBENE_1
 62
    39
  6
CONTINUOUS
 10
0.126999
 20
3.233162
  0
VERTEX
  8
EBENE_1
 62
    39
  6
CONTINUOUS
 10
0.116447
 20
3.232082
  0
VERTEX
  8
EBENE_1
 62
    39
  6
CONTINUOUS
 10
0.105175
 20
3.231700
  0
VERTEX
  8
EBENE_1
 62
    39
  6
CONTINUOUS
 10
0.093229
 20
3.232013
  0
VERTEX
  8
EBENE_1
 62
    39
  6
CONTINUOUS
 10
0.080652
 20
3.233020
  0
VERTEX
  8
EBENE_1
 62
    39
  6
CONTINUOUS
 10
0.067491
 20
3.234715
  0
VERTEX
  8
EBENE_1
 62
    39
  6
CONTINUOUS
 10
0.053789
 20
3.237097
  0
VERTEX
  8
EBENE_1
 62
    39
  6
CONTINUOUS
 10
0.039591
 20
3.240162
  0
VERTEX
  8
EBENE_1
 62
    39
  6
CONTINUOUS
 10
0.024942
 20
3.243907
  0
VERTEX
  8
EBENE_1
 62
    39
  6
CONTINUOUS
 10
0.009886
 20
3.248329
  0
VERTEX
  8
EBENE_1
 62
    39
  6
CONTINUOUS
 10
-0.005531
 20
3.253425
  0
VERTEX
  8
EBENE_1
 62
    39
  6
CONTINUOUS
 10
-0.021265
 20
3.259191
  0
VERTEX
  8
EBENE_1
 62
    39
  6
CONTINUOUS
 10
-0.037271
 20
3.265626
  0
VERTEX
  8
EBENE_1
 62
    39
  6
CONTINUOUS
 10
-0.053505
 20
3.272724
  0
VERTEX
  8
EBENE_1
 62
    39
  6
CONTINUOUS
 10
-0.069922
 20
3.280485
  0
VERTEX
  8
EBENE_1
 62
    39
  6
CONTINUOUS
 10
-0.086476
 20
3.288903
  0
VERTEX
  8
EBENE_1
 62
    39
  6
CONTINUOUS
 10
-0.103125
 20
3.297977
  0
VERTEX
  8
EBENE_1
 62
    39
  6
CONTINUOUS
 10
-0.119822
 20
3.307703
  0
VERTEX
  8
EBENE_1
 62
    39
  6
CONTINUOUS
 10
-0.136523
 20
3.318078
  0
VERTEX
  8
EBENE_1
 62
    39
  6
CONTINUOUS
 10
-0.153183
 20
3.329099
  0
VERTEX
  8
EBENE_1
 62
    39
  6
CONTINUOUS
 10
-0.169758
 20
3.340763
  0
VERTEX
  8
EBENE_1
 62
    39
  6
CONTINUOUS
 10
-0.186202
 20
3.353067
  0
VERTEX
  8
EBENE_1
 62
    39
  6
CONTINUOUS
 10
-0.202472
 20
3.366007
  0
VERTEX
  8
EBENE_1
 62
    39
  6
CONTINUOUS
 10
-0.218522
 20
3.379580
  0
VERTEX
  8
EBENE_1
 62
    39
  6
CONTINUOUS
 10
-0.234308
 20
3.393785
  0
VERTEX
  8
EBENE_1
 62
    39
  6
CONTINUOUS
 10
-0.249785
 20
3.408616
  0
VERTEX
  8
EBENE_1
 62
    39
  6
CONTINUOUS
 10
-0.264909
 20
3.424072
  0
VERTEX
  8
EBENE_1
 62
    39
  6
CONTINUOUS
 10
-0.279634
 20
3.440148
  0
VERTEX
  8
EBENE_1
 62
    39
  6
CONTINUOUS
 10
-0.293915
 20
3.456843
  0
VERTEX
  8
EBENE_1
 62
    39
  6
CONTINUOUS
 10
-0.307709
 20
3.474153
  0
VERTEX
  8
EBENE_1
 62
    39
  6
CONTINUOUS
 10
-0.320971
 20
3.492074
  0
VERTEX
  8
EBENE_1
 62
    39
  6
CONTINUOUS
 10
-0.333655
 20
3.510604
  0
VERTEX
  8
EBENE_1
 62
    39
  6
CONTINUOUS
 10
-0.345717
 20
3.529740
  0
VERTEX
  8
EBENE_1
 62
    39
  6
CONTINUOUS
 10
-0.357113
 20
3.549478
  0
VERTEX
  8
EBENE_1
 62
    39
  6
CONTINUOUS
 10
-0.367797
 20
3.569816
  0
VERTEX
  8
EBENE_1
 62
    39
  6
CONTINUOUS
 10
-0.377725
 20
3.590750
  0
VERTEX
  8
EBENE_1
 62
    39
  6
CONTINUOUS
 10
-0.386852
 20
3.612277
  0
VERTEX
  8
EBENE_1
 62
    39
  6
CONTINUOUS
 10
-0.395134
 20
3.634394
  0
SEQEND
  8
0
  0
POLYLINE
  8
EBENE_1
 62
    39
  6
CONTINUOUS
 66
     1
 40
0.003000
 41
0.003000
  0
VERTEX
  8
EBENE_1
 62
    39
  6
CONTINUOUS
 10
-0.395134
 20
3.634394
  0
VERTEX
  8
EBENE_1
 62
    39
  6
CONTINUOUS
 10
-0.399017
 20
3.660431
  0
VERTEX
  8
EBENE_1
 62
    39
  6
CONTINUOUS
 10
-0.400090
 20
3.685007
  0
VERTEX
  8
EBENE_1
 62
    39
  6
CONTINUOUS
 10
-0.398529
 20
3.707998
  0
VERTEX
  8
EBENE_1
 62
    39
  6
CONTINUOUS
 10
-0.394505
 20
3.729282
  0
VERTEX
  8
EBENE_1
 62
    39
  6
CONTINUOUS
 10
-0.388194
 20
3.748739
  0
VERTEX
  8
EBENE_1
 62
    39
  6
CONTINUOUS
 10
-0.379768
 20
3.766246
  0
VERTEX
  8
EBENE_1
 62
    39
  6
CONTINUOUS
 10
-0.369401
 20
3.781680
  0
VERTEX
  8
EBENE_1
 62
    39
  6
CONTINUOUS
 10
-0.357268
 20
3.794921
  0
VERTEX
  8
EBENE_1
 62
    39
  6
CONTINUOUS
 10
-0.343540
 20
3.805847
  0
VERTEX
  8
EBENE_1
 62
    39
  6
CONTINUOUS
 10
-0.328393
 20
3.814335
  0
VERTEX
  8
EBENE_1
 62
    39
  6
CONTINUOUS
 10
-0.312000
 20
3.820264
  0
SEQEND
  8
0
  0
POLYLINE
  8
EBENE_1
 62
    39
  6
CONTINUOUS
 66
     1
 40
0.003000
 41
0.003000
  0
VERTEX
  8
EBENE_1
 62
    39
  6
CONTINUOUS
 10
-0.312000
 20
3.820264
  0
VERTEX
  8
EBENE_1
 62
    39
  6
CONTINUOUS
 10
0.032701
 20
3.912181
  0
SEQEND
  8
0
  0
POLYLINE
  8
EBENE_1
 62
    39
  6
CONTINUOUS
 66
     1
 40
0.003000
 41
0.003000
  0
VERTEX
  8
EBENE_1
 62
    39
  6
CONTINUOUS
 10
0.032701
 20
3.912181
  0
VERTEX
  8
EBENE_1
 62
    39
  6
CONTINUOUS
 10
0.057118
 20
3.916646
  0
VERTEX
  8
EBENE_1
 62
    39
  6
CONTINUOUS
 10
0.076139
 20
3.915804
  0
VERTEX
  8
EBENE_1
 62
    39
  6
CONTINUOUS
 10
0.090876
 20
3.910606
  0
VERTEX
  8
EBENE_1
 62
    39
  6
CONTINUOUS
 10
0.102444
 20
3.902004
  0
VERTEX
  8
EBENE_1
 62
    39
  6
CONTINUOUS
 10
0.111953
 20
3.890948
  0
VERTEX
  8
EBENE_1
 62
    39
  6
CONTINUOUS
 10
0.120516
 20
3.878390
  0
VERTEX
  8
EBENE_1
 62
    39
  6
CONTINUOUS
 10
0.129246
 20
3.865281
  0
VERTEX
  8
EBENE_1
 62
    39
  6
CONTINUOUS
 10
0.139256
 20
3.852573
  0
VERTEX
  8
EBENE_1
 62
    39
  6
CONTINUOUS
 10
0.151657
 20
3.841217
  0
SEQEND
  8
0
  0
POLYLINE
  8
EBENE_1
 62
    39
  6
CONTINUOUS
 66
     1
 40
0.003000
 41
0.003000
 70
     1
  0
VERTEX
  8
EBENE_1
 62
    39
  6
CONTINUOUS
 10
0.151657
 20
3.839185
  0
VERTEX
  8
EBENE_1
 62
    39
  6
CONTINUOUS
 10
0.463917
 20
3.327539
  0
VERTEX
  8
EBENE_1
 62
    39
  6
CONTINUOUS
 10
0.137465
 20
3.242378
  0
VERTEX
  8
EBENE_1
 62
    39
  6
CONTINUOUS
 10
0.127571
 20
3.240605
  0
VERTEX
  8
EBENE_1
 62
    39
  6
CONTINUOUS
 10
0.116884
 20
3.239557
  0
VERTEX
  8
EBENE_1
 62
    39
  6
CONTINUOUS
 10
0.105452
 20
3.239232
  0
VERTEX
  8
EBENE_1
 62
    39
  6
CONTINUOUS
 10
0.093321
 20
3.239626
  0
VERTEX
  8
EBENE_1
 62
    39
  6
CONTINUOUS
 10
0.080541
 20
3.240736
  0
VERTEX
  8
EBENE_1
 62
    39
  6
CONTINUOUS
 10
0.067158
 20
3.242559
  0
VERTEX
  8
EBENE_1
 62
    39
  6
CONTINUOUS
 10
0.053221
 20
3.245093
  0
VERTEX
  8
EBENE_1
 62
    39
  6
CONTINUOUS
 10
0.038777
 20
3.248333
  0
VERTEX
  8
EBENE_1
 62
    39
  6
CONTINUOUS
 10
0.023874
 20
3.252277
  0
VERTEX
  8
EBENE_1
 62
    39
  6
CONTINUOUS
 10
0.008560
 20
3.256922
  0
VERTEX
  8
EBENE_1
 62
    39
  6
CONTINUOUS
 10
-0.007117
 20
3.262264
  0
VERTEX
  8
EBENE_1
 62
    39
  6
CONTINUOUS
 10
-0.023110
 20
3.268300
  0
VERTEX
  8
EBENE_1
 62
    39
  6
CONTINUOUS
 10
-0.039371
 20
3.275028
  0
VERTEX
  8
EBENE_1
 62
    39
  6
CONTINUOUS
 10
-0.055851
 20
3.282443
  0
VERTEX
  8
EBENE_1
 62
    39
  6
CONTINUOUS
 10
-0.072504
 20
3.290544
  0
VERTEX
  8
EBENE_1
 62
    39
  6
CONTINUOUS
 10
-0.089281
 20
3.299327
  0
VERTEX
  8
EBENE_1
 62
    39
  6
CONTINUOUS
 10
-0.106134
 20
3.308788
  0
VERTEX
  8
EBENE_1
 62
    39
  6
CONTINUOUS
 10
-0.123016
 20
3.318925
  0
VERTEX
  8
EBENE_1
 62
    39
  6
CONTINUOUS
 10
-0.139879
 20
3.329735
  0
VERTEX
  8
EBENE_1
 62
    39
  6
CONTINUOUS
 10
-0.156676
 20
3.341214
  0
VERTEX
  8
EBENE_1
 62
    39
  6
CONTINUOUS
 10
-0.173357
 20
3.353359
  0
VERTEX
  8
EBENE_1
 62
    39
  6
CONTINUOUS
 10
-0.189876
 20
3.366167
  0
VERTEX
  8
EBENE_1
 62
    39
  6
CONTINUOUS
 10
-0.206185
 20
3.379635
  0
VERTEX
  8
EBENE_1
 62
    39
  6
CONTINUOUS
 10
-0.222236
 20
3.393760
  0
VERTEX
  8
EBENE_1
 62
    39
  6
CONTINUOUS
 10
-0.237981
 20
3.408539
  0
VERTEX
  8
EBENE_1
 62
    39
  6
CONTINUOUS
 10
-0.253373
 20
3.423969
  0
VERTEX
  8
EBENE_1
 62
    39
  6
CONTINUOUS
 10
-0.268363
 20
3.440046
  0
VERTEX
  8
EBENE_1
 62
    39
  6
CONTINUOUS
 10
-0.282904
 20
3.456768
  0
VERTEX
  8
EBENE_1
 62
    39
  6
CONTINUOUS
 10
-0.296947
 20
3.474130
  0
VERTEX
  8
EBENE_1
 62
    39
  6
CONTINUOUS
 10
-0.310446
 20
3.492131
  0
VERTEX
  8
EBENE_1
 62
    39
  6
CONTINUOUS
 10
-0.323353
 20
3.510767
  0
VERTEX
  8
EBENE_1
 62
    39
  6
CONTINUOUS
 10
-0.335619
 20
3.530035
  0
VERTEX
  8
EBENE_1
 62
    39
  6
CONTINUOUS
 10
-0.347196
 20
3.549932
  0
VERTEX
  8
EBENE_1
 62
    39
  6
CONTINUOUS
 10
-0.358038
 20
3.570454
  0
VERTEX
  8
EBENE_1
 62
    39
  6
CONTINUOUS
 10
-0.368096
 20
3.591599
  0
VERTEX
  8
EBENE_1
 62
    39
  6
CONTINUOUS
 10
-0.377322
 20
3.613364
  0
VERTEX
  8
EBENE_1
 62
    39
  6
CONTINUOUS
 10
-0.385669
 20
3.635744
  0
VERTEX
  8
EBENE_1
 62
    39
  6
CONTINUOUS
 10
-0.385669
 20
3.635744
  0
VERTEX
  8
EBENE_1
 62
    39
  6
CONTINUOUS
 10
-0.389570
 20
3.661246
  0
VERTEX
  8
EBENE_1
 62
    39
  6
CONTINUOUS
 10
-0.390694
 20
3.685322
  0
VERTEX
  8
EBENE_1
 62
    39
  6
CONTINUOUS
 10
-0.389217
 20
3.707854
  0
VERTEX
  8
EBENE_1
 62
    39
  6
CONTINUOUS
 10
-0.385311
 20
3.728722
  0
VERTEX
  8
EBENE_1
 62
    39
  6
CONTINUOUS
 10
-0.379150
 20
3.747807
  0
VERTEX
  8
EBENE_1
 62
    39
  6
CONTINUOUS
 10
-0.370908
 20
3.764991
  0
VERTEX
  8
EBENE_1
 62
    39
  6
CONTINUOUS
 10
-0.360759
 20
3.780155
  0
VERTEX
  8
EBENE_1
 62
    39
  6
CONTINUOUS
 10
-0.348877
 20
3.793180
  0
VERTEX
  8
EBENE_1
 62
    39
  6
CONTINUOUS
 10
-0.335434
 20
3.803947
  0
VERTEX
  8
EBENE_1
 62
    39
  6
CONTINUOUS
 10
-0.320605
 20
3.812338
  0
VERTEX
  8
EBENE_1
 62
    39
  6
CONTINUOUS
 10
-0.304563
 20
3.818232
  0
VERTEX
  8
EBENE_1
 62
    39
  6
CONTINUOUS
 10
0.034728
 20
3.908803
  0
VERTEX
  8
EBENE_1
 62
    39
  6
CONTINUOUS
 10
0.058742
 20
3.913269
  0
VERTEX
  8
EBENE_1
 62
    39
  6
CONTINUOUS
 10
0.077444
 20
3.912439
  0
VERTEX
  8
EBENE_1
 62
    39
  6
CONTINUOUS
 10
0.091929
 20
3.907275
  0
VERTEX
  8
EBENE_1
 62
    39
  6
CONTINUOUS
 10
0.103293
 20
3.898741
  0
VERTEX
  8
EBENE_1
 62
    39
  6
CONTINUOUS
 10
0.112632
 20
3.887798
  0
VERTEX
  8
EBENE_1
 62
    39
  6
CONTINUOUS
 10
0.121042
 20
3.875408
  0
VERTEX
  8
EBENE_1
 62
    39
  6
CONTINUOUS
 10
0.129620
 20
3.862535
  0
VERTEX
  8
EBENE_1
 62
    39
  6
CONTINUOUS
 10
0.139459
 20
3.850140
  0
SEQEND
  8
0
  0
POLYLINE
  8
EBENE_1
 62
    39
  6
CONTINUOUS
 66
     1
 40
0.003000
 41
0.003000
  0
VERTEX
  8
EBENE_1
 62
    39
  6
CONTINUOUS
 10
-0.125453
 20
3.815531
  0
VERTEX
  8
EBENE_1
 62
    39
  6
CONTINUOUS
 10
-0.119771
 20
3.817009
  0
VERTEX
  8
EBENE_1
 62
    39
  6
CONTINUOUS
 10
-0.115591
 20
3.821039
  0
VERTEX
  8
EBENE_1
 62
    39
  6
CONTINUOUS
 10
-0.113965
 20
3.827020
  0
SEQEND
  8
0
  0
POLYLINE
  8
EBENE_1
 62
    39
  6
CONTINUOUS
 66
     1
 40
0.003000
 41
0.003000
  0
VERTEX
  8
EBENE_1
 62
    39
  6
CONTINUOUS
 10
-0.113965
 20
3.827020
  0
VERTEX
  8
EBENE_1
 62
    39
  6
CONTINUOUS
 10
-0.115591
 20
3.832529
  0
VERTEX
  8
EBENE_1
 62
    39
  6
CONTINUOUS
 10
-0.119771
 20
3.836383
  0
VERTEX
  8
EBENE_1
 62
    39
  6
CONTINUOUS
 10
-0.125453
 20
3.837835
  0
SEQEND
  8
0
  0
POLYLINE
  8
EBENE_1
 62
    39
  6
CONTINUOUS
 66
     1
 40
0.003000
 41
0.003000
  0
VERTEX
  8
EBENE_1
 62
    39
  6
CONTINUOUS
 10
-0.125453
 20
3.837835
  0
VERTEX
  8
EBENE_1
 62
    39
  6
CONTINUOUS
 10
-0.130960
 20
3.836383
  0
VERTEX
  8
EBENE_1
 62
    39
  6
CONTINUOUS
 10
-0.134816
 20
3.832529
  0
VERTEX
  8
EBENE_1
 62
    39
  6
CONTINUOUS
 10
-0.136268
 20
3.827020
  0
SEQEND
  8
0
  0
POLYLINE
  8
EBENE_1
 62
    39
  6
CONTINUOUS
 66
     1
 40
0.003000
 41
0.003000
  0
VERTEX
  8
EBENE_1
 62
    39
  6
CONTINUOUS
 10
-0.136268
 20
3.827020
  0
VERTEX
  8
EBENE_1
 62
    39
  6
CONTINUOUS
 10
-0.134816
 20
3.821039
  0
VERTEX
  8
EBENE_1
 62
    39
  6
CONTINUOUS
 10
-0.130960
 20
3.817009
  0
VERTEX
  8
EBENE_1
 62
    39
  6
CONTINUOUS
 10
-0.125453
 20
3.815531
  0
SEQEND
  8
0
  0
POLYLINE
  8
EBENE_1
 62
    39
  6
CONTINUOUS
 66
     1
 40
0.003000
 41
0.003000
  0
VERTEX
  8
EBENE_1
 62
    39
  6
CONTINUOUS
 10
-0.003795
 20
3.841217
  0
VERTEX
  8
EBENE_1
 62
    39
  6
CONTINUOUS
 10
0.001711
 20
3.842843
  0
VERTEX
  8
EBENE_1
 62
    39
  6
CONTINUOUS
 10
0.005565
 20
3.847023
  0
VERTEX
  8
EBENE_1
 62
    39
  6
CONTINUOUS
 10
0.007016
 20
3.852705
  0
SEQEND
  8
0
  0
POLYLINE
  8
EBENE_1
 62
    39
  6
CONTINUOUS
 66
     1
 40
0.003000
 41
0.003000
  0
VERTEX
  8
EBENE_1
 62
    39
  6
CONTINUOUS
 10
0.007016
 20
3.852705
  0
VERTEX
  8
EBENE_1
 62
    39
  6
CONTINUOUS
 10
0.005565
 20
3.858388
  0
VERTEX
  8
EBENE_1
 62
    39
  6
CONTINUOUS
 10
0.001711
 20
3.862569
  0
VERTEX
  8
EBENE_1
 62
    39
  6
CONTINUOUS
 10
-0.003795
 20
3.864197
  0
SEQEND
  8
0
  0
POLYLINE
  8
EBENE_1
 62
    39
  6
CONTINUOUS
 66
     1
 40
0.003000
 41
0.003000
  0
VERTEX
  8
EBENE_1
 62
    39
  6
CONTINUOUS
 10
-0.003795
 20
3.864197
  0
VERTEX
  8
EBENE_1
 62
    39
  6
CONTINUOUS
 10
-0.009776
 20
3.862569
  0
VERTEX
  8
EBENE_1
 62
    39
  6
CONTINUOUS
 10
-0.013806
 20
3.858388
  0
VERTEX
  8
EBENE_1
 62
    39
  6
CONTINUOUS
 10
-0.015283
 20
3.852705
  0
SEQEND
  8
0
  0
POLYLINE
  8
EBENE_1
 62
    39
  6
CONTINUOUS
 66
     1
 40
0.003000
 41
0.003000
  0
VERTEX
  8
EBENE_1
 62
    39
  6
CONTINUOUS
 10
-0.015283
 20
3.852705
  0
VERTEX
  8
EBENE_1
 62
    39
  6
CONTINUOUS
 10
-0.013806
 20
3.847023
  0
VERTEX
  8
EBENE_1
 62
    39
  6
CONTINUOUS
 10
-0.009776
 20
3.842843
  0
VERTEX
  8
EBENE_1
 62
    39
  6
CONTINUOUS
 10
-0.003795
 20
3.841217
  0
SEQEND
  8
0
  0
POLYLINE
  8
EBENE_1
 62
    39
  6
CONTINUOUS
 66
     1
 40
0.003000
 41
0.003000
  0
VERTEX
  8
EBENE_1
 62
    39
  6
CONTINUOUS
 10
0.114484
 20
3.795929
  0
VERTEX
  8
EBENE_1
 62
    39
  6
CONTINUOUS
 10
0.120467
 20
3.797406
  0
VERTEX
  8
EBENE_1
 62
    39
  6
CONTINUOUS
 10
0.124496
 20
3.801437
  0
VERTEX
  8
EBENE_1
 62
    39
  6
CONTINUOUS
 10
0.125972
 20
3.807421
  0
SEQEND
  8
0
  0
POLYLINE
  8
EBENE_1
 62
    39
  6
CONTINUOUS
 66
     1
 40
0.003000
 41
0.003000
  0
VERTEX
  8
EBENE_1
 62
    39
  6
CONTINUOUS
 10
0.125972
 20
3.807421
  0
VERTEX
  8
EBENE_1
 62
    39
  6
CONTINUOUS
 10
0.124496
 20
3.812928
  0
VERTEX
  8
EBENE_1
 62
    39
  6
CONTINUOUS
 10
0.120467
 20
3.816781
  0
VERTEX
  8
EBENE_1
 62
    39
  6
CONTINUOUS
 10
0.114484
 20
3.818232
  0
SEQEND
  8
0
  0
POLYLINE
  8
EBENE_1
 62
    39
  6
CONTINUOUS
 66
     1
 40
0.003000
 41
0.003000
  0
VERTEX
  8
EBENE_1
 62
    39
  6
CONTINUOUS
 10
0.114484
 20
3.818232
  0
VERTEX
  8
EBENE_1
 62
    39
  6
CONTINUOUS
 10
0.108800
 20
3.816781
  0
VERTEX
  8
EBENE_1
 62
    39
  6
CONTINUOUS
 10
0.104619
 20
3.812928
  0
VERTEX
  8
EBENE_1
 62
    39
  6
CONTINUOUS
 10
0.102992
 20
3.807421
  0
SEQEND
  8
0
  0
POLYLINE
  8
EBENE_1
 62
    39
  6
CONTINUOUS
 66
     1
 40
0.003000
 41
0.003000
  0
VERTEX
  8
EBENE_1
 62
    39
  6
CONTINUOUS
 10
0.102992
 20
3.807421
  0
VERTEX
  8
EBENE_1
 62
    39
  6
CONTINUOUS
 10
0.104619
 20
3.801437
  0
VERTEX
  8
EBENE_1
 62
    39
  6
CONTINUOUS
 10
0.108800
 20
3.797406
  0
VERTEX
  8
EBENE_1
 62
    39
  6
CONTINUOUS
 10
0.114484
 20
3.795929
  0
SEQEND
  8
0
  0
POLYLINE
  8
EBENE_1
 62
    39
  6
CONTINUOUS
 66
     1
 40
0.003000
 41
0.003000
  0
VERTEX
  8
EBENE_1
 62
    39
  6
CONTINUOUS
 10
-0.709421
 20
4.147394
  0
VERTEX
  8
EBENE_1
 62
    39
  6
CONTINUOUS
 10
-0.391752
 20
3.627634
  0
VERTEX
  8
EBENE_1
 62
    39
  6
CONTINUOUS
 10
-0.724291
 20
3.541122
  0
SEQEND
  8
0
  0
POLYLINE
  8
EBENE_1
 62
    39
  6
CONTINUOUS
 66
     1
 40
0.003000
 41
0.003000
  0
VERTEX
  8
EBENE_1
 62
    39
  6
CONTINUOUS
 10
-0.724291
 20
3.541122
  0
VERTEX
  8
EBENE_1
 62
    39
  6
CONTINUOUS
 10
-0.734081
 20
3.539340
  0
VERTEX
  8
EBENE_1
 62
    39
  6
CONTINUOUS
 10
-0.744637
 20
3.538259
  0
VERTEX
  8
EBENE_1
 62
    39
  6
CONTINUOUS
 10
-0.755916
 20
3.537877
  0
VERTEX
  8
EBENE_1
 62
    39
  6
CONTINUOUS
 10
-0.767871
 20
3.538191
  0
VERTEX
  8
EBENE_1
 62
    39
  6
CONTINUOUS
 10
-0.780459
 20
3.539197
  0
VERTEX
  8
EBENE_1
 62
    39
  6
CONTINUOUS
 10
-0.793633
 20
3.540892
  0
VERTEX
  8
EBENE_1
 62
    39
  6
CONTINUOUS
 10
-0.807351
 20
3.543274
  0
VERTEX
  8
EBENE_1
 62
    39
  6
CONTINUOUS
 10
-0.821566
 20
3.546339
  0
VERTEX
  8
EBENE_1
 62
    39
  6
CONTINUOUS
 10
-0.836233
 20
3.550084
  0
VERTEX
  8
EBENE_1
 62
    39
  6
CONTINUOUS
 10
-0.851309
 20
3.554506
  0
VERTEX
  8
EBENE_1
 62
    39
  6
CONTINUOUS
 10
-0.866748
 20
3.559602
  0
VERTEX
  8
EBENE_1
 62
    39
  6
CONTINUOUS
 10
-0.882504
 20
3.565368
  0
VERTEX
  8
EBENE_1
 62
    39
  6
CONTINUOUS
 10
-0.898534
 20
3.571803
  0
VERTEX
  8
EBENE_1
 62
    39
  6
CONTINUOUS
 10
-0.914793
 20
3.578902
  0
VERTEX
  8
EBENE_1
 62
    39
  6
CONTINUOUS
 10
-0.931235
 20
3.586662
  0
VERTEX
  8
EBENE_1
 62
    39
  6
CONTINUOUS
 10
-0.947815
 20
3.595080
  0
VERTEX
  8
EBENE_1
 62
    39
  6
CONTINUOUS
 10
-0.964490
 20
3.604154
  0
VERTEX
  8
EBENE_1
 62
    39
  6
CONTINUOUS
 10
-0.981214
 20
3.613880
  0
VERTEX
  8
EBENE_1
 62
    39
  6
CONTINUOUS
 10
-0.997941
 20
3.624255
  0
VERTEX
  8
EBENE_1
 62
    39
  6
CONTINUOUS
 10
-1.014628
 20
3.635276
  0
VERTEX
  8
EBENE_1
 62
    39
  6
CONTINUOUS
 10
-1.031230
 20
3.646940
  0
VERTEX
  8
EBENE_1
 62
    39
  6
CONTINUOUS
 10
-1.047701
 20
3.659244
  0
VERTEX
  8
EBENE_1
 62
    39
  6
CONTINUOUS
 10
-1.063997
 20
3.672184
  0
VERTEX
  8
EBENE_1
 62
    39
  6
CONTINUOUS
 10
-1.080072
 20
3.685758
  0
VERTEX
  8
EBENE_1
 62
    39
  6
CONTINUOUS
 10
-1.095883
 20
3.699962
  0
VERTEX
  8
EBENE_1
 62
    39
  6
CONTINUOUS
 10
-1.111383
 20
3.714793
  0
VERTEX
  8
EBENE_1
 62
    39
  6
CONTINUOUS
 10
-1.126529
 20
3.730249
  0
VERTEX
  8
EBENE_1
 62
    39
  6
CONTINUOUS
 10
-1.141275
 20
3.746325
  0
VERTEX
  8
EBENE_1
 62
    39
  6
CONTINUOUS
 10
-1.155577
 20
3.763020
  0
VERTEX
  8
EBENE_1
 62
    39
  6
CONTINUOUS
 10
-1.169389
 20
3.780330
  0
VERTEX
  8
EBENE_1
 62
    39
  6
CONTINUOUS
 10
-1.182668
 20
3.798251
  0
VERTEX
  8
EBENE_1
 62
    39
  6
CONTINUOUS
 10
-1.195367
 20
3.816781
  0
VERTEX
  8
EBENE_1
 62
    39
  6
CONTINUOUS
 10
-1.207442
 20
3.835917
  0
VERTEX
  8
EBENE_1
 62
    39
  6
CONTINUOUS
 10
-1.218849
 20
3.855655
  0
VERTEX
  8
EBENE_1
 62
    39
  6
CONTINUOUS
 10
-1.229542
 20
3.875993
  0
VERTEX
  8
EBENE_1
 62
    39
  6
CONTINUOUS
 10
-1.239476
 20
3.896927
  0
VERTEX
  8
EBENE_1
 62
    39
  6
CONTINUOUS
 10
-1.248607
 20
3.918454
  0
VERTEX
  8
EBENE_1
 62
    39
  6
CONTINUOUS
 10
-1.256890
 20
3.940571
  0
SEQEND
  8
0
  0
POLYLINE
  8
EBENE_1
 62
    39
  6
CONTINUOUS
 66
     1
 40
0.003000
 41
0.003000
  0
VERTEX
  8
EBENE_1
 62
    39
  6
CONTINUOUS
 10
-1.256890
 20
3.940571
  0
VERTEX
  8
EBENE_1
 62
    39
  6
CONTINUOUS
 10
-1.260773
 20
3.966609
  0
VERTEX
  8
EBENE_1
 62
    39
  6
CONTINUOUS
 10
-1.261848
 20
3.991184
  0
VERTEX
  8
EBENE_1
 62
    39
  6
CONTINUOUS
 10
-1.260286
 20
4.014175
  0
VERTEX
  8
EBENE_1
 62
    39
  6
CONTINUOUS
 10
-1.256263
 20
4.035459
  0
VERTEX
  8
EBENE_1
 62
    39
  6
CONTINUOUS
 10
-1.249951
 20
4.054916
  0
VERTEX
  8
EBENE_1
 62
    39
  6
CONTINUOUS
 10
-1.241525
 20
4.072423
  0
VERTEX
  8
EBENE_1
 62
    39
  6
CONTINUOUS
 10
-1.231158
 20
4.087858
  0
VERTEX
  8
EBENE_1
 62
    39
  6
CONTINUOUS
 10
-1.219024
 20
4.101099
  0
VERTEX
  8
EBENE_1
 62
    39
  6
CONTINUOUS
 10
-1.205297
 20
4.112024
  0
VERTEX
  8
EBENE_1
 62
    39
  6
CONTINUOUS
 10
-1.190149
 20
4.120512
  0
VERTEX
  8
EBENE_1
 62
    39
  6
CONTINUOUS
 10
-1.173756
 20
4.126441
  0
SEQEND
  8
0
  0
POLYLINE
  8
EBENE_1
 62
    39
  6
CONTINUOUS
 66
     1
 40
0.003000
 41
0.003000
  0
VERTEX
  8
EBENE_1
 62
    39
  6
CONTINUOUS
 10
-1.173756
 20
4.126441
  0
VERTEX
  8
EBENE_1
 62
    39
  6
CONTINUOUS
 10
-0.828378
 20
4.219035
  0
SEQEND
  8
0
  0
POLYLINE
  8
EBENE_1
 62
    39
  6
CONTINUOUS
 66
     1
 40
0.003000
 41
0.003000
  0
VERTEX
  8
EBENE_1
 62
    39
  6
CONTINUOUS
 10
-0.828378
 20
4.219035
  0
VERTEX
  8
EBENE_1
 62
    39
  6
CONTINUOUS
 10
-0.803938
 20
4.223299
  0
VERTEX
  8
EBENE_1
 62
    39
  6
CONTINUOUS
 10
-0.784860
 20
4.222300
  0
VERTEX
  8
EBENE_1
 62
    39
  6
CONTINUOUS
 10
-0.770050
 20
4.216984
  0
VERTEX
  8
EBENE_1
 62
    39
  6
CONTINUOUS
 10
-0.758411
 20
4.208297
  0
VERTEX
  8
EBENE_1
 62
    39
  6
CONTINUOUS
 10
-0.748846
 20
4.197184
  0
VERTEX
  8
EBENE_1
 62
    39
  6
CONTINUOUS
 10
-0.740261
 20
4.184592
  0
VERTEX
  8
EBENE_1
 62
    39
  6
CONTINUOUS
 10
-0.731559
 20
4.171466
  0
VERTEX
  8
EBENE_1
 62
    39
  6
CONTINUOUS
 10
-0.721644
 20
4.158751
  0
VERTEX
  8
EBENE_1
 62
    39
  6
CONTINUOUS
 10
-0.709421
 20
4.147394
  0
SEQEND
  8
0
  0
POLYLINE
  8
EBENE_1
 62
    39
  6
CONTINUOUS
 66
     1
 40
0.003000
 41
0.003000
 70
     1
  0
VERTEX
  8
EBENE_1
 62
    39
  6
CONTINUOUS
 10
-0.709421
 20
4.145366
  0
VERTEX
  8
EBENE_1
 62
    39
  6
CONTINUOUS
 10
-0.397161
 20
3.633717
  0
VERTEX
  8
EBENE_1
 62
    39
  6
CONTINUOUS
 10
-0.723614
 20
3.548555
  0
VERTEX
  8
EBENE_1
 62
    39
  6
CONTINUOUS
 10
-0.733509
 20
3.546782
  0
VERTEX
  8
EBENE_1
 62
    39
  6
CONTINUOUS
 10
-0.744200
 20
3.545734
  0
VERTEX
  8
EBENE_1
 62
    39
  6
CONTINUOUS
 10
-0.755640
 20
3.545409
  0
VERTEX
  8
EBENE_1
 62
    39
  6
CONTINUOUS
 10
-0.767779
 20
3.545803
  0
VERTEX
  8
EBENE_1
 62
    39
  6
CONTINUOUS
 10
-0.780572
 20
3.546913
  0
VERTEX
  8
EBENE_1
 62
    39
  6
CONTINUOUS
 10
-0.793968
 20
3.548737
  0
VERTEX
  8
EBENE_1
 62
    39
  6
CONTINUOUS
 10
-0.807922
 20
3.551270
  0
VERTEX
  8
EBENE_1
 62
    39
  6
CONTINUOUS
 10
-0.822383
 20
3.554510
  0
VERTEX
  8
EBENE_1
 62
    39
  6
CONTINUOUS
 10
-0.837306
 20
3.558454
  0
VERTEX
  8
EBENE_1
 62
    39
  6
CONTINUOUS
 10
-0.852641
 20
3.563099
  0
VERTEX
  8
EBENE_1
 62
    39
  6
CONTINUOUS
 10
-0.868340
 20
3.568441
  0
VERTEX
  8
EBENE_1
 62
    39
  6
CONTINUOUS
 10
-0.884357
 20
3.574477
  0
VERTEX
  8
EBENE_1
 62
    39
  6
CONTINUOUS
 10
-0.900642
 20
3.581205
  0
VERTEX
  8
EBENE_1
 62
    39
  6
CONTINUOUS
 10
-0.917148
 20
3.588621
  0
VERTEX
  8
EBENE_1
 62
    39
  6
CONTINUOUS
 10
-0.933826
 20
3.596721
  0
VERTEX
  8
EBENE_1
 62
    39
  6
CONTINUOUS
 10
-0.950630
 20
3.605504
  0
VERTEX
  8
EBENE_1
 62
    39
  6
CONTINUOUS
 10
-0.967511
 20
3.614965
  0
VERTEX
  8
EBENE_1
 62
    39
  6
CONTINUOUS
 10
-0.984420
 20
3.625102
  0
VERTEX
  8
EBENE_1
 62
    39
  6
CONTINUOUS
 10
-1.001311
 20
3.635912
  0
VERTEX
  8
EBENE_1
 62
    39
  6
CONTINUOUS
 10
-1.018135
 20
3.647391
  0
VERTEX
  8
EBENE_1
 62
    39
  6
CONTINUOUS
 10
-1.034844
 20
3.659536
  0
VERTEX
  8
EBENE_1
 62
    39
  6
CONTINUOUS
 10
-1.051390
 20
3.672344
  0
VERTEX
  8
EBENE_1
 62
    39
  6
CONTINUOUS
 10
-1.067725
 20
3.685812
  0
VERTEX
  8
EBENE_1
 62
    39
  6
CONTINUOUS
 10
-1.083801
 20
3.699938
  0
VERTEX
  8
EBENE_1
 62
    39
  6
CONTINUOUS
 10
-1.099571
 20
3.714717
  0
VERTEX
  8
EBENE_1
 62
    39
  6
CONTINUOUS
 10
-1.114986
 20
3.730146
  0
VERTEX
  8
EBENE_1
 62
    39
  6
CONTINUOUS
 10
-1.129999
 20
3.746223
  0
VERTEX
  8
EBENE_1
 62
    39
  6
CONTINUOUS
 10
-1.144560
 20
3.762945
  0
VERTEX
  8
EBENE_1
 62
    39
  6
CONTINUOUS
 10
-1.158624
 20
3.780308
  0
VERTEX
  8
EBENE_1
 62
    39
  6
CONTINUOUS
 10
-1.172141
 20
3.798309
  0
VERTEX
  8
EBENE_1
 62
    39
  6
CONTINUOUS
 10
-1.185063
 20
3.816945
  0
VERTEX
  8
EBENE_1
 62
    39
  6
CONTINUOUS
 10
-1.197343
 20
3.836212
  0
VERTEX
  8
EBENE_1
 62
    39
  6
CONTINUOUS
 10
-1.208933
 20
3.856109
  0
VERTEX
  8
EBENE_1
 62
    39
  6
CONTINUOUS
 10
-1.219784
 20
3.876631
  0
VERTEX
  8
EBENE_1
 62
    39
  6
CONTINUOUS
 10
-1.229849
 20
3.897776
  0
VERTEX
  8
EBENE_1
 62
    39
  6
CONTINUOUS
 10
-1.239080
 20
3.919541
  0
VERTEX
  8
EBENE_1
 62
    39
  6
CONTINUOUS
 10
-1.247429
 20
3.941921
  0
VERTEX
  8
EBENE_1
 62
    39
  6
CONTINUOUS
 10
-1.247429
 20
3.941921
  0
VERTEX
  8
EBENE_1
 62
    39
  6
CONTINUOUS
 10
-1.251328
 20
3.967423
  0
VERTEX
  8
EBENE_1
 62
    39
  6
CONTINUOUS
 10
-1.252452
 20
3.991500
  0
VERTEX
  8
EBENE_1
 62
    39
  6
CONTINUOUS
 10
-1.250974
 20
4.014031
  0
VERTEX
  8
EBENE_1
 62
    39
  6
CONTINUOUS
 10
-1.247068
 20
4.034899
  0
VERTEX
  8
EBENE_1
 62
    39
  6
CONTINUOUS
 10
-1.240907
 20
4.053985
  0
VERTEX
  8
EBENE_1
 62
    39
  6
CONTINUOUS
 10
-1.232665
 20
4.071169
  0
VERTEX
  8
EBENE_1
 62
    39
  6
CONTINUOUS
 10
-1.222516
 20
4.086333
  0
VERTEX
  8
EBENE_1
 62
    39
  6
CONTINUOUS
 10
-1.210634
 20
4.099359
  0
VERTEX
  8
EBENE_1
 62
    39
  6
CONTINUOUS
 10
-1.197192
 20
4.110126
  0
VERTEX
  8
EBENE_1
 62
    39
  6
CONTINUOUS
 10
-1.182364
 20
4.118518
  0
VERTEX
  8
EBENE_1
 62
    39
  6
CONTINUOUS
 10
-1.166323
 20
4.124413
  0
VERTEX
  8
EBENE_1
 62
    39
  6
CONTINUOUS
 10
-1.166323
 20
4.124413
  0
VERTEX
  8
EBENE_1
 62
    39
  6
CONTINUOUS
 10
-0.826350
 20
4.214980
  0
VERTEX
  8
EBENE_1
 62
    39
  6
CONTINUOUS
 10
-0.802314
 20
4.219447
  0
VERTEX
  8
EBENE_1
 62
    39
  6
CONTINUOUS
 10
-0.783557
 20
4.218618
  0
VERTEX
  8
EBENE_1
 62
    39
  6
CONTINUOUS
 10
-0.769000
 20
4.213455
  0
VERTEX
  8
EBENE_1
 62
    39
  6
CONTINUOUS
 10
-0.757564
 20
4.204920
  0
VERTEX
  8
EBENE_1
 62
    39
  6
CONTINUOUS
 10
-0.748170
 20
4.193977
  0
VERTEX
  8
EBENE_1
 62
    39
  6
CONTINUOUS
 10
-0.739737
 20
4.181587
  0
VERTEX
  8
EBENE_1
 62
    39
  6
CONTINUOUS
 10
-0.731188
 20
4.168714
  0
VERTEX
  8
EBENE_1
 62
    39
  6
CONTINUOUS
 10
-0.721442
 20
4.156320
  0
SEQEND
  8
0
  0
POLYLINE
  8
EBENE_1
 62
    39
  6
CONTINUOUS
 66
     1
 40
0.003000
 41
0.003000
  0
VERTEX
  8
EBENE_1
 62
    39
  6
CONTINUOUS
 10
-0.986535
 20
4.121709
  0
VERTEX
  8
EBENE_1
 62
    39
  6
CONTINUOUS
 10
-0.980853
 20
4.123186
  0
VERTEX
  8
EBENE_1
 62
    39
  6
CONTINUOUS
 10
-0.976671
 20
4.127216
  0
VERTEX
  8
EBENE_1
 62
    39
  6
CONTINUOUS
 10
-0.975043
 20
4.133197
  0
SEQEND
  8
0
  0
POLYLINE
  8
EBENE_1
 62
    39
  6
CONTINUOUS
 66
     1
 40
0.003000
 41
0.003000
  0
VERTEX
  8
EBENE_1
 62
    39
  6
CONTINUOUS
 10
-0.975043
 20
4.133197
  0
VERTEX
  8
EBENE_1
 62
    39
  6
CONTINUOUS
 10
-0.976671
 20
4.138704
  0
VERTEX
  8
EBENE_1
 62
    39
  6
CONTINUOUS
 10
-0.980853
 20
4.142560
  0
VERTEX
  8
EBENE_1
 62
    39
  6
CONTINUOUS
 10
-0.986535
 20
4.144012
  0
SEQEND
  8
0
  0
POLYLINE
  8
EBENE_1
 62
    39
  6
CONTINUOUS
 66
     1
 40
0.003000
 41
0.003000
  0
VERTEX
  8
EBENE_1
 62
    39
  6
CONTINUOUS
 10
-0.986535
 20
4.144012
  0
VERTEX
  8
EBENE_1
 62
    39
  6
CONTINUOUS
 10
-0.992217
 20
4.142560
  0
VERTEX
  8
EBENE_1
 62
    39
  6
CONTINUOUS
 10
-0.996397
 20
4.138704
  0
VERTEX
  8
EBENE_1
 62
    39
  6
CONTINUOUS
 10
-0.998024
 20
4.133197
  0
SEQEND
  8
0
  0
POLYLINE
  8
EBENE_1
 62
    39
  6
CONTINUOUS
 66
     1
 40
0.003000
 41
0.003000
  0
VERTEX
  8
EBENE_1
 62
    39
  6
CONTINUOUS
 10
-0.998024
 20
4.133197
  0
VERTEX
  8
EBENE_1
 62
    39
  6
CONTINUOUS
 10
-0.996397
 20
4.127216
  0
VERTEX
  8
EBENE_1
 62
    39
  6
CONTINUOUS
 10
-0.992217
 20
4.123186
  0
VERTEX
  8
EBENE_1
 62
    39
  6
CONTINUOUS
 10
-0.986535
 20
4.121709
  0
SEQEND
  8
0
  0
POLYLINE
  8
EBENE_1
 62
    39
  6
CONTINUOUS
 66
     1
 40
0.003000
 41
0.003000
  0
VERTEX
  8
EBENE_1
 62
    39
  6
CONTINUOUS
 10
-0.864874
 20
4.147394
  0
VERTEX
  8
EBENE_1
 62
    39
  6
CONTINUOUS
 10
-0.859192
 20
4.149020
  0
VERTEX
  8
EBENE_1
 62
    39
  6
CONTINUOUS
 10
-0.855013
 20
4.153200
  0
VERTEX
  8
EBENE_1
 62
    39
  6
CONTINUOUS
 10
-0.853386
 20
4.158882
  0
SEQEND
  8
0
  0
POLYLINE
  8
EBENE_1
 62
    39
  6
CONTINUOUS
 66
     1
 40
0.003000
 41
0.003000
  0
VERTEX
  8
EBENE_1
 62
    39
  6
CONTINUOUS
 10
-0.853386
 20
4.158882
  0
VERTEX
  8
EBENE_1
 62
    39
  6
CONTINUOUS
 10
-0.855013
 20
4.164565
  0
VERTEX
  8
EBENE_1
 62
    39
  6
CONTINUOUS
 10
-0.859192
 20
4.168746
  0
VERTEX
  8
EBENE_1
 62
    39
  6
CONTINUOUS
 10
-0.864874
 20
4.170374
  0
SEQEND
  8
0
  0
POLYLINE
  8
EBENE_1
 62
    39
  6
CONTINUOUS
 66
     1
 40
0.003000
 41
0.003000
  0
VERTEX
  8
EBENE_1
 62
    39
  6
CONTINUOUS
 10
-0.864874
 20
4.170374
  0
VERTEX
  8
EBENE_1
 62
    39
  6
CONTINUOUS
 10
-0.870858
 20
4.168746
  0
VERTEX
  8
EBENE_1
 62
    39
  6
CONTINUOUS
 10
-0.874889
 20
4.164565
  0
VERTEX
  8
EBENE_1
 62
    39
  6
CONTINUOUS
 10
-0.876366
 20
4.158882
  0
SEQEND
  8
0
  0
POLYLINE
  8
EBENE_1
 62
    39
  6
CONTINUOUS
 66
     1
 40
0.003000
 41
0.003000
  0
VERTEX
  8
EBENE_1
 62
    39
  6
CONTINUOUS
 10
-0.876366
 20
4.158882
  0
VERTEX
  8
EBENE_1
 62
    39
  6
CONTINUOUS
 10
-0.874889
 20
4.153200
  0
VERTEX
  8
EBENE_1
 62
    39
  6
CONTINUOUS
 10
-0.870858
 20
4.149020
  0
VERTEX
  8
EBENE_1
 62
    39
  6
CONTINUOUS
 10
-0.864874
 20
4.147394
  0
SEQEND
  8
0
  0
POLYLINE
  8
EBENE_1
 62
    39
  6
CONTINUOUS
 66
     1
 40
0.003000
 41
0.003000
  0
VERTEX
  8
EBENE_1
 62
    39
  6
CONTINUOUS
 10
-0.746594
 20
4.102106
  0
VERTEX
  8
EBENE_1
 62
    39
  6
CONTINUOUS
 10
-0.740612
 20
4.103584
  0
VERTEX
  8
EBENE_1
 62
    39
  6
CONTINUOUS
 10
-0.736583
 20
4.107615
  0
VERTEX
  8
EBENE_1
 62
    39
  6
CONTINUOUS
 10
-0.735106
 20
4.113598
  0
SEQEND
  8
0
  0
POLYLINE
  8
EBENE_1
 62
    39
  6
CONTINUOUS
 66
     1
 40
0.003000
 41
0.003000
  0
VERTEX
  8
EBENE_1
 62
    39
  6
CONTINUOUS
 10
-0.735106
 20
4.113598
  0
VERTEX
  8
EBENE_1
 62
    39
  6
CONTINUOUS
 10
-0.736583
 20
4.119280
  0
VERTEX
  8
EBENE_1
 62
    39
  6
CONTINUOUS
 10
-0.740612
 20
4.123460
  0
VERTEX
  8
EBENE_1
 62
    39
  6
CONTINUOUS
 10
-0.746594
 20
4.125087
  0
SEQEND
  8
0
  0
POLYLINE
  8
EBENE_1
 62
    39
  6
CONTINUOUS
 66
     1
 40
0.003000
 41
0.003000
  0
VERTEX
  8
EBENE_1
 62
    39
  6
CONTINUOUS
 10
-0.746594
 20
4.125087
  0
VERTEX
  8
EBENE_1
 62
    39
  6
CONTINUOUS
 10
-0.752276
 20
4.123460
  0
VERTEX
  8
EBENE_1
 62
    39
  6
CONTINUOUS
 10
-0.756456
 20
4.119280
  0
VERTEX
  8
EBENE_1
 62
    39
  6
CONTINUOUS
 10
-0.758083
 20
4.113598
  0
SEQEND
  8
0
  0
POLYLINE
  8
EBENE_1
 62
    39
  6
CONTINUOUS
 66
     1
 40
0.003000
 41
0.003000
  0
VERTEX
  8
EBENE_1
 62
    39
  6
CONTINUOUS
 10
-0.758083
 20
4.113598
  0
VERTEX
  8
EBENE_1
 62
    39
  6
CONTINUOUS
 10
-0.756456
 20
4.107615
  0
VERTEX
  8
EBENE_1
 62
    39
  6
CONTINUOUS
 10
-0.752276
 20
4.103584
  0
VERTEX
  8
EBENE_1
 62
    39
  6
CONTINUOUS
 10
-0.746594
 20
4.102106
  0
SEQEND
  8
0
  0
POLYLINE
  8
EBENE_1
 62
    39
  6
CONTINUOUS
 66
     1
 40
0.003000
 41
0.003000
  0
VERTEX
  8
EBENE_1
 62
    39
  6
CONTINUOUS
 10
-0.376209
 20
4.229850
  0
VERTEX
  8
EBENE_1
 62
    39
  6
CONTINUOUS
 10
-0.059894
 20
3.710091
  0
VERTEX
  8
EBENE_1
 62
    39
  6
CONTINUOUS
 10
-0.391752
 20
3.623579
  0
SEQEND
  8
0
  0
POLYLINE
  8
EBENE_1
 62
    39
  6
CONTINUOUS
 66
     1
 40
0.003000
 41
0.003000
  0
VERTEX
  8
EBENE_1
 62
    39
  6
CONTINUOUS
 10
-0.391752
 20
3.623579
  0
VERTEX
  8
EBENE_1
 62
    39
  6
CONTINUOUS
 10
-0.401491
 20
3.621796
  0
VERTEX
  8
EBENE_1
 62
    39
  6
CONTINUOUS
 10
-0.412003
 20
3.620716
  0
VERTEX
  8
EBENE_1
 62
    39
  6
CONTINUOUS
 10
-0.423241
 20
3.620334
  0
VERTEX
  8
EBENE_1
 62
    39
  6
CONTINUOUS
 10
-0.435162
 20
3.620647
  0
VERTEX
  8
EBENE_1
 62
    39
  6
CONTINUOUS
 10
-0.447719
 20
3.621654
  0
VERTEX
  8
EBENE_1
 62
    39
  6
CONTINUOUS
 10
-0.460868
 20
3.623349
  0
VERTEX
  8
EBENE_1
 62
    39
  6
CONTINUOUS
 10
-0.474564
 20
3.625731
  0
VERTEX
  8
EBENE_1
 62
    39
  6
CONTINUOUS
 10
-0.488761
 20
3.628796
  0
VERTEX
  8
EBENE_1
 62
    39
  6
CONTINUOUS
 10
-0.503415
 20
3.632541
  0
VERTEX
  8
EBENE_1
 62
    39
  6
CONTINUOUS
 10
-0.518481
 20
3.636963
  0
VERTEX
  8
EBENE_1
 62
    39
  6
CONTINUOUS
 10
-0.533913
 20
3.642059
  0
VERTEX
  8
EBENE_1
 62
    39
  6
CONTINUOUS
 10
-0.549666
 20
3.647826
  0
VERTEX
  8
EBENE_1
 62
    39
  6
CONTINUOUS
 10
-0.565696
 20
3.654260
  0
VERTEX
  8
EBENE_1
 62
    39
  6
CONTINUOUS
 10
-0.581957
 20
3.661359
  0
VERTEX
  8
EBENE_1
 62
    39
  6
CONTINUOUS
 10
-0.598404
 20
3.669120
  0
VERTEX
  8
EBENE_1
 62
    39
  6
CONTINUOUS
 10
-0.614991
 20
3.677538
  0
VERTEX
  8
EBENE_1
 62
    39
  6
CONTINUOUS
 10
-0.631675
 20
3.686612
  0
VERTEX
  8
EBENE_1
 62
    39
  6
CONTINUOUS
 10
-0.648410
 20
3.696338
  0
VERTEX
  8
EBENE_1
 62
    39
  6
CONTINUOUS
 10
-0.665150
 20
3.706714
  0
VERTEX
  8
EBENE_1
 62
    39
  6
CONTINUOUS
 10
-0.681851
 20
3.717735
  0
VERTEX
  8
EBENE_1
 62
    39
  6
CONTINUOUS
 10
-0.698468
 20
3.729399
  0
VERTEX
  8
EBENE_1
 62
    39
  6
CONTINUOUS
 10
-0.714955
 20
3.741702
  0
VERTEX
  8
EBENE_1
 62
    39
  6
CONTINUOUS
 10
-0.731268
 20
3.754642
  0
VERTEX
  8
EBENE_1
 62
    39
  6
CONTINUOUS
 10
-0.747361
 20
3.768216
  0
VERTEX
  8
EBENE_1
 62
    39
  6
CONTINUOUS
 10
-0.763189
 20
3.782420
  0
VERTEX
  8
EBENE_1
 62
    39
  6
CONTINUOUS
 10
-0.778707
 20
3.797252
  0
VERTEX
  8
EBENE_1
 62
    39
  6
CONTINUOUS
 10
-0.793871
 20
3.812707
  0
VERTEX
  8
EBENE_1
 62
    39
  6
CONTINUOUS
 10
-0.808634
 20
3.828784
  0
VERTEX
  8
EBENE_1
 62
    39
  6
CONTINUOUS
 10
-0.822953
 20
3.845479
  0
VERTEX
  8
EBENE_1
 62
    39
  6
CONTINUOUS
 10
-0.836781
 20
3.862788
  0
VERTEX
  8
EBENE_1
 62
    39
  6
CONTINUOUS
 10
-0.850074
 20
3.880709
  0
VERTEX
  8
EBENE_1
 62
    39
  6
CONTINUOUS
 10
-0.862787
 20
3.899239
  0
VERTEX
  8
EBENE_1
 62
    39
  6
CONTINUOUS
 10
-0.874875
 20
3.918375
  0
VERTEX
  8
EBENE_1
 62
    39
  6
CONTINUOUS
 10
-0.886292
 20
3.938113
  0
VERTEX
  8
EBENE_1
 62
    39
  6
CONTINUOUS
 10
-0.896994
 20
3.958450
  0
VERTEX
  8
EBENE_1
 62
    39
  6
CONTINUOUS
 10
-0.906935
 20
3.979384
  0
VERTEX
  8
EBENE_1
 62
    39
  6
CONTINUOUS
 10
-0.916070
 20
4.000911
  0
VERTEX
  8
EBENE_1
 62
    39
  6
CONTINUOUS
 10
-0.924354
 20
4.023028
  0
SEQEND
  8
0
  0
POLYLINE
  8
EBENE_1
 62
    39
  6
CONTINUOUS
 66
     1
 40
0.003000
 41
0.003000
  0
VERTEX
  8
EBENE_1
 62
    39
  6
CONTINUOUS
 10
-0.924354
 20
4.023028
  0
VERTEX
  8
EBENE_1
 62
    39
  6
CONTINUOUS
 10
-0.928237
 20
4.049065
  0
VERTEX
  8
EBENE_1
 62
    39
  6
CONTINUOUS
 10
-0.929311
 20
4.073641
  0
VERTEX
  8
EBENE_1
 62
    39
  6
CONTINUOUS
 10
-0.927749
 20
4.096631
  0
VERTEX
  8
EBENE_1
 62
    39
  6
CONTINUOUS
 10
-0.923726
 20
4.117916
  0
VERTEX
  8
EBENE_1
 62
    39
  6
CONTINUOUS
 10
-0.917414
 20
4.137373
  0
VERTEX
  8
EBENE_1
 62
    39
  6
CONTINUOUS
 10
-0.908988
 20
4.154879
  0
VERTEX
  8
EBENE_1
 62
    39
  6
CONTINUOUS
 10
-0.898622
 20
4.170314
  0
VERTEX
  8
EBENE_1
 62
    39
  6
CONTINUOUS
 10
-0.886488
 20
4.183555
  0
VERTEX
  8
EBENE_1
 62
    39
  6
CONTINUOUS
 10
-0.872761
 20
4.194481
  0
VERTEX
  8
EBENE_1
 62
    39
  6
CONTINUOUS
 10
-0.857614
 20
4.202969
  0
VERTEX
  8
EBENE_1
 62
    39
  6
CONTINUOUS
 10
-0.841220
 20
4.208898
  0
SEQEND
  8
0
  0
POLYLINE
  8
EBENE_1
 62
    39
  6
CONTINUOUS
 66
     1
 40
0.003000
 41
0.003000
  0
VERTEX
  8
EBENE_1
 62
    39
  6
CONTINUOUS
 10
-0.841220
 20
4.208898
  0
VERTEX
  8
EBENE_1
 62
    39
  6
CONTINUOUS
 10
-0.495839
 20
4.301496
  0
SEQEND
  8
0
  0
POLYLINE
  8
EBENE_1
 62
    39
  6
CONTINUOUS
 66
     1
 40
0.003000
 41
0.003000
  0
VERTEX
  8
EBENE_1
 62
    39
  6
CONTINUOUS
 10
-0.495839
 20
4.301496
  0
VERTEX
  8
EBENE_1
 62
    39
  6
CONTINUOUS
 10
-0.471220
 20
4.305758
  0
VERTEX
  8
EBENE_1
 62
    39
  6
CONTINUOUS
 10
-0.452043
 20
4.304758
  0
VERTEX
  8
EBENE_1
 62
    39
  6
CONTINUOUS
 10
-0.437187
 20
4.299442
  0
VERTEX
  8
EBENE_1
 62
    39
  6
CONTINUOUS
 10
-0.425536
 20
4.290754
  0
VERTEX
  8
EBENE_1
 62
    39
  6
CONTINUOUS
 10
-0.415971
 20
4.279641
  0
VERTEX
  8
EBENE_1
 62
    39
  6
CONTINUOUS
 10
-0.407374
 20
4.267049
  0
VERTEX
  8
EBENE_1
 62
    39
  6
CONTINUOUS
 10
-0.398627
 20
4.253923
  0
VERTEX
  8
EBENE_1
 62
    39
  6
CONTINUOUS
 10
-0.388611
 20
4.241208
  0
VERTEX
  8
EBENE_1
 62
    39
  6
CONTINUOUS
 10
-0.376209
 20
4.229850
  0
SEQEND
  8
0
  0
POLYLINE
  8
EBENE_1
 62
    39
  6
CONTINUOUS
 66
     1
 40
0.003000
 41
0.003000
 70
     1
  0
VERTEX
  8
EBENE_1
 62
    39
  6
CONTINUOUS
 10
-0.376209
 20
4.227823
  0
VERTEX
  8
EBENE_1
 62
    39
  6
CONTINUOUS
 10
-0.065299
 20
3.716177
  0
VERTEX
  8
EBENE_1
 62
    39
  6
CONTINUOUS
 10
-0.391079
 20
3.631012
  0
VERTEX
  8
EBENE_1
 62
    39
  6
CONTINUOUS
 10
-0.400974
 20
3.629238
  0
VERTEX
  8
EBENE_1
 62
    39
  6
CONTINUOUS
 10
-0.411665
 20
3.628191
  0
VERTEX
  8
EBENE_1
 62
    39
  6
CONTINUOUS
 10
-0.423104
 20
3.627865
  0
VERTEX
  8
EBENE_1
 62
    39
  6
CONTINUOUS
 10
-0.435244
 20
3.628260
  0
VERTEX
  8
EBENE_1
 62
    39
  6
CONTINUOUS
 10
-0.448036
 20
3.629370
  0
VERTEX
  8
EBENE_1
 62
    39
  6
CONTINUOUS
 10
-0.461433
 20
3.631193
  0
VERTEX
  8
EBENE_1
 62
    39
  6
CONTINUOUS
 10
-0.475386
 20
3.633727
  0
VERTEX
  8
EBENE_1
 62
    39
  6
CONTINUOUS
 10
-0.489848
 20
3.636967
  0
VERTEX
  8
EBENE_1
 62
    39
  6
CONTINUOUS
 10
-0.504770
 20
3.640911
  0
VERTEX
  8
EBENE_1
 62
    39
  6
CONTINUOUS
 10
-0.520105
 20
3.645555
  0
VERTEX
  8
EBENE_1
 62
    39
  6
CONTINUOUS
 10
-0.535805
 20
3.650898
  0
VERTEX
  8
EBENE_1
 62
    39
  6
CONTINUOUS
 10
-0.551821
 20
3.656934
  0
VERTEX
  8
EBENE_1
 62
    39
  6
CONTINUOUS
 10
-0.568106
 20
3.663662
  0
VERTEX
  8
EBENE_1
 62
    39
  6
CONTINUOUS
 10
-0.584612
 20
3.671077
  0
VERTEX
  8
EBENE_1
 62
    39
  6
CONTINUOUS
 10
-0.601291
 20
3.679178
  0
VERTEX
  8
EBENE_1
 62
    39
  6
CONTINUOUS
 10
-0.618094
 20
3.687961
  0
VERTEX
  8
EBENE_1
 62
    39
  6
CONTINUOUS
 10
-0.634975
 20
3.697422
  0
VERTEX
  8
EBENE_1
 62
    39
  6
CONTINUOUS
 10
-0.651884
 20
3.707559
  0
VERTEX
  8
EBENE_1
 62
    39
  6
CONTINUOUS
 10
-0.668775
 20
3.718369
  0
VERTEX
  8
EBENE_1
 62
    39
  6
CONTINUOUS
 10
-0.685599
 20
3.729848
  0
VERTEX
  8
EBENE_1
 62
    39
  6
CONTINUOUS
 10
-0.702307
 20
3.741993
  0
VERTEX
  8
EBENE_1
 62
    39
  6
CONTINUOUS
 10
-0.718853
 20
3.754802
  0
VERTEX
  8
EBENE_1
 62
    39
  6
CONTINUOUS
 10
-0.735188
 20
3.768270
  0
VERTEX
  8
EBENE_1
 62
    39
  6
CONTINUOUS
 10
-0.751265
 20
3.782395
  0
VERTEX
  8
EBENE_1
 62
    39
  6
CONTINUOUS
 10
-0.767034
 20
3.797175
  0
VERTEX
  8
EBENE_1
 62
    39
  6
CONTINUOUS
 10
-0.782449
 20
3.812604
  0
VERTEX
  8
EBENE_1
 62
    39
  6
CONTINUOUS
 10
-0.797462
 20
3.828682
  0
VERTEX
  8
EBENE_1
 62
    39
  6
CONTINUOUS
 10
-0.812023
 20
3.845403
  0
VERTEX
  8
EBENE_1
 62
    39
  6
CONTINUOUS
 10
-0.826086
 20
3.862766
  0
VERTEX
  8
EBENE_1
 62
    39
  6
CONTINUOUS
 10
-0.839603
 20
3.880767
  0
VERTEX
  8
EBENE_1
 62
    39
  6
CONTINUOUS
 10
-0.852525
 20
3.899404
  0
VERTEX
  8
EBENE_1
 62
    39
  6
CONTINUOUS
 10
-0.864805
 20
3.918672
  0
VERTEX
  8
EBENE_1
 62
    39
  6
CONTINUOUS
 10
-0.876395
 20
3.938569
  0
VERTEX
  8
EBENE_1
 62
    39
  6
CONTINUOUS
 10
-0.887246
 20
3.959091
  0
VERTEX
  8
EBENE_1
 62
    39
  6
CONTINUOUS
 10
-0.897311
 20
3.980236
  0
VERTEX
  8
EBENE_1
 62
    39
  6
CONTINUOUS
 10
-0.906541
 20
4.002001
  0
VERTEX
  8
EBENE_1
 62
    39
  6
CONTINUOUS
 10
-0.914890
 20
4.024382
  0
VERTEX
  8
EBENE_1
 62
    39
  6
CONTINUOUS
 10
-0.914890
 20
4.024382
  0
VERTEX
  8
EBENE_1
 62
    39
  6
CONTINUOUS
 10
-0.918790
 20
4.049884
  0
VERTEX
  8
EBENE_1
 62
    39
  6
CONTINUOUS
 10
-0.919911
 20
4.073960
  0
VERTEX
  8
EBENE_1
 62
    39
  6
CONTINUOUS
 10
-0.918423
 20
4.096491
  0
VERTEX
  8
EBENE_1
 62
    39
  6
CONTINUOUS
 10
-0.914499
 20
4.117358
  0
VERTEX
  8
EBENE_1
 62
    39
  6
CONTINUOUS
 10
-0.908307
 20
4.136444
  0
VERTEX
  8
EBENE_1
 62
    39
  6
CONTINUOUS
 10
-0.900019
 20
4.153627
  0
VERTEX
  8
EBENE_1
 62
    39
  6
CONTINUOUS
 10
-0.889805
 20
4.168791
  0
VERTEX
  8
EBENE_1
 62
    39
  6
CONTINUOUS
 10
-0.877837
 20
4.181816
  0
VERTEX
  8
EBENE_1
 62
    39
  6
CONTINUOUS
 10
-0.864283
 20
4.192584
  0
VERTEX
  8
EBENE_1
 62
    39
  6
CONTINUOUS
 10
-0.849316
 20
4.200974
  0
VERTEX
  8
EBENE_1
 62
    39
  6
CONTINUOUS
 10
-0.833106
 20
4.206870
  0
VERTEX
  8
EBENE_1
 62
    39
  6
CONTINUOUS
 10
-0.493811
 20
4.297441
  0
VERTEX
  8
EBENE_1
 62
    39
  6
CONTINUOUS
 10
-0.469774
 20
4.301929
  0
VERTEX
  8
EBENE_1
 62
    39
  6
CONTINUOUS
 10
-0.451011
 20
4.301155
  0
VERTEX
  8
EBENE_1
 62
    39
  6
CONTINUOUS
 10
-0.436436
 20
4.296064
  0
VERTEX
  8
EBENE_1
 62
    39
  6
CONTINUOUS
 10
-0.424966
 20
4.287602
  0
VERTEX
  8
EBENE_1
 62
    39
  6
CONTINUOUS
 10
-0.415515
 20
4.276714
  0
VERTEX
  8
EBENE_1
 62
    39
  6
CONTINUOUS
 10
-0.406998
 20
4.264347
  0
VERTEX
  8
EBENE_1
 62
    39
  6
CONTINUOUS
 10
-0.398332
 20
4.251446
  0
VERTEX
  8
EBENE_1
 62
    39
  6
CONTINUOUS
 10
-0.388430
 20
4.238956
  0
SEQEND
  8
0
  0
POLYLINE
  8
EBENE_1
 62
    39
  6
CONTINUOUS
 66
     1
 40
0.003000
 41
0.003000
  0
VERTEX
  8
EBENE_1
 62
    39
  6
CONTINUOUS
 10
-0.654000
 20
4.204165
  0
VERTEX
  8
EBENE_1
 62
    39
  6
CONTINUOUS
 10
-0.648315
 20
4.205643
  0
VERTEX
  8
EBENE_1
 62
    39
  6
CONTINUOUS
 10
-0.644135
 20
4.209674
  0
VERTEX
  8
EBENE_1
 62
    39
  6
CONTINUOUS
 10
-0.642508
 20
4.215657
  0
SEQEND
  8
0
  0
POLYLINE
  8
EBENE_1
 62
    39
  6
CONTINUOUS
 66
     1
 40
0.003000
 41
0.003000
  0
VERTEX
  8
EBENE_1
 62
    39
  6
CONTINUOUS
 10
-0.642508
 20
4.215657
  0
VERTEX
  8
EBENE_1
 62
    39
  6
CONTINUOUS
 10
-0.644135
 20
4.221339
  0
VERTEX
  8
EBENE_1
 62
    39
  6
CONTINUOUS
 10
-0.648315
 20
4.225519
  0
VERTEX
  8
EBENE_1
 62
    39
  6
CONTINUOUS
 10
-0.654000
 20
4.227146
  0
SEQEND
  8
0
  0
POLYLINE
  8
EBENE_1
 62
    39
  6
CONTINUOUS
 66
     1
 40
0.003000
 41
0.003000
  0
VERTEX
  8
EBENE_1
 62
    39
  6
CONTINUOUS
 10
-0.654000
 20
4.227146
  0
VERTEX
  8
EBENE_1
 62
    39
  6
CONTINUOUS
 10
-0.659682
 20
4.225519
  0
VERTEX
  8
EBENE_1
 62
    39
  6
CONTINUOUS
 10
-0.663861
 20
4.221339
  0
VERTEX
  8
EBENE_1
 62
    39
  6
CONTINUOUS
 10
-0.665488
 20
4.215657
  0
SEQEND
  8
0
  0
POLYLINE
  8
EBENE_1
 62
    39
  6
CONTINUOUS
 66
     1
 40
0.003000
 41
0.003000
  0
VERTEX
  8
EBENE_1
 62
    39
  6
CONTINUOUS
 10
-0.665488
 20
4.215657
  0
VERTEX
  8
EBENE_1
 62
    39
  6
CONTINUOUS
 10
-0.663861
 20
4.209674
  0
VERTEX
  8
EBENE_1
 62
    39
  6
CONTINUOUS
 10
-0.659682
 20
4.205643
  0
VERTEX
  8
EBENE_1
 62
    39
  6
CONTINUOUS
 10
-0.654000
 20
4.204165
  0
SEQEND
  8
0
  0
POLYLINE
  8
EBENE_1
 62
    39
  6
CONTINUOUS
 66
     1
 40
0.003000
 41
0.003000
  0
VERTEX
  8
EBENE_1
 62
    39
  6
CONTINUOUS
 10
-0.532339
 20
4.229850
  0
VERTEX
  8
EBENE_1
 62
    39
  6
CONTINUOUS
 10
-0.526656
 20
4.231477
  0
VERTEX
  8
EBENE_1
 62
    39
  6
CONTINUOUS
 10
-0.522474
 20
4.235658
  0
VERTEX
  8
EBENE_1
 62
    39
  6
CONTINUOUS
 10
-0.520846
 20
4.241343
  0
SEQEND
  8
0
  0
POLYLINE
  8
EBENE_1
 62
    39
  6
CONTINUOUS
 66
     1
 40
0.003000
 41
0.003000
  0
VERTEX
  8
EBENE_1
 62
    39
  6
CONTINUOUS
 10
-0.520846
 20
4.241343
  0
VERTEX
  8
EBENE_1
 62
    39
  6
CONTINUOUS
 10
-0.522474
 20
4.247324
  0
VERTEX
  8
EBENE_1
 62
    39
  6
CONTINUOUS
 10
-0.526656
 20
4.251354
  0
VERTEX
  8
EBENE_1
 62
    39
  6
CONTINUOUS
 10
-0.532339
 20
4.252831
  0
SEQEND
  8
0
  0
POLYLINE
  8
EBENE_1
 62
    39
  6
CONTINUOUS
 66
     1
 40
0.003000
 41
0.003000
  0
VERTEX
  8
EBENE_1
 62
    39
  6
CONTINUOUS
 10
-0.532339
 20
4.252831
  0
VERTEX
  8
EBENE_1
 62
    39
  6
CONTINUOUS
 10
-0.538321
 20
4.251354
  0
VERTEX
  8
EBENE_1
 62
    39
  6
CONTINUOUS
 10
-0.542351
 20
4.247324
  0
VERTEX
  8
EBENE_1
 62
    39
  6
CONTINUOUS
 10
-0.543827
 20
4.241343
  0
SEQEND
  8
0
  0
POLYLINE
  8
EBENE_1
 62
    39
  6
CONTINUOUS
 66
     1
 40
0.003000
 41
0.003000
  0
VERTEX
  8
EBENE_1
 62
    39
  6
CONTINUOUS
 10
-0.543827
 20
4.241343
  0
VERTEX
  8
EBENE_1
 62
    39
  6
CONTINUOUS
 10
-0.542351
 20
4.235658
  0
VERTEX
  8
EBENE_1
 62
    39
  6
CONTINUOUS
 10
-0.538321
 20
4.231477
  0
VERTEX
  8
EBENE_1
 62
    39
  6
CONTINUOUS
 10
-0.532339
 20
4.229850
  0
SEQEND
  8
0
  0
POLYLINE
  8
EBENE_1
 62
    39
  6
CONTINUOUS
 66
     1
 40
0.003000
 41
0.003000
  0
VERTEX
  8
EBENE_1
 62
    39
  6
CONTINUOUS
 10
-0.414059
 20
4.184567
  0
VERTEX
  8
EBENE_1
 62
    39
  6
CONTINUOUS
 10
-0.408075
 20
4.186043
  0
VERTEX
  8
EBENE_1
 62
    39
  6
CONTINUOUS
 10
-0.404044
 20
4.190072
  0
VERTEX
  8
EBENE_1
 62
    39
  6
CONTINUOUS
 10
-0.402567
 20
4.196055
  0
SEQEND
  8
0
  0
POLYLINE
  8
EBENE_1
 62
    39
  6
CONTINUOUS
 66
     1
 40
0.003000
 41
0.003000
  0
VERTEX
  8
EBENE_1
 62
    39
  6
CONTINUOUS
 10
-0.402567
 20
4.196055
  0
VERTEX
  8
EBENE_1
 62
    39
  6
CONTINUOUS
 10
-0.404044
 20
4.201738
  0
VERTEX
  8
EBENE_1
 62
    39
  6
CONTINUOUS
 10
-0.408075
 20
4.205920
  0
VERTEX
  8
EBENE_1
 62
    39
  6
CONTINUOUS
 10
-0.414059
 20
4.207547
  0
SEQEND
  8
0
  0
POLYLINE
  8
EBENE_1
 62
    39
  6
CONTINUOUS
 66
     1
 40
0.003000
 41
0.003000
  0
VERTEX
  8
EBENE_1
 62
    39
  6
CONTINUOUS
 10
-0.414059
 20
4.207547
  0
VERTEX
  8
EBENE_1
 62
    39
  6
CONTINUOUS
 10
-0.419565
 20
4.205920
  0
VERTEX
  8
EBENE_1
 62
    39
  6
CONTINUOUS
 10
-0.423419
 20
4.201738
  0
VERTEX
  8
EBENE_1
 62
    39
  6
CONTINUOUS
 10
-0.424870
 20
4.196055
  0
SEQEND
  8
0
  0
POLYLINE
  8
EBENE_1
 62
    39
  6
CONTINUOUS
 66
     1
 40
0.003000
 41
0.003000
  0
VERTEX
  8
EBENE_1
 62
    39
  6
CONTINUOUS
 10
-0.424870
 20
4.196055
  0
VERTEX
  8
EBENE_1
 62
    39
  6
CONTINUOUS
 10
-0.423419
 20
4.190072
  0
VERTEX
  8
EBENE_1
 62
    39
  6
CONTINUOUS
 10
-0.419565
 20
4.186043
  0
VERTEX
  8
EBENE_1
 62
    39
  6
CONTINUOUS
 10
-0.414059
 20
4.184567
  0
SEQEND
  8
0
  0
POLYLINE
  8
EBENE_1
 62
    39
  6
CONTINUOUS
 66
     1
 40
0.003000
 41
0.003000
 70
     1
  0
VERTEX
  8
EBENE_1
 62
    39
  6
CONTINUOUS
 10
0.840386
 20
3.268740
  0
VERTEX
  8
EBENE_1
 62
    39
  6
CONTINUOUS
 10
0.845718
 20
3.270392
  0
VERTEX
  8
EBENE_1
 62
    39
  6
CONTINUOUS
 10
0.849247
 20
3.274747
  0
VERTEX
  8
EBENE_1
 62
    39
  6
CONTINUOUS
 10
0.850524
 20
3.280906
  0
VERTEX
  8
EBENE_1
 62
    39
  6
CONTINUOUS
 10
0.849247
 20
3.286587
  0
VERTEX
  8
EBENE_1
 62
    39
  6
CONTINUOUS
 10
0.845718
 20
3.290767
  0
VERTEX
  8
EBENE_1
 62
    39
  6
CONTINUOUS
 10
0.840386
 20
3.292394
  0
VERTEX
  8
EBENE_1
 62
    39
  6
CONTINUOUS
 10
0.835355
 20
3.290767
  0
VERTEX
  8
EBENE_1
 62
    39
  6
CONTINUOUS
 10
0.831675
 20
3.286587
  0
VERTEX
  8
EBENE_1
 62
    39
  6
CONTINUOUS
 10
0.830248
 20
3.280906
  0
VERTEX
  8
EBENE_1
 62
    39
  6
CONTINUOUS
 10
0.831675
 20
3.274747
  0
VERTEX
  8
EBENE_1
 62
    39
  6
CONTINUOUS
 10
0.835355
 20
3.270392
  0
SEQEND
  8
0
  0
POLYLINE
  8
EBENE_1
 62
    39
  6
CONTINUOUS
 66
     1
 40
0.003000
 41
0.003000
 70
     1
  0
VERTEX
  8
EBENE_1
 62
    39
  6
CONTINUOUS
 10
1.173598
 20
3.351197
  0
VERTEX
  8
EBENE_1
 62
    39
  6
CONTINUOUS
 10
1.178632
 20
3.352849
  0
VERTEX
  8
EBENE_1
 62
    39
  6
CONTINUOUS
 10
1.182313
 20
3.357204
  0
VERTEX
  8
EBENE_1
 62
    39
  6
CONTINUOUS
 10
1.183740
 20
3.363362
  0
VERTEX
  8
EBENE_1
 62
    39
  6
CONTINUOUS
 10
1.182313
 20
3.369044
  0
VERTEX
  8
EBENE_1
 62
    39
  6
CONTINUOUS
 10
1.178632
 20
3.373224
  0
VERTEX
  8
EBENE_1
 62
    39
  6
CONTINUOUS
 10
1.173598
 20
3.374850
  0
VERTEX
  8
EBENE_1
 62
    39
  6
CONTINUOUS
 10
1.168267
 20
3.373224
  0
VERTEX
  8
EBENE_1
 62
    39
  6
CONTINUOUS
 10
1.164737
 20
3.369044
  0
VERTEX
  8
EBENE_1
 62
    39
  6
CONTINUOUS
 10
1.163461
 20
3.363362
  0
VERTEX
  8
EBENE_1
 62
    39
  6
CONTINUOUS
 10
1.164737
 20
3.357204
  0
VERTEX
  8
EBENE_1
 62
    39
  6
CONTINUOUS
 10
1.168267
 20
3.352849
  0
SEQEND
  8
0
  0
POLYLINE
  8
EBENE_1
 62
    39
  6
CONTINUOUS
 66
     1
 40
0.003000
 41
0.003000
 70
     1
  0
VERTEX
  8
EBENE_1
 62
    39
  6
CONTINUOUS
 10
1.040449
 20
3.272791
  0
VERTEX
  8
EBENE_1
 62
    39
  6
CONTINUOUS
 10
1.045481
 20
3.274269
  0
VERTEX
  8
EBENE_1
 62
    39
  6
CONTINUOUS
 10
1.049160
 20
3.278300
  0
VERTEX
  8
EBENE_1
 62
    39
  6
CONTINUOUS
 10
1.050587
 20
3.284283
  0
VERTEX
  8
EBENE_1
 62
    39
  6
CONTINUOUS
 10
1.049160
 20
3.290442
  0
VERTEX
  8
EBENE_1
 62
    39
  6
CONTINUOUS
 10
1.045481
 20
3.294797
  0
VERTEX
  8
EBENE_1
 62
    39
  6
CONTINUOUS
 10
1.040449
 20
3.296449
  0
VERTEX
  8
EBENE_1
 62
    39
  6
CONTINUOUS
 10
1.035117
 20
3.294797
  0
VERTEX
  8
EBENE_1
 62
    39
  6
CONTINUOUS
 10
1.031588
 20
3.290442
  0
VERTEX
  8
EBENE_1
 62
    39
  6
CONTINUOUS
 10
1.030311
 20
3.284283
  0
VERTEX
  8
EBENE_1
 62
    39
  6
CONTINUOUS
 10
1.031588
 20
3.278300
  0
VERTEX
  8
EBENE_1
 62
    39
  6
CONTINUOUS
 10
1.035117
 20
3.274269
  0
SEQEND
  8
0
  0
POLYLINE
  8
EBENE_1
 62
    39
  6
CONTINUOUS
 66
     1
 40
0.003000
 41
0.003000
 70
     1
  0
VERTEX
  8
EBENE_1
 62
    39
  6
CONTINUOUS
 10
0.661276
 20
3.070701
  0
VERTEX
  8
EBENE_1
 62
    39
  6
CONTINUOUS
 10
0.675907
 20
3.054291
  0
VERTEX
  8
EBENE_1
 62
    39
  6
CONTINUOUS
 10
0.691747
 20
3.038794
  0
VERTEX
  8
EBENE_1
 62
    39
  6
CONTINUOUS
 10
0.708655
 20
3.024222
  0
VERTEX
  8
EBENE_1
 62
    39
  6
CONTINUOUS
 10
0.726493
 20
3.010590
  0
VERTEX
  8
EBENE_1
 62
    39
  6
CONTINUOUS
 10
0.745121
 20
2.997911
  0
VERTEX
  8
EBENE_1
 62
    39
  6
CONTINUOUS
 10
0.764399
 20
2.986199
  0
VERTEX
  8
EBENE_1
 62
    39
  6
CONTINUOUS
 10
0.784188
 20
2.975466
  0
VERTEX
  8
EBENE_1
 62
    39
  6
CONTINUOUS
 10
0.804348
 20
2.965728
  0
VERTEX
  8
EBENE_1
 62
    39
  6
CONTINUOUS
 10
0.824740
 20
2.956997
  0
VERTEX
  8
EBENE_1
 62
    39
  6
CONTINUOUS
 10
0.845224
 20
2.949287
  0
VERTEX
  8
EBENE_1
 62
    39
  6
CONTINUOUS
 10
0.865661
 20
2.942612
  0
VERTEX
  8
EBENE_1
 62
    39
  6
CONTINUOUS
 10
0.885911
 20
2.936985
  0
VERTEX
  8
EBENE_1
 62
    39
  6
CONTINUOUS
 10
0.905835
 20
2.932420
  0
VERTEX
  8
EBENE_1
 62
    39
  6
CONTINUOUS
 10
0.925292
 20
2.928930
  0
VERTEX
  8
EBENE_1
 62
    39
  6
CONTINUOUS
 10
0.944145
 20
2.926530
  0
VERTEX
  8
EBENE_1
 62
    39
  6
CONTINUOUS
 10
0.962252
 20
2.925232
  0
VERTEX
  8
EBENE_1
 62
    39
  6
CONTINUOUS
 10
0.979475
 20
2.925050
  0
VERTEX
  8
EBENE_1
 62
    39
  6
CONTINUOUS
 10
0.995673
 20
2.925999
  0
VERTEX
  8
EBENE_1
 62
    39
  6
CONTINUOUS
 10
1.010709
 20
2.928091
  0
VERTEX
  8
EBENE_1
 62
    39
  6
CONTINUOUS
 10
1.010709
 20
2.928091
  0
VERTEX
  8
EBENE_1
 62
    39
  6
CONTINUOUS
 10
1.036142
 20
2.933886
  0
VERTEX
  8
EBENE_1
 62
    39
  6
CONTINUOUS
 10
1.060208
 20
2.939529
  0
VERTEX
  8
EBENE_1
 62
    39
  6
CONTINUOUS
 10
1.083079
 20
2.945101
  0
VERTEX
  8
EBENE_1
 62
    39
  6
CONTINUOUS
 10
1.104929
 20
2.950686
  0
VERTEX
  8
EBENE_1
 62
    39
  6
CONTINUOUS
 10
1.125933
 20
2.956365
  0
VERTEX
  8
EBENE_1
 62
    39
  6
CONTINUOUS
 10
1.146263
 20
2.962221
  0
VERTEX
  8
EBENE_1
 62
    39
  6
CONTINUOUS
 10
1.166094
 20
2.968336
  0
VERTEX
  8
EBENE_1
 62
    39
  6
CONTINUOUS
 10
1.185598
 20
2.974792
  0
VERTEX
  8
EBENE_1
 62
    39
  6
CONTINUOUS
 10
1.204951
 20
2.981672
  0
VERTEX
  8
EBENE_1
 62
    39
  6
CONTINUOUS
 10
1.224325
 20
2.989057
  0
VERTEX
  8
EBENE_1
 62
    39
  6
CONTINUOUS
 10
1.243894
 20
2.997031
  0
VERTEX
  8
EBENE_1
 62
    39
  6
CONTINUOUS
 10
1.261405
 20
3.009152
  0
VERTEX
  8
EBENE_1
 62
    39
  6
CONTINUOUS
 10
1.277398
 20
3.022551
  0
VERTEX
  8
EBENE_1
 62
    39
  6
CONTINUOUS
 10
1.291805
 20
3.037259
  0
VERTEX
  8
EBENE_1
 62
    39
  6
CONTINUOUS
 10
1.304561
 20
3.053301
  0
VERTEX
  8
EBENE_1
 62
    39
  6
CONTINUOUS
 10
1.315598
 20
3.070706
  0
VERTEX
  8
EBENE_1
 62
    39
  6
CONTINUOUS
 10
1.324849
 20
3.089502
  0
VERTEX
  8
EBENE_1
 62
    39
  6
CONTINUOUS
 10
1.332248
 20
3.109717
  0
VERTEX
  8
EBENE_1
 62
    39
  6
CONTINUOUS
 10
1.337727
 20
3.131377
  0
VERTEX
  8
EBENE_1
 62
    39
  6
CONTINUOUS
 10
1.341220
 20
3.154512
  0
VERTEX
  8
EBENE_1
 62
    39
  6
CONTINUOUS
 10
1.341220
 20
3.154512
  0
VERTEX
  8
EBENE_1
 62
    39
  6
CONTINUOUS
 10
1.341220
 20
3.387016
  0
VERTEX
  8
EBENE_1
 62
    39
  6
CONTINUOUS
 10
1.242539
 20
3.434331
  0
VERTEX
  8
EBENE_1
 62
    39
  6
CONTINUOUS
 10
0.674118
 20
3.283606
  0
VERTEX
  8
EBENE_1
 62
    39
  6
CONTINUOUS
 10
0.663262
 20
3.267100
  0
VERTEX
  8
EBENE_1
 62
    39
  6
CONTINUOUS
 10
0.653393
 20
3.249722
  0
VERTEX
  8
EBENE_1
 62
    39
  6
CONTINUOUS
 10
0.644828
 20
3.231574
  0
VERTEX
  8
EBENE_1
 62
    39
  6
CONTINUOUS
 10
0.637883
 20
3.212755
  0
VERTEX
  8
EBENE_1
 62
    39
  6
CONTINUOUS
 10
0.632877
 20
3.193367
  0
VERTEX
  8
EBENE_1
 62
    39
  6
CONTINUOUS
 10
0.630125
 20
3.173509
  0
VERTEX
  8
EBENE_1
 62
    39
  6
CONTINUOUS
 10
0.629945
 20
3.153283
  0
VERTEX
  8
EBENE_1
 62
    39
  6
CONTINUOUS
 10
0.632653
 20
3.132788
  0
VERTEX
  8
EBENE_1
 62
    39
  6
CONTINUOUS
 10
0.638566
 20
3.112126
  0
VERTEX
  8
EBENE_1
 62
    39
  6
CONTINUOUS
 10
0.648001
 20
3.091397
  0
VERTEX
  8
EBENE_1
 62
    39
  6
CONTINUOUS
 10
0.661276
 20
3.070701
  0
SEQEND
  8
0
  0
POLYLINE
  8
EBENE_1
 62
    39
  6
CONTINUOUS
 66
     1
 40
0.003000
 41
0.003000
 70
     1
  0
VERTEX
  8
EBENE_1
 62
    39
  6
CONTINUOUS
 10
0.666008
 20
3.075433
  0
VERTEX
  8
EBENE_1
 62
    39
  6
CONTINUOUS
 10
0.680516
 20
3.059652
  0
VERTEX
  8
EBENE_1
 62
    39
  6
CONTINUOUS
 10
0.696201
 20
3.044759
  0
VERTEX
  8
EBENE_1
 62
    39
  6
CONTINUOUS
 10
0.712926
 20
3.030764
  0
VERTEX
  8
EBENE_1
 62
    39
  6
CONTINUOUS
 10
0.730554
 20
3.017678
  0
VERTEX
  8
EBENE_1
 62
    39
  6
CONTINUOUS
 10
0.748947
 20
3.005514
  0
VERTEX
  8
EBENE_1
 62
    39
  6
CONTINUOUS
 10
0.767969
 20
2.994283
  0
VERTEX
  8
EBENE_1
 62
    39
  6
CONTINUOUS
 10
0.787483
 20
2.983994
  0
VERTEX
  8
EBENE_1
 62
    39
  6
CONTINUOUS
 10
0.807350
 20
2.974661
  0
VERTEX
  8
EBENE_1
 62
    39
  6
CONTINUOUS
 10
0.827435
 20
2.966294
  0
VERTEX
  8
EBENE_1
 62
    39
  6
CONTINUOUS
 10
0.847599
 20
2.958904
  0
VERTEX
  8
EBENE_1
 62
    39
  6
CONTINUOUS
 10
0.867706
 20
2.952502
  0
VERTEX
  8
EBENE_1
 62
    39
  6
CONTINUOUS
 10
0.887618
 20
2.947101
  0
VERTEX
  8
EBENE_1
 62
    39
  6
CONTINUOUS
 10
0.907199
 20
2.942710
  0
VERTEX
  8
EBENE_1
 62
    39
  6
CONTINUOUS
 10
0.926310
 20
2.939342
  0
VERTEX
  8
EBENE_1
 62
    39
  6
CONTINUOUS
 10
0.944816
 20
2.937007
  0
VERTEX
  8
EBENE_1
 62
    39
  6
CONTINUOUS
 10
0.962579
 20
2.935717
  0
VERTEX
  8
EBENE_1
 62
    39
  6
CONTINUOUS
 10
0.979461
 20
2.935483
  0
VERTEX
  8
EBENE_1
 62
    39
  6
CONTINUOUS
 10
0.995326
 20
2.936317
  0
VERTEX
  8
EBENE_1
 62
    39
  6
CONTINUOUS
 10
1.010035
 20
2.938228
  0
VERTEX
  8
EBENE_1
 62
    39
  6
CONTINUOUS
 10
1.010035
 20
2.938228
  0
VERTEX
  8
EBENE_1
 62
    39
  6
CONTINUOUS
 10
1.034948
 20
2.943839
  0
VERTEX
  8
EBENE_1
 62
    39
  6
CONTINUOUS
 10
1.058550
 20
2.949293
  0
VERTEX
  8
EBENE_1
 62
    39
  6
CONTINUOUS
 10
1.081007
 20
2.954672
  0
VERTEX
  8
EBENE_1
 62
    39
  6
CONTINUOUS
 10
1.102482
 20
2.960054
  0
VERTEX
  8
EBENE_1
 62
    39
  6
CONTINUOUS
 10
1.123141
 20
2.965518
  0
VERTEX
  8
EBENE_1
 62
    39
  6
CONTINUOUS
 10
1.143148
 20
2.971143
  0
VERTEX
  8
EBENE_1
 62
    39
  6
CONTINUOUS
 10
1.162668
 20
2.977009
  0
VERTEX
  8
EBENE_1
 62
    39
  6
CONTINUOUS
 10
1.181864
 20
2.983195
  0
VERTEX
  8
EBENE_1
 62
    39
  6
CONTINUOUS
 10
1.200902
 20
2.989780
  0
VERTEX
  8
EBENE_1
 62
    39
  6
CONTINUOUS
 10
1.219947
 20
2.996844
  0
VERTEX
  8
EBENE_1
 62
    39
  6
CONTINUOUS
 10
1.239161
 20
3.004465
  0
VERTEX
  8
EBENE_1
 62
    39
  6
CONTINUOUS
 10
1.258505
 20
3.017458
  0
VERTEX
  8
EBENE_1
 62
    39
  6
CONTINUOUS
 10
1.275923
 20
3.032114
  0
VERTEX
  8
EBENE_1
 62
    39
  6
CONTINUOUS
 10
1.291330
 20
3.048449
  0
VERTEX
  8
EBENE_1
 62
    39
  6
CONTINUOUS
 10
1.304637
 20
3.066479
  0
VERTEX
  8
EBENE_1
 62
    39
  6
CONTINUOUS
 10
1.315759
 20
3.086220
  0
VERTEX
  8
EBENE_1
 62
    39
  6
CONTINUOUS
 10
1.324608
 20
3.107688
  0
VERTEX
  8
EBENE_1
 62
    39
  6
CONTINUOUS
 10
1.331096
 20
3.130898
  0
VERTEX
  8
EBENE_1
 62
    39
  6
CONTINUOUS
 10
1.335138
 20
3.155866
  0
VERTEX
  8
EBENE_1
 62
    39
  6
CONTINUOUS
 10
1.335138
 20
3.389043
  0
VERTEX
  8
EBENE_1
 62
    39
  6
CONTINUOUS
 10
1.237811
 20
3.436358
  0
VERTEX
  8
EBENE_1
 62
    39
  6
CONTINUOUS
 10
0.676823
 20
3.283606
  0
VERTEX
  8
EBENE_1
 62
    39
  6
CONTINUOUS
 10
0.666349
 20
3.267592
  0
VERTEX
  8
EBENE_1
 62
    39
  6
CONTINUOUS
 10
0.656877
 20
3.250602
  0
VERTEX
  8
EBENE_1
 62
    39
  6
CONTINUOUS
 10
0.648706
 20
3.232768
  0
VERTEX
  8
EBENE_1
 62
    39
  6
CONTINUOUS
 10
0.642135
 20
3.214221
  0
VERTEX
  8
EBENE_1
 62
    39
  6
CONTINUOUS
 10
0.637462
 20
3.195092
  0
VERTEX
  8
EBENE_1
 62
    39
  6
CONTINUOUS
 10
0.634986
 20
3.175512
  0
VERTEX
  8
EBENE_1
 62
    39
  6
CONTINUOUS
 10
0.635005
 20
3.155612
  0
VERTEX
  8
EBENE_1
 62
    39
  6
CONTINUOUS
 10
0.637818
 20
3.135523
  0
VERTEX
  8
EBENE_1
 62
    39
  6
CONTINUOUS
 10
0.643724
 20
3.115376
  0
VERTEX
  8
EBENE_1
 62
    39
  6
CONTINUOUS
 10
0.653021
 20
3.095302
  0
VERTEX
  8
EBENE_1
 62
    39
  6
CONTINUOUS
 10
0.666008
 20
3.075433
  0
SEQEND
  8
0
  0
POLYLINE
  8
EBENE_1
 62
    39
  6
CONTINUOUS
 66
     1
 40
0.003000
 41
0.003000
  0
VERTEX
  8
EBENE_1
 62
    39
  6
CONTINUOUS
 10
0.868098
 20
3.252516
  0
VERTEX
  8
EBENE_1
 62
    39
  6
CONTINUOUS
 10
0.873780
 20
3.254143
  0
VERTEX
  8
EBENE_1
 62
    39
  6
CONTINUOUS
 10
0.877960
 20
3.258323
  0
VERTEX
  8
EBENE_1
 62
    39
  6
CONTINUOUS
 10
0.879587
 20
3.264008
  0
SEQEND
  8
0
  0
POLYLINE
  8
EBENE_1
 62
    39
  6
CONTINUOUS
 66
     1
 40
0.003000
 41
0.003000
  0
VERTEX
  8
EBENE_1
 62
    39
  6
CONTINUOUS
 10
0.879587
 20
3.264008
  0
VERTEX
  8
EBENE_1
 62
    39
  6
CONTINUOUS
 10
0.877960
 20
3.269690
  0
VERTEX
  8
EBENE_1
 62
    39
  6
CONTINUOUS
 10
0.873780
 20
3.273869
  0
VERTEX
  8
EBENE_1
 62
    39
  6
CONTINUOUS
 10
0.868098
 20
3.275496
  0
SEQEND
  8
0
  0
POLYLINE
  8
EBENE_1
 62
    39
  6
CONTINUOUS
 66
     1
 40
0.003000
 41
0.003000
  0
VERTEX
  8
EBENE_1
 62
    39
  6
CONTINUOUS
 10
0.868098
 20
3.275496
  0
VERTEX
  8
EBENE_1
 62
    39
  6
CONTINUOUS
 10
0.862115
 20
3.273869
  0
VERTEX
  8
EBENE_1
 62
    39
  6
CONTINUOUS
 10
0.858084
 20
3.269690
  0
VERTEX
  8
EBENE_1
 62
    39
  6
CONTINUOUS
 10
0.856606
 20
3.264008
  0
SEQEND
  8
0
  0
POLYLINE
  8
EBENE_1
 62
    39
  6
CONTINUOUS
 66
     1
 40
0.003000
 41
0.003000
  0
VERTEX
  8
EBENE_1
 62
    39
  6
CONTINUOUS
 10
0.856606
 20
3.264008
  0
VERTEX
  8
EBENE_1
 62
    39
  6
CONTINUOUS
 10
0.858084
 20
3.258323
  0
VERTEX
  8
EBENE_1
 62
    39
  6
CONTINUOUS
 10
0.862115
 20
3.254143
  0
VERTEX
  8
EBENE_1
 62
    39
  6
CONTINUOUS
 10
0.868098
 20
3.252516
  0
SEQEND
  8
0
  0
POLYLINE
  8
EBENE_1
 62
    39
  6
CONTINUOUS
 66
     1
 40
0.003000
 41
0.003000
  0
VERTEX
  8
EBENE_1
 62
    39
  6
CONTINUOUS
 10
1.056669
 20
3.261980
  0
VERTEX
  8
EBENE_1
 62
    39
  6
CONTINUOUS
 10
1.062352
 20
3.263457
  0
VERTEX
  8
EBENE_1
 62
    39
  6
CONTINUOUS
 10
1.066534
 20
3.267486
  0
VERTEX
  8
EBENE_1
 62
    39
  6
CONTINUOUS
 10
1.068161
 20
3.273469
  0
SEQEND
  8
0
  0
POLYLINE
  8
EBENE_1
 62
    39
  6
CONTINUOUS
 66
     1
 40
0.003000
 41
0.003000
  0
VERTEX
  8
EBENE_1
 62
    39
  6
CONTINUOUS
 10
1.068161
 20
3.273469
  0
VERTEX
  8
EBENE_1
 62
    39
  6
CONTINUOUS
 10
1.066534
 20
3.279151
  0
VERTEX
  8
EBENE_1
 62
    39
  6
CONTINUOUS
 10
1.062352
 20
3.283333
  0
VERTEX
  8
EBENE_1
 62
    39
  6
CONTINUOUS
 10
1.056669
 20
3.284961
  0
SEQEND
  8
0
  0
POLYLINE
  8
EBENE_1
 62
    39
  6
CONTINUOUS
 66
     1
 40
0.003000
 41
0.003000
  0
VERTEX
  8
EBENE_1
 62
    39
  6
CONTINUOUS
 10
1.056669
 20
3.284961
  0
VERTEX
  8
EBENE_1
 62
    39
  6
CONTINUOUS
 10
1.050987
 20
3.283333
  0
VERTEX
  8
EBENE_1
 62
    39
  6
CONTINUOUS
 10
1.046808
 20
3.279151
  0
VERTEX
  8
EBENE_1
 62
    39
  6
CONTINUOUS
 10
1.045181
 20
3.273469
  0
SEQEND
  8
0
  0
POLYLINE
  8
EBENE_1
 62
    39
  6
CONTINUOUS
 66
     1
 40
0.003000
 41
0.003000
  0
VERTEX
  8
EBENE_1
 62
    39
  6
CONTINUOUS
 10
1.045181
 20
3.273469
  0
VERTEX
  8
EBENE_1
 62
    39
  6
CONTINUOUS
 10
1.046808
 20
3.267486
  0
VERTEX
  8
EBENE_1
 62
    39
  6
CONTINUOUS
 10
1.050987
 20
3.263457
  0
VERTEX
  8
EBENE_1
 62
    39
  6
CONTINUOUS
 10
1.056669
 20
3.261980
  0
SEQEND
  8
0
  0
POLYLINE
  8
EBENE_1
 62
    39
  6
CONTINUOUS
 66
     1
 40
0.003000
 41
0.003000
  0
VERTEX
  8
EBENE_1
 62
    39
  6
CONTINUOUS
 10
1.166165
 20
3.348492
  0
VERTEX
  8
EBENE_1
 62
    39
  6
CONTINUOUS
 10
1.171847
 20
3.350119
  0
VERTEX
  8
EBENE_1
 62
    39
  6
CONTINUOUS
 10
1.176027
 20
3.354300
  0
VERTEX
  8
EBENE_1
 62
    39
  6
CONTINUOUS
 10
1.177654
 20
3.359984
  0
SEQEND
  8
0
  0
POLYLINE
  8
EBENE_1
 62
    39
  6
CONTINUOUS
 66
     1
 40
0.003000
 41
0.003000
  0
VERTEX
  8
EBENE_1
 62
    39
  6
CONTINUOUS
 10
1.177654
 20
3.359984
  0
VERTEX
  8
EBENE_1
 62
    39
  6
CONTINUOUS
 10
1.176027
 20
3.365666
  0
VERTEX
  8
EBENE_1
 62
    39
  6
CONTINUOUS
 10
1.171847
 20
3.369846
  0
VERTEX
  8
EBENE_1
 62
    39
  6
CONTINUOUS
 10
1.166165
 20
3.371472
  0
SEQEND
  8
0
  0
POLYLINE
  8
EBENE_1
 62
    39
  6
CONTINUOUS
 66
     1
 40
0.003000
 41
0.003000
  0
VERTEX
  8
EBENE_1
 62
    39
  6
CONTINUOUS
 10
1.166165
 20
3.371472
  0
VERTEX
  8
EBENE_1
 62
    39
  6
CONTINUOUS
 10
1.160483
 20
3.369846
  0
VERTEX
  8
EBENE_1
 62
    39
  6
CONTINUOUS
 10
1.156301
 20
3.365666
  0
VERTEX
  8
EBENE_1
 62
    39
  6
CONTINUOUS
 10
1.154673
 20
3.359984
  0
SEQEND
  8
0
  0
POLYLINE
  8
EBENE_1
 62
    39
  6
CONTINUOUS
 66
     1
 40
0.003000
 41
0.003000
  0
VERTEX
  8
EBENE_1
 62
    39
  6
CONTINUOUS
 10
1.154673
 20
3.359984
  0
VERTEX
  8
EBENE_1
 62
    39
  6
CONTINUOUS
 10
1.156301
 20
3.354300
  0
VERTEX
  8
EBENE_1
 62
    39
  6
CONTINUOUS
 10
1.160483
 20
3.350119
  0
VERTEX
  8
EBENE_1
 62
    39
  6
CONTINUOUS
 10
1.166165
 20
3.348492
  0
SEQEND
  8
0
  0
POLYLINE
  8
EBENE_1
 62
    39
  6
CONTINUOUS
 66
     1
 40
0.003000
 41
0.003000
 70
     1
  0
VERTEX
  8
EBENE_1
 62
    39
  6
CONTINUOUS
 10
0.515283
 20
3.240350
  0
VERTEX
  8
EBENE_1
 62
    39
  6
CONTINUOUS
 10
0.526711
 20
3.224387
  0
VERTEX
  8
EBENE_1
 62
    39
  6
CONTINUOUS
 10
0.539191
 20
3.209964
  0
VERTEX
  8
EBENE_1
 62
    39
  6
CONTINUOUS
 10
0.552673
 20
3.197011
  0
VERTEX
  8
EBENE_1
 62
    39
  6
CONTINUOUS
 10
0.567109
 20
3.185463
  0
VERTEX
  8
EBENE_1
 62
    39
  6
CONTINUOUS
 10
0.582449
 20
3.175252
  0
VERTEX
  8
EBENE_1
 62
    39
  6
CONTINUOUS
 10
0.598645
 20
3.166310
  0
VERTEX
  8
EBENE_1
 62
    39
  6
CONTINUOUS
 10
0.615648
 20
3.158570
  0
VERTEX
  8
EBENE_1
 62
    39
  6
CONTINUOUS
 10
0.633408
 20
3.151964
  0
VERTEX
  8
EBENE_1
 62
    39
  6
CONTINUOUS
 10
0.651876
 20
3.146426
  0
VERTEX
  8
EBENE_1
 62
    39
  6
CONTINUOUS
 10
0.671003
 20
3.141887
  0
VERTEX
  8
EBENE_1
 62
    39
  6
CONTINUOUS
 10
0.690741
 20
3.138282
  0
VERTEX
  8
EBENE_1
 62
    39
  6
CONTINUOUS
 10
0.711040
 20
3.135541
  0
VERTEX
  8
EBENE_1
 62
    39
  6
CONTINUOUS
 10
0.731851
 20
3.133597
  0
VERTEX
  8
EBENE_1
 62
    39
  6
CONTINUOUS
 10
0.753124
 20
3.132384
  0
VERTEX
  8
EBENE_1
 62
    39
  6
CONTINUOUS
 10
0.774812
 20
3.131834
  0
VERTEX
  8
EBENE_1
 62
    39
  6
CONTINUOUS
 10
0.796865
 20
3.131879
  0
VERTEX
  8
EBENE_1
 62
    39
  6
CONTINUOUS
 10
0.819233
 20
3.132452
  0
VERTEX
  8
EBENE_1
 62
    39
  6
CONTINUOUS
 10
0.841868
 20
3.133486
  0
VERTEX
  8
EBENE_1
 62
    39
  6
CONTINUOUS
 10
0.864720
 20
3.134913
  0
VERTEX
  8
EBENE_1
 62
    39
  6
CONTINUOUS
 10
0.885622
 20
3.137462
  0
VERTEX
  8
EBENE_1
 62
    39
  6
CONTINUOUS
 10
0.906816
 20
3.140786
  0
VERTEX
  8
EBENE_1
 62
    39
  6
CONTINUOUS
 10
0.928222
 20
3.144822
  0
VERTEX
  8
EBENE_1
 62
    39
  6
CONTINUOUS
 10
0.949757
 20
3.149507
  0
VERTEX
  8
EBENE_1
 62
    39
  6
CONTINUOUS
 10
0.971340
 20
3.154778
  0
VERTEX
  8
EBENE_1
 62
    39
  6
CONTINUOUS
 10
0.992888
 20
3.160571
  0
VERTEX
  8
EBENE_1
 62
    39
  6
CONTINUOUS
 10
1.014319
 20
3.166823
  0
VERTEX
  8
EBENE_1
 62
    39
  6
CONTINUOUS
 10
1.035551
 20
3.173470
  0
VERTEX
  8
EBENE_1
 62
    39
  6
CONTINUOUS
 10
1.056502
 20
3.180450
  0
VERTEX
  8
EBENE_1
 62
    39
  6
CONTINUOUS
 10
1.077090
 20
3.187699
  0
VERTEX
  8
EBENE_1
 62
    39
  6
CONTINUOUS
 10
1.097234
 20
3.195155
  0
VERTEX
  8
EBENE_1
 62
    39
  6
CONTINUOUS
 10
1.116850
 20
3.202752
  0
VERTEX
  8
EBENE_1
 62
    39
  6
CONTINUOUS
 10
1.135857
 20
3.210429
  0
VERTEX
  8
EBENE_1
 62
    39
  6
CONTINUOUS
 10
1.154173
 20
3.218122
  0
VERTEX
  8
EBENE_1
 62
    39
  6
CONTINUOUS
 10
1.171716
 20
3.225767
  0
VERTEX
  8
EBENE_1
 62
    39
  6
CONTINUOUS
 10
1.188404
 20
3.233302
  0
VERTEX
  8
EBENE_1
 62
    39
  6
CONTINUOUS
 10
1.204155
 20
3.240663
  0
VERTEX
  8
EBENE_1
 62
    39
  6
CONTINUOUS
 10
1.218886
 20
3.247787
  0
VERTEX
  8
EBENE_1
 62
    39
  6
CONTINUOUS
 10
1.240926
 20
3.259206
  0
VERTEX
  8
EBENE_1
 62
    39
  6
CONTINUOUS
 10
1.261036
 20
3.271855
  0
VERTEX
  8
EBENE_1
 62
    39
  6
CONTINUOUS
 10
1.279138
 20
3.285761
  0
VERTEX
  8
EBENE_1
 62
    39
  6
CONTINUOUS
 10
1.295154
 20
3.300951
  0
VERTEX
  8
EBENE_1
 62
    39
  6
CONTINUOUS
 10
1.309006
 20
3.317455
  0
VERTEX
  8
EBENE_1
 62
    39
  6
CONTINUOUS
 10
1.320617
 20
3.335300
  0
VERTEX
  8
EBENE_1
 62
    39
  6
CONTINUOUS
 10
1.329908
 20
3.354513
  0
VERTEX
  8
EBENE_1
 62
    39
  6
CONTINUOUS
 10
1.336802
 20
3.375123
  0
VERTEX
  8
EBENE_1
 62
    39
  6
CONTINUOUS
 10
1.341220
 20
3.397157
  0
VERTEX
  8
EBENE_1
 62
    39
  6
CONTINUOUS
 10
1.341220
 20
3.660752
  0
VERTEX
  8
EBENE_1
 62
    39
  6
CONTINUOUS
 10
1.252004
 20
3.714150
  0
VERTEX
  8
EBENE_1
 62
    39
  6
CONTINUOUS
 10
0.504469
 20
3.505299
  0
VERTEX
  8
EBENE_1
 62
    39
  6
CONTINUOUS
 10
0.491677
 20
3.486297
  0
VERTEX
  8
EBENE_1
 62
    39
  6
CONTINUOUS
 10
0.481587
 20
3.467000
  0
VERTEX
  8
EBENE_1
 62
    39
  6
CONTINUOUS
 10
0.474045
 20
3.447484
  0
VERTEX
  8
EBENE_1
 62
    39
  6
CONTINUOUS
 10
0.468897
 20
3.427826
  0
VERTEX
  8
EBENE_1
 62
    39
  6
CONTINUOUS
 10
0.465990
 20
3.408103
  0
VERTEX
  8
EBENE_1
 62
    39
  6
CONTINUOUS
 10
0.465169
 20
3.388392
  0
VERTEX
  8
EBENE_1
 62
    39
  6
CONTINUOUS
 10
0.466281
 20
3.368769
  0
VERTEX
  8
EBENE_1
 62
    39
  6
CONTINUOUS
 10
0.469173
 20
3.349312
  0
VERTEX
  8
EBENE_1
 62
    39
  6
CONTINUOUS
 10
0.473691
 20
3.330098
  0
VERTEX
  8
EBENE_1
 62
    39
  6
CONTINUOUS
 10
0.479680
 20
3.311202
  0
VERTEX
  8
EBENE_1
 62
    39
  6
CONTINUOUS
 10
0.486988
 20
3.292703
  0
VERTEX
  8
EBENE_1
 62
    39
  6
CONTINUOUS
 10
0.495460
 20
3.274677
  0
VERTEX
  8
EBENE_1
 62
    39
  6
CONTINUOUS
 10
0.504943
 20
3.257200
  0
SEQEND
  8
0
  0
POLYLINE
  8
EBENE_1
 62
    39
  6
CONTINUOUS
 66
     1
 40
0.003000
 41
0.003000
 70
     1
  0
VERTEX
  8
EBENE_1
 62
    39
  6
CONTINUOUS
 10
0.523394
 20
3.239000
  0
VERTEX
  8
EBENE_1
 62
    39
  6
CONTINUOUS
 10
0.536608
 20
3.223288
  0
VERTEX
  8
EBENE_1
 62
    39
  6
CONTINUOUS
 10
0.550418
 20
3.209184
  0
VERTEX
  8
EBENE_1
 62
    39
  6
CONTINUOUS
 10
0.564812
 20
3.196612
  0
VERTEX
  8
EBENE_1
 62
    39
  6
CONTINUOUS
 10
0.579779
 20
3.185494
  0
VERTEX
  8
EBENE_1
 62
    39
  6
CONTINUOUS
 10
0.595308
 20
3.175754
  0
VERTEX
  8
EBENE_1
 62
    39
  6
CONTINUOUS
 10
0.611387
 20
3.167314
  0
VERTEX
  8
EBENE_1
 62
    39
  6
CONTINUOUS
 10
0.628005
 20
3.160099
  0
VERTEX
  8
EBENE_1
 62
    39
  6
CONTINUOUS
 10
0.645151
 20
3.154030
  0
VERTEX
  8
EBENE_1
 62
    39
  6
CONTINUOUS
 10
0.662814
 20
3.149032
  0
VERTEX
  8
EBENE_1
 62
    39
  6
CONTINUOUS
 10
0.680983
 20
3.145027
  0
VERTEX
  8
EBENE_1
 62
    39
  6
CONTINUOUS
 10
0.699646
 20
3.141938
  0
VERTEX
  8
EBENE_1
 62
    39
  6
CONTINUOUS
 10
0.718791
 20
3.139689
  0
VERTEX
  8
EBENE_1
 62
    39
  6
CONTINUOUS
 10
0.738409
 20
3.138202
  0
VERTEX
  8
EBENE_1
 62
    39
  6
CONTINUOUS
 10
0.758487
 20
3.137402
  0
VERTEX
  8
EBENE_1
 62
    39
  6
CONTINUOUS
 10
0.779015
 20
3.137210
  0
VERTEX
  8
EBENE_1
 62
    39
  6
CONTINUOUS
 10
0.799980
 20
3.137551
  0
VERTEX
  8
EBENE_1
 62
    39
  6
CONTINUOUS
 10
0.821373
 20
3.138346
  0
VERTEX
  8
EBENE_1
 62
    39
  6
CONTINUOUS
 10
0.843181
 20
3.139520
  0
VERTEX
  8
EBENE_1
 62
    39
  6
CONTINUOUS
 10
0.865394
 20
3.140996
  0
VERTEX
  8
EBENE_1
 62
    39
  6
CONTINUOUS
 10
0.886844
 20
3.143639
  0
VERTEX
  8
EBENE_1
 62
    39
  6
CONTINUOUS
 10
0.908446
 20
3.146999
  0
VERTEX
  8
EBENE_1
 62
    39
  6
CONTINUOUS
 10
0.930128
 20
3.151023
  0
VERTEX
  8
EBENE_1
 62
    39
  6
CONTINUOUS
 10
0.951816
 20
3.155654
  0
VERTEX
  8
EBENE_1
 62
    39
  6
CONTINUOUS
 10
0.973438
 20
3.160839
  0
VERTEX
  8
EBENE_1
 62
    39
  6
CONTINUOUS
 10
0.994921
 20
3.166524
  0
VERTEX
  8
EBENE_1
 62
    39
  6
CONTINUOUS
 10
1.016193
 20
3.172653
  0
VERTEX
  8
EBENE_1
 62
    39
  6
CONTINUOUS
 10
1.037181
 20
3.179173
  0
VERTEX
  8
EBENE_1
 62
    39
  6
CONTINUOUS
 10
1.057813
 20
3.186028
  0
VERTEX
  8
EBENE_1
 62
    39
  6
CONTINUOUS
 10
1.078015
 20
3.193166
  0
VERTEX
  8
EBENE_1
 62
    39
  6
CONTINUOUS
 10
1.097716
 20
3.200530
  0
VERTEX
  8
EBENE_1
 62
    39
  6
CONTINUOUS
 10
1.116842
 20
3.208067
  0
VERTEX
  8
EBENE_1
 62
    39
  6
CONTINUOUS
 10
1.135320
 20
3.215722
  0
VERTEX
  8
EBENE_1
 62
    39
  6
CONTINUOUS
 10
1.153079
 20
3.223440
  0
VERTEX
  8
EBENE_1
 62
    39
  6
CONTINUOUS
 10
1.170046
 20
3.231168
  0
VERTEX
  8
EBENE_1
 62
    39
  6
CONTINUOUS
 10
1.186147
 20
3.238850
  0
VERTEX
  8
EBENE_1
 62
    39
  6
CONTINUOUS
 10
1.201311
 20
3.246433
  0
VERTEX
  8
EBENE_1
 62
    39
  6
CONTINUOUS
 10
1.221227
 20
3.256949
  0
VERTEX
  8
EBENE_1
 62
    39
  6
CONTINUOUS
 10
1.240279
 20
3.268267
  0
VERTEX
  8
EBENE_1
 62
    39
  6
CONTINUOUS
 10
1.258253
 20
3.280462
  0
VERTEX
  8
EBENE_1
 62
    39
  6
CONTINUOUS
 10
1.274933
 20
3.293605
  0
VERTEX
  8
EBENE_1
 62
    39
  6
CONTINUOUS
 10
1.290104
 20
3.307771
  0
VERTEX
  8
EBENE_1
 62
    39
  6
CONTINUOUS
 10
1.303552
 20
3.323031
  0
VERTEX
  8
EBENE_1
 62
    39
  6
CONTINUOUS
 10
1.315062
 20
3.339459
  0
VERTEX
  8
EBENE_1
 62
    39
  6
CONTINUOUS
 10
1.324418
 20
3.357128
  0
VERTEX
  8
EBENE_1
 62
    39
  6
CONTINUOUS
 10
1.331406
 20
3.376111
  0
VERTEX
  8
EBENE_1
 62
    39
  6
CONTINUOUS
 10
1.335811
 20
3.396480
  0
VERTEX
  8
EBENE_1
 62
    39
  6
CONTINUOUS
 10
1.335811
 20
3.668185
  0
VERTEX
  8
EBENE_1
 62
    39
  6
CONTINUOUS
 10
1.242539
 20
3.723610
  0
VERTEX
  8
EBENE_1
 62
    39
  6
CONTINUOUS
 10
0.514610
 20
3.508004
  0
VERTEX
  8
EBENE_1
 62
    39
  6
CONTINUOUS
 10
0.502307
 20
3.488472
  0
VERTEX
  8
EBENE_1
 62
    39
  6
CONTINUOUS
 10
0.492538
 20
3.468735
  0
VERTEX
  8
EBENE_1
 62
    39
  6
CONTINUOUS
 10
0.485165
 20
3.448856
  0
VERTEX
  8
EBENE_1
 62
    39
  6
CONTINUOUS
 10
0.480054
 20
3.428898
  0
VERTEX
  8
EBENE_1
 62
    39
  6
CONTINUOUS
 10
0.477068
 20
3.408926
  0
VERTEX
  8
EBENE_1
 62
    39
  6
CONTINUOUS
 10
0.476072
 20
3.389003
  0
VERTEX
  8
EBENE_1
 62
    39
  6
CONTINUOUS
 10
0.476928
 20
3.369192
  0
VERTEX
  8
EBENE_1
 62
    39
  6
CONTINUOUS
 10
0.479502
 20
3.349557
  0
VERTEX
  8
EBENE_1
 62
    39
  6
CONTINUOUS
 10
0.483657
 20
3.330162
  0
VERTEX
  8
EBENE_1
 62
    39
  6
CONTINUOUS
 10
0.489258
 20
3.311069
  0
VERTEX
  8
EBENE_1
 62
    39
  6
CONTINUOUS
 10
0.496168
 20
3.292343
  0
VERTEX
  8
EBENE_1
 62
    39
  6
CONTINUOUS
 10
0.504251
 20
3.274048
  0
VERTEX
  8
EBENE_1
 62
    39
  6
CONTINUOUS
 10
0.513372
 20
3.256245
  0
SEQEND
  8
0
  0
POLYLINE
  8
EBENE_1
 62
    39
  6
CONTINUOUS
 66
     1
 40
0.003000
 41
0.003000
 70
     1
  0
VERTEX
  8
EBENE_1
 62
    39
  6
CONTINUOUS
 10
0.658575
 20
3.503272
  0
VERTEX
  8
EBENE_1
 62
    39
  6
CONTINUOUS
 10
0.665207
 20
3.504749
  0
VERTEX
  8
EBENE_1
 62
    39
  6
CONTINUOUS
 10
0.669737
 20
3.508779
  0
VERTEX
  8
EBENE_1
 62
    39
  6
CONTINUOUS
 10
0.671413
 20
3.514760
  0
VERTEX
  8
EBENE_1
 62
    39
  6
CONTINUOUS
 10
0.669737
 20
3.520267
  0
VERTEX
  8
EBENE_1
 62
    39
  6
CONTINUOUS
 10
0.665207
 20
3.524123
  0
VERTEX
  8
EBENE_1
 62
    39
  6
CONTINUOUS
 10
0.658575
 20
3.525575
  0
VERTEX
  8
EBENE_1
 62
    39
  6
CONTINUOUS
 10
0.652415
 20
3.524123
  0
VERTEX
  8
EBENE_1
 62
    39
  6
CONTINUOUS
 10
0.648058
 20
3.520267
  0
VERTEX
  8
EBENE_1
 62
    39
  6
CONTINUOUS
 10
0.646406
 20
3.514760
  0
VERTEX
  8
EBENE_1
 62
    39
  6
CONTINUOUS
 10
0.648058
 20
3.508779
  0
VERTEX
  8
EBENE_1
 62
    39
  6
CONTINUOUS
 10
0.652415
 20
3.504749
  0
SEQEND
  8
0
  0
POLYLINE
  8
EBENE_1
 62
    39
  6
CONTINUOUS
 66
     1
 40
0.003000
 41
0.003000
 70
     1
  0
VERTEX
  8
EBENE_1
 62
    39
  6
CONTINUOUS
 10
1.118177
 20
3.631012
  0
VERTEX
  8
EBENE_1
 62
    39
  6
CONTINUOUS
 10
1.124511
 20
3.632464
  0
VERTEX
  8
EBENE_1
 62
    39
  6
CONTINUOUS
 10
1.129192
 20
3.636319
  0
VERTEX
  8
EBENE_1
 62
    39
  6
CONTINUOUS
 10
1.131020
 20
3.641827
  0
VERTEX
  8
EBENE_1
 62
    39
  6
CONTINUOUS
 10
1.129192
 20
3.647811
  0
VERTEX
  8
EBENE_1
 62
    39
  6
CONTINUOUS
 10
1.124511
 20
3.651842
  0
VERTEX
  8
EBENE_1
 62
    39
  6
CONTINUOUS
 10
1.118177
 20
3.653319
  0
VERTEX
  8
EBENE_1
 62
    39
  6
CONTINUOUS
 10
1.111843
 20
3.651842
  0
VERTEX
  8
EBENE_1
 62
    39
  6
CONTINUOUS
 10
1.107162
 20
3.647811
  0
VERTEX
  8
EBENE_1
 62
    39
  6
CONTINUOUS
 10
1.105335
 20
3.641827
  0
VERTEX
  8
EBENE_1
 62
    39
  6
CONTINUOUS
 10
1.107162
 20
3.636319
  0
VERTEX
  8
EBENE_1
 62
    39
  6
CONTINUOUS
 10
1.111843
 20
3.632464
  0
SEQEND
  8
0
  0
POLYLINE
  8
EBENE_1
 62
    39
  6
CONTINUOUS
 66
     1
 40
0.003000
 41
0.003000
 70
     1
  0
VERTEX
  8
EBENE_1
 62
    39
  6
CONTINUOUS
 10
0.914732
 20
3.491780
  0
VERTEX
  8
EBENE_1
 62
    39
  6
CONTINUOUS
 10
0.921367
 20
3.493232
  0
VERTEX
  8
EBENE_1
 62
    39
  6
CONTINUOUS
 10
0.925898
 20
3.497087
  0
VERTEX
  8
EBENE_1
 62
    39
  6
CONTINUOUS
 10
0.927575
 20
3.502594
  0
VERTEX
  8
EBENE_1
 62
    39
  6
CONTINUOUS
 10
0.925898
 20
3.508578
  0
VERTEX
  8
EBENE_1
 62
    39
  6
CONTINUOUS
 10
0.921367
 20
3.512609
  0
VERTEX
  8
EBENE_1
 62
    39
  6
CONTINUOUS
 10
0.914732
 20
3.514087
  0
VERTEX
  8
EBENE_1
 62
    39
  6
CONTINUOUS
 10
0.908576
 20
3.512609
  0
VERTEX
  8
EBENE_1
 62
    39
  6
CONTINUOUS
 10
0.904220
 20
3.508578
  0
VERTEX
  8
EBENE_1
 62
    39
  6
CONTINUOUS
 10
0.902567
 20
3.502594
  0
VERTEX
  8
EBENE_1
 62
    39
  6
CONTINUOUS
 10
0.904220
 20
3.497087
  0
VERTEX
  8
EBENE_1
 62
    39
  6
CONTINUOUS
 10
0.908576
 20
3.493232
  0
SEQEND
  8
0
  0
POLYLINE
  8
EBENE_1
 62
    39
  6
CONTINUOUS
 66
     1
 40
0.003000
 41
0.003000
  0
VERTEX
  8
EBENE_1
 62
    39
  6
CONTINUOUS
 10
0.484193
 20
3.923673
  0
VERTEX
  8
EBENE_1
 62
    39
  6
CONTINUOUS
 10
0.801862
 20
3.403913
  0
VERTEX
  8
EBENE_1
 62
    39
  6
CONTINUOUS
 10
0.469323
 20
3.317402
  0
SEQEND
  8
0
  0
POLYLINE
  8
EBENE_1
 62
    39
  6
CONTINUOUS
 66
     1
 40
0.003000
 41
0.003000
  0
VERTEX
  8
EBENE_1
 62
    39
  6
CONTINUOUS
 10
0.469323
 20
3.317402
  0
VERTEX
  8
EBENE_1
 62
    39
  6
CONTINUOUS
 10
0.459533
 20
3.315619
  0
VERTEX
  8
EBENE_1
 62
    39
  6
CONTINUOUS
 10
0.448977
 20
3.314539
  0
VERTEX
  8
EBENE_1
 62
    39
  6
CONTINUOUS
 10
0.437698
 20
3.314157
  0
VERTEX
  8
EBENE_1
 62
    39
  6
CONTINUOUS
 10
0.425743
 20
3.314470
  0
VERTEX
  8
EBENE_1
 62
    39
  6
CONTINUOUS
 10
0.413156
 20
3.315476
  0
VERTEX
  8
EBENE_1
 62
    39
  6
CONTINUOUS
 10
0.399981
 20
3.317172
  0
VERTEX
  8
EBENE_1
 62
    39
  6
CONTINUOUS
 10
0.386263
 20
3.319554
  0
VERTEX
  8
EBENE_1
 62
    39
  6
CONTINUOUS
 10
0.372048
 20
3.322619
  0
VERTEX
  8
EBENE_1
 62
    39
  6
CONTINUOUS
 10
0.357381
 20
3.326364
  0
VERTEX
  8
EBENE_1
 62
    39
  6
CONTINUOUS
 10
0.342305
 20
3.330786
  0
VERTEX
  8
EBENE_1
 62
    39
  6
CONTINUOUS
 10
0.326867
 20
3.335882
  0
VERTEX
  8
EBENE_1
 62
    39
  6
CONTINUOUS
 10
0.311110
 20
3.341649
  0
VERTEX
  8
EBENE_1
 62
    39
  6
CONTINUOUS
 10
0.295080
 20
3.348083
  0
VERTEX
  8
EBENE_1
 62
    39
  6
CONTINUOUS
 10
0.278822
 20
3.355182
  0
VERTEX
  8
EBENE_1
 62
    39
  6
CONTINUOUS
 10
0.262380
 20
3.362942
  0
VERTEX
  8
EBENE_1
 62
    39
  6
CONTINUOUS
 10
0.245799
 20
3.371361
  0
VERTEX
  8
EBENE_1
 62
    39
  6
CONTINUOUS
 10
0.229124
 20
3.380435
  0
VERTEX
  8
EBENE_1
 62
    39
  6
CONTINUOUS
 10
0.212401
 20
3.390161
  0
VERTEX
  8
EBENE_1
 62
    39
  6
CONTINUOUS
 10
0.195673
 20
3.400536
  0
VERTEX
  8
EBENE_1
 62
    39
  6
CONTINUOUS
 10
0.178986
 20
3.411557
  0
VERTEX
  8
EBENE_1
 62
    39
  6
CONTINUOUS
 10
0.162385
 20
3.423221
  0
VERTEX
  8
EBENE_1
 62
    39
  6
CONTINUOUS
 10
0.145914
 20
3.435525
  0
VERTEX
  8
EBENE_1
 62
    39
  6
CONTINUOUS
 10
0.129619
 20
3.448465
  0
VERTEX
  8
EBENE_1
 62
    39
  6
CONTINUOUS
 10
0.113543
 20
3.462039
  0
VERTEX
  8
EBENE_1
 62
    39
  6
CONTINUOUS
 10
0.097733
 20
3.476243
  0
VERTEX
  8
EBENE_1
 62
    39
  6
CONTINUOUS
 10
0.082232
 20
3.491074
  0
VERTEX
  8
EBENE_1
 62
    39
  6
CONTINUOUS
 10
0.067087
 20
3.506530
  0
VERTEX
  8
EBENE_1
 62
    39
  6
CONTINUOUS
 10
0.052341
 20
3.522607
  0
VERTEX
  8
EBENE_1
 62
    39
  6
CONTINUOUS
 10
0.038039
 20
3.539301
  0
VERTEX
  8
EBENE_1
 62
    39
  6
CONTINUOUS
 10
0.024227
 20
3.556611
  0
VERTEX
  8
EBENE_1
 62
    39
  6
CONTINUOUS
 10
0.010949
 20
3.574532
  0
VERTEX
  8
EBENE_1
 62
    39
  6
CONTINUOUS
 10
-0.001750
 20
3.593062
  0
VERTEX
  8
EBENE_1
 62
    39
  6
CONTINUOUS
 10
-0.013825
 20
3.612198
  0
VERTEX
  8
EBENE_1
 62
    39
  6
CONTINUOUS
 10
-0.025232
 20
3.631936
  0
VERTEX
  8
EBENE_1
 62
    39
  6
CONTINUOUS
 10
-0.035924
 20
3.652273
  0
VERTEX
  8
EBENE_1
 62
    39
  6
CONTINUOUS
 10
-0.045858
 20
3.673207
  0
VERTEX
  8
EBENE_1
 62
    39
  6
CONTINUOUS
 10
-0.054989
 20
3.694734
  0
VERTEX
  8
EBENE_1
 62
    39
  6
CONTINUOUS
 10
-0.063272
 20
3.716850
  0
SEQEND
  8
0
  0
POLYLINE
  8
EBENE_1
 62
    39
  6
CONTINUOUS
 66
     1
 40
0.003000
 41
0.003000
  0
VERTEX
  8
EBENE_1
 62
    39
  6
CONTINUOUS
 10
-0.063272
 20
3.716850
  0
VERTEX
  8
EBENE_1
 62
    39
  6
CONTINUOUS
 10
-0.067155
 20
3.742888
  0
VERTEX
  8
EBENE_1
 62
    39
  6
CONTINUOUS
 10
-0.068229
 20
3.767463
  0
VERTEX
  8
EBENE_1
 62
    39
  6
CONTINUOUS
 10
-0.066668
 20
3.790454
  0
VERTEX
  8
EBENE_1
 62
    39
  6
CONTINUOUS
 10
-0.062645
 20
3.811739
  0
VERTEX
  8
EBENE_1
 62
    39
  6
CONTINUOUS
 10
-0.056333
 20
3.831196
  0
VERTEX
  8
EBENE_1
 62
    39
  6
CONTINUOUS
 10
-0.047908
 20
3.848702
  0
VERTEX
  8
EBENE_1
 62
    39
  6
CONTINUOUS
 10
-0.037541
 20
3.864137
  0
VERTEX
  8
EBENE_1
 62
    39
  6
CONTINUOUS
 10
-0.025407
 20
3.877378
  0
VERTEX
  8
EBENE_1
 62
    39
  6
CONTINUOUS
 10
-0.011681
 20
3.888304
  0
VERTEX
  8
EBENE_1
 62
    39
  6
CONTINUOUS
 10
0.003466
 20
3.896792
  0
VERTEX
  8
EBENE_1
 62
    39
  6
CONTINUOUS
 10
0.019858
 20
3.902720
  0
SEQEND
  8
0
  0
POLYLINE
  8
EBENE_1
 62
    39
  6
CONTINUOUS
 66
     1
 40
0.003000
 41
0.003000
  0
VERTEX
  8
EBENE_1
 62
    39
  6
CONTINUOUS
 10
0.019858
 20
3.902720
  0
VERTEX
  8
EBENE_1
 62
    39
  6
CONTINUOUS
 10
0.365236
 20
3.995319
  0
SEQEND
  8
0
  0
POLYLINE
  8
EBENE_1
 62
    39
  6
CONTINUOUS
 66
     1
 40
0.003000
 41
0.003000
  0
VERTEX
  8
EBENE_1
 62
    39
  6
CONTINUOUS
 10
0.365236
 20
3.995319
  0
VERTEX
  8
EBENE_1
 62
    39
  6
CONTINUOUS
 10
0.389854
 20
3.999581
  0
VERTEX
  8
EBENE_1
 62
    39
  6
CONTINUOUS
 10
0.409025
 20
3.998581
  0
VERTEX
  8
EBENE_1
 62
    39
  6
CONTINUOUS
 10
0.423863
 20
3.993265
  0
VERTEX
  8
EBENE_1
 62
    39
  6
CONTINUOUS
 10
0.435481
 20
3.984577
  0
VERTEX
  8
EBENE_1
 62
    39
  6
CONTINUOUS
 10
0.444990
 20
3.973464
  0
VERTEX
  8
EBENE_1
 62
    39
  6
CONTINUOUS
 10
0.453503
 20
3.960872
  0
VERTEX
  8
EBENE_1
 62
    39
  6
CONTINUOUS
 10
0.462133
 20
3.947745
  0
VERTEX
  8
EBENE_1
 62
    39
  6
CONTINUOUS
 10
0.471992
 20
3.935031
  0
VERTEX
  8
EBENE_1
 62
    39
  6
CONTINUOUS
 10
0.484193
 20
3.923673
  0
SEQEND
  8
0
  0
POLYLINE
  8
EBENE_1
 62
    39
  6
CONTINUOUS
 66
     1
 40
0.003000
 41
0.003000
 70
     1
  0
VERTEX
  8
EBENE_1
 62
    39
  6
CONTINUOUS
 10
0.484193
 20
3.921646
  0
VERTEX
  8
EBENE_1
 62
    39
  6
CONTINUOUS
 10
0.796453
 20
3.410000
  0
VERTEX
  8
EBENE_1
 62
    39
  6
CONTINUOUS
 10
0.470000
 20
3.324839
  0
VERTEX
  8
EBENE_1
 62
    39
  6
CONTINUOUS
 10
0.460105
 20
3.323065
  0
VERTEX
  8
EBENE_1
 62
    39
  6
CONTINUOUS
 10
0.449414
 20
3.322017
  0
VERTEX
  8
EBENE_1
 62
    39
  6
CONTINUOUS
 10
0.437975
 20
3.321691
  0
VERTEX
  8
EBENE_1
 62
    39
  6
CONTINUOUS
 10
0.425835
 20
3.322085
  0
VERTEX
  8
EBENE_1
 62
    39
  6
CONTINUOUS
 10
0.413042
 20
3.323195
  0
VERTEX
  8
EBENE_1
 62
    39
  6
CONTINUOUS
 10
0.399646
 20
3.325018
  0
VERTEX
  8
EBENE_1
 62
    39
  6
CONTINUOUS
 10
0.385693
 20
3.327552
  0
VERTEX
  8
EBENE_1
 62
    39
  6
CONTINUOUS
 10
0.371231
 20
3.330792
  0
VERTEX
  8
EBENE_1
 62
    39
  6
CONTINUOUS
 10
0.356309
 20
3.334735
  0
VERTEX
  8
EBENE_1
 62
    39
  6
CONTINUOUS
 10
0.340974
 20
3.339380
  0
VERTEX
  8
EBENE_1
 62
    39
  6
CONTINUOUS
 10
0.325274
 20
3.344722
  0
VERTEX
  8
EBENE_1
 62
    39
  6
CONTINUOUS
 10
0.309258
 20
3.350758
  0
VERTEX
  8
EBENE_1
 62
    39
  6
CONTINUOUS
 10
0.292973
 20
3.357486
  0
VERTEX
  8
EBENE_1
 62
    39
  6
CONTINUOUS
 10
0.276467
 20
3.364901
  0
VERTEX
  8
EBENE_1
 62
    39
  6
CONTINUOUS
 10
0.259788
 20
3.373002
  0
VERTEX
  8
EBENE_1
 62
    39
  6
CONTINUOUS
 10
0.242984
 20
3.381785
  0
VERTEX
  8
EBENE_1
 62
    39
  6
CONTINUOUS
 10
0.226104
 20
3.391246
  0
VERTEX
  8
EBENE_1
 62
    39
  6
CONTINUOUS
 10
0.209194
 20
3.401383
  0
VERTEX
  8
EBENE_1
 62
    39
  6
CONTINUOUS
 10
0.192304
 20
3.412192
  0
VERTEX
  8
EBENE_1
 62
    39
  6
CONTINUOUS
 10
0.175480
 20
3.423671
  0
VERTEX
  8
EBENE_1
 62
    39
  6
CONTINUOUS
 10
0.158771
 20
3.435816
  0
VERTEX
  8
EBENE_1
 62
    39
  6
CONTINUOUS
 10
0.142225
 20
3.448625
  0
VERTEX
  8
EBENE_1
 62
    39
  6
CONTINUOUS
 10
0.125890
 20
3.462093
  0
VERTEX
  8
EBENE_1
 62
    39
  6
CONTINUOUS
 10
0.109814
 20
3.476218
  0
VERTEX
  8
EBENE_1
 62
    39
  6
CONTINUOUS
 10
0.094044
 20
3.490997
  0
VERTEX
  8
EBENE_1
 62
    39
  6
CONTINUOUS
 10
0.078629
 20
3.506427
  0
VERTEX
  8
EBENE_1
 62
    39
  6
CONTINUOUS
 10
0.063617
 20
3.522504
  0
VERTEX
  8
EBENE_1
 62
    39
  6
CONTINUOUS
 10
0.049055
 20
3.539226
  0
VERTEX
  8
EBENE_1
 62
    39
  6
CONTINUOUS
 10
0.034992
 20
3.556589
  0
VERTEX
  8
EBENE_1
 62
    39
  6
CONTINUOUS
 10
0.021476
 20
3.574590
  0
VERTEX
  8
EBENE_1
 62
    39
  6
CONTINUOUS
 10
0.008553
 20
3.593226
  0
VERTEX
  8
EBENE_1
 62
    39
  6
CONTINUOUS
 10
-0.003726
 20
3.612495
  0
VERTEX
  8
EBENE_1
 62
    39
  6
CONTINUOUS
 10
-0.015316
 20
3.632391
  0
VERTEX
  8
EBENE_1
 62
    39
  6
CONTINUOUS
 10
-0.026167
 20
3.652914
  0
VERTEX
  8
EBENE_1
 62
    39
  6
CONTINUOUS
 10
-0.036232
 20
3.674059
  0
VERTEX
  8
EBENE_1
 62
    39
  6
CONTINUOUS
 10
-0.045463
 20
3.695824
  0
VERTEX
  8
EBENE_1
 62
    39
  6
CONTINUOUS
 10
-0.053811
 20
3.718205
  0
VERTEX
  8
EBENE_1
 62
    39
  6
CONTINUOUS
 10
-0.053811
 20
3.718205
  0
VERTEX
  8
EBENE_1
 62
    39
  6
CONTINUOUS
 10
-0.057710
 20
3.743707
  0
VERTEX
  8
EBENE_1
 62
    39
  6
CONTINUOUS
 10
-0.058834
 20
3.767783
  0
VERTEX
  8
EBENE_1
 62
    39
  6
CONTINUOUS
 10
-0.057356
 20
3.790314
  0
VERTEX
  8
EBENE_1
 62
    39
  6
CONTINUOUS
 10
-0.053450
 20
3.811181
  0
VERTEX
  8
EBENE_1
 62
    39
  6
CONTINUOUS
 10
-0.047289
 20
3.830266
  0
VERTEX
  8
EBENE_1
 62
    39
  6
CONTINUOUS
 10
-0.039047
 20
3.847450
  0
VERTEX
  8
EBENE_1
 62
    39
  6
CONTINUOUS
 10
-0.028898
 20
3.862614
  0
VERTEX
  8
EBENE_1
 62
    39
  6
CONTINUOUS
 10
-0.017016
 20
3.875639
  0
VERTEX
  8
EBENE_1
 62
    39
  6
CONTINUOUS
 10
-0.003574
 20
3.886406
  0
VERTEX
  8
EBENE_1
 62
    39
  6
CONTINUOUS
 10
0.011254
 20
3.894797
  0
VERTEX
  8
EBENE_1
 62
    39
  6
CONTINUOUS
 10
0.027295
 20
3.900693
  0
VERTEX
  8
EBENE_1
 62
    39
  6
CONTINUOUS
 10
0.367264
 20
3.991264
  0
VERTEX
  8
EBENE_1
 62
    39
  6
CONTINUOUS
 10
0.391300
 20
3.995730
  0
VERTEX
  8
EBENE_1
 62
    39
  6
CONTINUOUS
 10
0.410057
 20
3.994899
  0
VERTEX
  8
EBENE_1
 62
    39
  6
CONTINUOUS
 10
0.424614
 20
3.989736
  0
VERTEX
  8
EBENE_1
 62
    39
  6
CONTINUOUS
 10
0.436050
 20
3.981202
  0
VERTEX
  8
EBENE_1
 62
    39
  6
CONTINUOUS
 10
0.445445
 20
3.970258
  0
VERTEX
  8
EBENE_1
 62
    39
  6
CONTINUOUS
 10
0.453877
 20
3.957869
  0
VERTEX
  8
EBENE_1
 62
    39
  6
CONTINUOUS
 10
0.462426
 20
3.944995
  0
VERTEX
  8
EBENE_1
 62
    39
  6
CONTINUOUS
 10
0.472172
 20
3.932600
  0
SEQEND
  8
0
  0
POLYLINE
  8
EBENE_1
 62
    39
  6
CONTINUOUS
 66
     1
 40
0.003000
 41
0.003000
  0
VERTEX
  8
EBENE_1
 62
    39
  6
CONTINUOUS
 10
0.207079
 20
3.897988
  0
VERTEX
  8
EBENE_1
 62
    39
  6
CONTINUOUS
 10
0.212762
 20
3.899465
  0
VERTEX
  8
EBENE_1
 62
    39
  6
CONTINUOUS
 10
0.216943
 20
3.903497
  0
VERTEX
  8
EBENE_1
 62
    39
  6
CONTINUOUS
 10
0.218571
 20
3.909480
  0
SEQEND
  8
0
  0
POLYLINE
  8
EBENE_1
 62
    39
  6
CONTINUOUS
 66
     1
 40
0.003000
 41
0.003000
  0
VERTEX
  8
EBENE_1
 62
    39
  6
CONTINUOUS
 10
0.218571
 20
3.909480
  0
VERTEX
  8
EBENE_1
 62
    39
  6
CONTINUOUS
 10
0.216943
 20
3.914988
  0
VERTEX
  8
EBENE_1
 62
    39
  6
CONTINUOUS
 10
0.212762
 20
3.918843
  0
VERTEX
  8
EBENE_1
 62
    39
  6
CONTINUOUS
 10
0.207079
 20
3.920295
  0
SEQEND
  8
0
  0
POLYLINE
  8
EBENE_1
 62
    39
  6
CONTINUOUS
 66
     1
 40
0.003000
 41
0.003000
  0
VERTEX
  8
EBENE_1
 62
    39
  6
CONTINUOUS
 10
0.207079
 20
3.920295
  0
VERTEX
  8
EBENE_1
 62
    39
  6
CONTINUOUS
 10
0.201397
 20
3.918843
  0
VERTEX
  8
EBENE_1
 62
    39
  6
CONTINUOUS
 10
0.197217
 20
3.914988
  0
VERTEX
  8
EBENE_1
 62
    39
  6
CONTINUOUS
 10
0.195591
 20
3.909480
  0
SEQEND
  8
0
  0
POLYLINE
  8
EBENE_1
 62
    39
  6
CONTINUOUS
 66
     1
 40
0.003000
 41
0.003000
  0
VERTEX
  8
EBENE_1
 62
    39
  6
CONTINUOUS
 10
0.195591
 20
3.909480
  0
VERTEX
  8
EBENE_1
 62
    39
  6
CONTINUOUS
 10
0.197217
 20
3.903497
  0
VERTEX
  8
EBENE_1
 62
    39
  6
CONTINUOUS
 10
0.201397
 20
3.899465
  0
VERTEX
  8
EBENE_1
 62
    39
  6
CONTINUOUS
 10
0.207079
 20
3.897988
  0
SEQEND
  8
0
  0
POLYLINE
  8
EBENE_1
 62
    39
  6
CONTINUOUS
 66
     1
 40
0.003000
 41
0.003000
  0
VERTEX
  8
EBENE_1
 62
    39
  6
CONTINUOUS
 10
0.328740
 20
3.923673
  0
VERTEX
  8
EBENE_1
 62
    39
  6
CONTINUOUS
 10
0.334422
 20
3.925300
  0
VERTEX
  8
EBENE_1
 62
    39
  6
CONTINUOUS
 10
0.338602
 20
3.929480
  0
VERTEX
  8
EBENE_1
 62
    39
  6
CONTINUOUS
 10
0.340228
 20
3.935161
  0
SEQEND
  8
0
  0
POLYLINE
  8
EBENE_1
 62
    39
  6
CONTINUOUS
 66
     1
 40
0.003000
 41
0.003000
  0
VERTEX
  8
EBENE_1
 62
    39
  6
CONTINUOUS
 10
0.340228
 20
3.935161
  0
VERTEX
  8
EBENE_1
 62
    39
  6
CONTINUOUS
 10
0.338602
 20
3.940846
  0
VERTEX
  8
EBENE_1
 62
    39
  6
CONTINUOUS
 10
0.334422
 20
3.945027
  0
VERTEX
  8
EBENE_1
 62
    39
  6
CONTINUOUS
 10
0.328740
 20
3.946654
  0
SEQEND
  8
0
  0
POLYLINE
  8
EBENE_1
 62
    39
  6
CONTINUOUS
 66
     1
 40
0.003000
 41
0.003000
  0
VERTEX
  8
EBENE_1
 62
    39
  6
CONTINUOUS
 10
0.328740
 20
3.946654
  0
VERTEX
  8
EBENE_1
 62
    39
  6
CONTINUOUS
 10
0.322756
 20
3.945027
  0
VERTEX
  8
EBENE_1
 62
    39
  6
CONTINUOUS
 10
0.318725
 20
3.940846
  0
VERTEX
  8
EBENE_1
 62
    39
  6
CONTINUOUS
 10
0.317248
 20
3.935161
  0
SEQEND
  8
0
  0
POLYLINE
  8
EBENE_1
 62
    39
  6
CONTINUOUS
 66
     1
 40
0.003000
 41
0.003000
  0
VERTEX
  8
EBENE_1
 62
    39
  6
CONTINUOUS
 10
0.317248
 20
3.935161
  0
VERTEX
  8
EBENE_1
 62
    39
  6
CONTINUOUS
 10
0.318725
 20
3.929480
  0
VERTEX
  8
EBENE_1
 62
    39
  6
CONTINUOUS
 10
0.322756
 20
3.925300
  0
VERTEX
  8
EBENE_1
 62
    39
  6
CONTINUOUS
 10
0.328740
 20
3.923673
  0
SEQEND
  8
0
  0
POLYLINE
  8
EBENE_1
 62
    39
  6
CONTINUOUS
 66
     1
 40
0.003000
 41
0.003000
  0
VERTEX
  8
EBENE_1
 62
    39
  6
CONTINUOUS
 10
0.447020
 20
3.878390
  0
VERTEX
  8
EBENE_1
 62
    39
  6
CONTINUOUS
 10
0.453003
 20
3.879867
  0
VERTEX
  8
EBENE_1
 62
    39
  6
CONTINUOUS
 10
0.457035
 20
3.883897
  0
VERTEX
  8
EBENE_1
 62
    39
  6
CONTINUOUS
 10
0.458512
 20
3.889878
  0
SEQEND
  8
0
  0
POLYLINE
  8
EBENE_1
 62
    39
  6
CONTINUOUS
 66
     1
 40
0.003000
 41
0.003000
  0
VERTEX
  8
EBENE_1
 62
    39
  6
CONTINUOUS
 10
0.458512
 20
3.889878
  0
VERTEX
  8
EBENE_1
 62
    39
  6
CONTINUOUS
 10
0.457035
 20
3.895561
  0
VERTEX
  8
EBENE_1
 62
    39
  6
CONTINUOUS
 10
0.453003
 20
3.899742
  0
VERTEX
  8
EBENE_1
 62
    39
  6
CONTINUOUS
 10
0.447020
 20
3.901370
  0
SEQEND
  8
0
  0
POLYLINE
  8
EBENE_1
 62
    39
  6
CONTINUOUS
 66
     1
 40
0.003000
 41
0.003000
  0
VERTEX
  8
EBENE_1
 62
    39
  6
CONTINUOUS
 10
0.447020
 20
3.901370
  0
VERTEX
  8
EBENE_1
 62
    39
  6
CONTINUOUS
 10
0.441338
 20
3.899742
  0
VERTEX
  8
EBENE_1
 62
    39
  6
CONTINUOUS
 10
0.437158
 20
3.895561
  0
VERTEX
  8
EBENE_1
 62
    39
  6
CONTINUOUS
 10
0.435531
 20
3.889878
  0
SEQEND
  8
0
  0
POLYLINE
  8
EBENE_1
 62
    39
  6
CONTINUOUS
 66
     1
 40
0.003000
 41
0.003000
  0
VERTEX
  8
EBENE_1
 62
    39
  6
CONTINUOUS
 10
0.435531
 20
3.889878
  0
VERTEX
  8
EBENE_1
 62
    39
  6
CONTINUOUS
 10
0.437158
 20
3.883897
  0
VERTEX
  8
EBENE_1
 62
    39
  6
CONTINUOUS
 10
0.441338
 20
3.879867
  0
VERTEX
  8
EBENE_1
 62
    39
  6
CONTINUOUS
 10
0.447020
 20
3.878390
  0
SEQEND
  8
0
  0
POLYLINE
  8
EBENE_1
 62
    39
  6
CONTINUOUS
 66
     1
 40
0.003000
 41
0.003000
  0
VERTEX
  8
EBENE_1
 62
    39
  6
CONTINUOUS
 10
-0.044346
 20
4.312311
  0
VERTEX
  8
EBENE_1
 62
    39
  6
CONTINUOUS
 10
0.272642
 20
3.792551
  0
VERTEX
  8
EBENE_1
 62
    39
  6
CONTINUOUS
 10
-0.059217
 20
3.706035
  0
SEQEND
  8
0
  0
POLYLINE
  8
EBENE_1
 62
    39
  6
CONTINUOUS
 66
     1
 40
0.003000
 41
0.003000
  0
VERTEX
  8
EBENE_1
 62
    39
  6
CONTINUOUS
 10
-0.059217
 20
3.706035
  0
VERTEX
  8
EBENE_1
 62
    39
  6
CONTINUOUS
 10
-0.068955
 20
3.704253
  0
VERTEX
  8
EBENE_1
 62
    39
  6
CONTINUOUS
 10
-0.079467
 20
3.703173
  0
VERTEX
  8
EBENE_1
 62
    39
  6
CONTINUOUS
 10
-0.090705
 20
3.702791
  0
VERTEX
  8
EBENE_1
 62
    39
  6
CONTINUOUS
 10
-0.102624
 20
3.703105
  0
VERTEX
  8
EBENE_1
 62
    39
  6
CONTINUOUS
 10
-0.115181
 20
3.704111
  0
VERTEX
  8
EBENE_1
 62
    39
  6
CONTINUOUS
 10
-0.128329
 20
3.705807
  0
VERTEX
  8
EBENE_1
 62
    39
  6
CONTINUOUS
 10
-0.142023
 20
3.708189
  0
VERTEX
  8
EBENE_1
 62
    39
  6
CONTINUOUS
 10
-0.156218
 20
3.711254
  0
VERTEX
  8
EBENE_1
 62
    39
  6
CONTINUOUS
 10
-0.170869
 20
3.715000
  0
VERTEX
  8
EBENE_1
 62
    39
  6
CONTINUOUS
 10
-0.185932
 20
3.719422
  0
VERTEX
  8
EBENE_1
 62
    39
  6
CONTINUOUS
 10
-0.201359
 20
3.724518
  0
VERTEX
  8
EBENE_1
 62
    39
  6
CONTINUOUS
 10
-0.217108
 20
3.730285
  0
VERTEX
  8
EBENE_1
 62
    39
  6
CONTINUOUS
 10
-0.233132
 20
3.736719
  0
VERTEX
  8
EBENE_1
 62
    39
  6
CONTINUOUS
 10
-0.249385
 20
3.743818
  0
VERTEX
  8
EBENE_1
 62
    39
  6
CONTINUOUS
 10
-0.265825
 20
3.751578
  0
VERTEX
  8
EBENE_1
 62
    39
  6
CONTINUOUS
 10
-0.282403
 20
3.759997
  0
VERTEX
  8
EBENE_1
 62
    39
  6
CONTINUOUS
 10
-0.299077
 20
3.769071
  0
VERTEX
  8
EBENE_1
 62
    39
  6
CONTINUOUS
 10
-0.315800
 20
3.778797
  0
VERTEX
  8
EBENE_1
 62
    39
  6
CONTINUOUS
 10
-0.332528
 20
3.789172
  0
VERTEX
  8
EBENE_1
 62
    39
  6
CONTINUOUS
 10
-0.349215
 20
3.800193
  0
VERTEX
  8
EBENE_1
 62
    39
  6
CONTINUOUS
 10
-0.365816
 20
3.811857
  0
VERTEX
  8
EBENE_1
 62
    39
  6
CONTINUOUS
 10
-0.382286
 20
3.824161
  0
VERTEX
  8
EBENE_1
 62
    39
  6
CONTINUOUS
 10
-0.398580
 20
3.837101
  0
VERTEX
  8
EBENE_1
 62
    39
  6
CONTINUOUS
 10
-0.414652
 20
3.850675
  0
VERTEX
  8
EBENE_1
 62
    39
  6
CONTINUOUS
 10
-0.430458
 20
3.864879
  0
VERTEX
  8
EBENE_1
 62
    39
  6
CONTINUOUS
 10
-0.445953
 20
3.879710
  0
VERTEX
  8
EBENE_1
 62
    39
  6
CONTINUOUS
 10
-0.461090
 20
3.895166
  0
VERTEX
  8
EBENE_1
 62
    39
  6
CONTINUOUS
 10
-0.475826
 20
3.911243
  0
VERTEX
  8
EBENE_1
 62
    39
  6
CONTINUOUS
 10
-0.490114
 20
3.927937
  0
VERTEX
  8
EBENE_1
 62
    39
  6
CONTINUOUS
 10
-0.503910
 20
3.945247
  0
VERTEX
  8
EBENE_1
 62
    39
  6
CONTINUOUS
 10
-0.517169
 20
3.963169
  0
VERTEX
  8
EBENE_1
 62
    39
  6
CONTINUOUS
 10
-0.529845
 20
3.981699
  0
VERTEX
  8
EBENE_1
 62
    39
  6
CONTINUOUS
 10
-0.541893
 20
4.000834
  0
VERTEX
  8
EBENE_1
 62
    39
  6
CONTINUOUS
 10
-0.553269
 20
4.020573
  0
VERTEX
  8
EBENE_1
 62
    39
  6
CONTINUOUS
 10
-0.563926
 20
4.040910
  0
VERTEX
  8
EBENE_1
 62
    39
  6
CONTINUOUS
 10
-0.573820
 20
4.061844
  0
VERTEX
  8
EBENE_1
 62
    39
  6
CONTINUOUS
 10
-0.582906
 20
4.083371
  0
VERTEX
  8
EBENE_1
 62
    39
  6
CONTINUOUS
 10
-0.591138
 20
4.105488
  0
SEQEND
  8
0
  0
POLYLINE
  8
EBENE_1
 62
    39
  6
CONTINUOUS
 66
     1
 40
0.003000
 41
0.003000
  0
VERTEX
  8
EBENE_1
 62
    39
  6
CONTINUOUS
 10
-0.591138
 20
4.105488
  0
VERTEX
  8
EBENE_1
 62
    39
  6
CONTINUOUS
 10
-0.595190
 20
4.131526
  0
VERTEX
  8
EBENE_1
 62
    39
  6
CONTINUOUS
 10
-0.596402
 20
4.156101
  0
VERTEX
  8
EBENE_1
 62
    39
  6
CONTINUOUS
 10
-0.594951
 20
4.179092
  0
VERTEX
  8
EBENE_1
 62
    39
  6
CONTINUOUS
 10
-0.591013
 20
4.200377
  0
VERTEX
  8
EBENE_1
 62
    39
  6
CONTINUOUS
 10
-0.584767
 20
4.219833
  0
VERTEX
  8
EBENE_1
 62
    39
  6
CONTINUOUS
 10
-0.576387
 20
4.237340
  0
VERTEX
  8
EBENE_1
 62
    39
  6
CONTINUOUS
 10
-0.566051
 20
4.252775
  0
VERTEX
  8
EBENE_1
 62
    39
  6
CONTINUOUS
 10
-0.553936
 20
4.266016
  0
VERTEX
  8
EBENE_1
 62
    39
  6
CONTINUOUS
 10
-0.540218
 20
4.276941
  0
VERTEX
  8
EBENE_1
 62
    39
  6
CONTINUOUS
 10
-0.525074
 20
4.285430
  0
VERTEX
  8
EBENE_1
 62
    39
  6
CONTINUOUS
 10
-0.508681
 20
4.291358
  0
SEQEND
  8
0
  0
POLYLINE
  8
EBENE_1
 62
    39
  6
CONTINUOUS
 66
     1
 40
0.003000
 41
0.003000
  0
VERTEX
  8
EBENE_1
 62
    39
  6
CONTINUOUS
 10
-0.508681
 20
4.291358
  0
VERTEX
  8
EBENE_1
 62
    39
  6
CONTINUOUS
 10
-0.162626
 20
4.383953
  0
SEQEND
  8
0
  0
POLYLINE
  8
EBENE_1
 62
    39
  6
CONTINUOUS
 66
     1
 40
0.003000
 41
0.003000
  0
VERTEX
  8
EBENE_1
 62
    39
  6
CONTINUOUS
 10
-0.162626
 20
4.383953
  0
VERTEX
  8
EBENE_1
 62
    39
  6
CONTINUOUS
 10
-0.138411
 20
4.388216
  0
VERTEX
  8
EBENE_1
 62
    39
  6
CONTINUOUS
 10
-0.119547
 20
4.387217
  0
VERTEX
  8
EBENE_1
 62
    39
  6
CONTINUOUS
 10
-0.104927
 20
4.381900
  0
VERTEX
  8
EBENE_1
 62
    39
  6
CONTINUOUS
 10
-0.093444
 20
4.373213
  0
VERTEX
  8
EBENE_1
 62
    39
  6
CONTINUOUS
 10
-0.083992
 20
4.362100
  0
VERTEX
  8
EBENE_1
 62
    39
  6
CONTINUOUS
 10
-0.075463
 20
4.349508
  0
VERTEX
  8
EBENE_1
 62
    39
  6
CONTINUOUS
 10
-0.066750
 20
4.336382
  0
VERTEX
  8
EBENE_1
 62
    39
  6
CONTINUOUS
 10
-0.056747
 20
4.323667
  0
VERTEX
  8
EBENE_1
 62
    39
  6
CONTINUOUS
 10
-0.044346
 20
4.312311
  0
SEQEND
  8
0
  0
POLYLINE
  8
EBENE_1
 62
    39
  6
CONTINUOUS
 66
     1
 40
0.003000
 41
0.003000
 70
     1
  0
VERTEX
  8
EBENE_1
 62
    39
  6
CONTINUOUS
 10
-0.044346
 20
4.310280
  0
VERTEX
  8
EBENE_1
 62
    39
  6
CONTINUOUS
 10
0.267232
 20
3.798634
  0
VERTEX
  8
EBENE_1
 62
    39
  6
CONTINUOUS
 10
-0.059217
 20
3.713472
  0
VERTEX
  8
EBENE_1
 62
    39
  6
CONTINUOUS
 10
-0.069058
 20
3.711699
  0
VERTEX
  8
EBENE_1
 62
    39
  6
CONTINUOUS
 10
-0.079699
 20
3.710651
  0
VERTEX
  8
EBENE_1
 62
    39
  6
CONTINUOUS
 10
-0.091090
 20
3.710325
  0
VERTEX
  8
EBENE_1
 62
    39
  6
CONTINUOUS
 10
-0.103185
 20
3.710719
  0
VERTEX
  8
EBENE_1
 62
    39
  6
CONTINUOUS
 10
-0.115935
 20
3.711829
  0
VERTEX
  8
EBENE_1
 62
    39
  6
CONTINUOUS
 10
-0.129292
 20
3.713652
  0
VERTEX
  8
EBENE_1
 62
    39
  6
CONTINUOUS
 10
-0.143208
 20
3.716185
  0
VERTEX
  8
EBENE_1
 62
    39
  6
CONTINUOUS
 10
-0.157635
 20
3.719425
  0
VERTEX
  8
EBENE_1
 62
    39
  6
CONTINUOUS
 10
-0.172525
 20
3.723369
  0
VERTEX
  8
EBENE_1
 62
    39
  6
CONTINUOUS
 10
-0.187830
 20
3.728014
  0
VERTEX
  8
EBENE_1
 62
    39
  6
CONTINUOUS
 10
-0.203501
 20
3.733356
  0
VERTEX
  8
EBENE_1
 62
    39
  6
CONTINUOUS
 10
-0.219492
 20
3.739392
  0
VERTEX
  8
EBENE_1
 62
    39
  6
CONTINUOUS
 10
-0.235753
 20
3.746119
  0
VERTEX
  8
EBENE_1
 62
    39
  6
CONTINUOUS
 10
-0.252237
 20
3.753535
  0
VERTEX
  8
EBENE_1
 62
    39
  6
CONTINUOUS
 10
-0.268895
 20
3.761636
  0
VERTEX
  8
EBENE_1
 62
    39
  6
CONTINUOUS
 10
-0.285680
 20
3.770418
  0
VERTEX
  8
EBENE_1
 62
    39
  6
CONTINUOUS
 10
-0.302544
 20
3.779880
  0
VERTEX
  8
EBENE_1
 62
    39
  6
CONTINUOUS
 10
-0.319439
 20
3.790017
  0
VERTEX
  8
EBENE_1
 62
    39
  6
CONTINUOUS
 10
-0.336316
 20
3.800826
  0
VERTEX
  8
EBENE_1
 62
    39
  6
CONTINUOUS
 10
-0.353127
 20
3.812305
  0
VERTEX
  8
EBENE_1
 62
    39
  6
CONTINUOUS
 10
-0.369825
 20
3.824450
  0
VERTEX
  8
EBENE_1
 62
    39
  6
CONTINUOUS
 10
-0.386362
 20
3.837259
  0
VERTEX
  8
EBENE_1
 62
    39
  6
CONTINUOUS
 10
-0.402688
 20
3.850727
  0
VERTEX
  8
EBENE_1
 62
    39
  6
CONTINUOUS
 10
-0.418758
 20
3.864852
  0
VERTEX
  8
EBENE_1
 62
    39
  6
CONTINUOUS
 10
-0.434521
 20
3.879631
  0
VERTEX
  8
EBENE_1
 62
    39
  6
CONTINUOUS
 10
-0.449931
 20
3.895061
  0
VERTEX
  8
EBENE_1
 62
    39
  6
CONTINUOUS
 10
-0.464939
 20
3.911138
  0
VERTEX
  8
EBENE_1
 62
    39
  6
CONTINUOUS
 10
-0.479497
 20
3.927860
  0
VERTEX
  8
EBENE_1
 62
    39
  6
CONTINUOUS
 10
-0.493557
 20
3.945223
  0
VERTEX
  8
EBENE_1
 62
    39
  6
CONTINUOUS
 10
-0.507072
 20
3.963224
  0
VERTEX
  8
EBENE_1
 62
    39
  6
CONTINUOUS
 10
-0.519993
 20
3.981860
  0
VERTEX
  8
EBENE_1
 62
    39
  6
CONTINUOUS
 10
-0.532271
 20
4.001128
  0
VERTEX
  8
EBENE_1
 62
    39
  6
CONTINUOUS
 10
-0.543860
 20
4.021025
  0
VERTEX
  8
EBENE_1
 62
    39
  6
CONTINUOUS
 10
-0.554711
 20
4.041548
  0
VERTEX
  8
EBENE_1
 62
    39
  6
CONTINUOUS
 10
-0.564775
 20
4.062693
  0
VERTEX
  8
EBENE_1
 62
    39
  6
CONTINUOUS
 10
-0.574006
 20
4.084458
  0
VERTEX
  8
EBENE_1
 62
    39
  6
CONTINUOUS
 10
-0.582354
 20
4.106839
  0
VERTEX
  8
EBENE_1
 62
    39
  6
CONTINUOUS
 10
-0.582354
 20
4.106839
  0
VERTEX
  8
EBENE_1
 62
    39
  6
CONTINUOUS
 10
-0.586254
 20
4.132356
  0
VERTEX
  8
EBENE_1
 62
    39
  6
CONTINUOUS
 10
-0.587375
 20
4.156471
  0
VERTEX
  8
EBENE_1
 62
    39
  6
CONTINUOUS
 10
-0.585888
 20
4.179058
  0
VERTEX
  8
EBENE_1
 62
    39
  6
CONTINUOUS
 10
-0.581963
 20
4.199986
  0
VERTEX
  8
EBENE_1
 62
    39
  6
CONTINUOUS
 10
-0.575772
 20
4.219129
  0
VERTEX
  8
EBENE_1
 62
    39
  6
CONTINUOUS
 10
-0.567484
 20
4.236359
  0
VERTEX
  8
EBENE_1
 62
    39
  6
CONTINUOUS
 10
-0.557270
 20
4.251547
  0
VERTEX
  8
EBENE_1
 62
    39
  6
CONTINUOUS
 10
-0.545301
 20
4.264566
  0
VERTEX
  8
EBENE_1
 62
    39
  6
CONTINUOUS
 10
-0.531748
 20
4.275287
  0
VERTEX
  8
EBENE_1
 62
    39
  6
CONTINUOUS
 10
-0.516781
 20
4.283584
  0
VERTEX
  8
EBENE_1
 62
    39
  6
CONTINUOUS
 10
-0.500571
 20
4.289327
  0
VERTEX
  8
EBENE_1
 62
    39
  6
CONTINUOUS
 10
-0.161276
 20
4.380575
  0
VERTEX
  8
EBENE_1
 62
    39
  6
CONTINUOUS
 10
-0.137262
 20
4.384861
  0
VERTEX
  8
EBENE_1
 62
    39
  6
CONTINUOUS
 10
-0.118560
 20
4.383930
  0
VERTEX
  8
EBENE_1
 62
    39
  6
CONTINUOUS
 10
-0.104075
 20
4.378721
  0
VERTEX
  8
EBENE_1
 62
    39
  6
CONTINUOUS
 10
-0.092711
 20
4.370175
  0
VERTEX
  8
EBENE_1
 62
    39
  6
CONTINUOUS
 10
-0.083372
 20
4.359230
  0
VERTEX
  8
EBENE_1
 62
    39
  6
CONTINUOUS
 10
-0.074962
 20
4.346829
  0
VERTEX
  8
EBENE_1
 62
    39
  6
CONTINUOUS
 10
-0.066384
 20
4.333910
  0
VERTEX
  8
EBENE_1
 62
    39
  6
CONTINUOUS
 10
-0.056545
 20
4.321413
  0
SEQEND
  8
0
  0
POLYLINE
  8
EBENE_1
 62
    39
  6
CONTINUOUS
 66
     1
 40
0.003000
 41
0.003000
  0
VERTEX
  8
EBENE_1
 62
    39
  6
CONTINUOUS
 10
-0.321461
 20
4.286626
  0
VERTEX
  8
EBENE_1
 62
    39
  6
CONTINUOUS
 10
-0.315477
 20
4.288103
  0
VERTEX
  8
EBENE_1
 62
    39
  6
CONTINUOUS
 10
-0.311446
 20
4.292133
  0
VERTEX
  8
EBENE_1
 62
    39
  6
CONTINUOUS
 10
-0.309969
 20
4.298114
  0
SEQEND
  8
0
  0
POLYLINE
  8
EBENE_1
 62
    39
  6
CONTINUOUS
 66
     1
 40
0.003000
 41
0.003000
  0
VERTEX
  8
EBENE_1
 62
    39
  6
CONTINUOUS
 10
-0.309969
 20
4.298114
  0
VERTEX
  8
EBENE_1
 62
    39
  6
CONTINUOUS
 10
-0.311446
 20
4.303797
  0
VERTEX
  8
EBENE_1
 62
    39
  6
CONTINUOUS
 10
-0.315477
 20
4.307979
  0
VERTEX
  8
EBENE_1
 62
    39
  6
CONTINUOUS
 10
-0.321461
 20
4.309606
  0
SEQEND
  8
0
  0
POLYLINE
  8
EBENE_1
 62
    39
  6
CONTINUOUS
 66
     1
 40
0.003000
 41
0.003000
  0
VERTEX
  8
EBENE_1
 62
    39
  6
CONTINUOUS
 10
-0.321461
 20
4.309606
  0
VERTEX
  8
EBENE_1
 62
    39
  6
CONTINUOUS
 10
-0.327143
 20
4.307979
  0
VERTEX
  8
EBENE_1
 62
    39
  6
CONTINUOUS
 10
-0.331325
 20
4.303797
  0
VERTEX
  8
EBENE_1
 62
    39
  6
CONTINUOUS
 10
-0.332953
 20
4.298114
  0
SEQEND
  8
0
  0
POLYLINE
  8
EBENE_1
 62
    39
  6
CONTINUOUS
 66
     1
 40
0.003000
 41
0.003000
  0
VERTEX
  8
EBENE_1
 62
    39
  6
CONTINUOUS
 10
-0.332953
 20
4.298114
  0
VERTEX
  8
EBENE_1
 62
    39
  6
CONTINUOUS
 10
-0.331325
 20
4.292133
  0
VERTEX
  8
EBENE_1
 62
    39
  6
CONTINUOUS
 10
-0.327143
 20
4.288103
  0
VERTEX
  8
EBENE_1
 62
    39
  6
CONTINUOUS
 10
-0.321461
 20
4.286626
  0
SEQEND
  8
0
  0
POLYLINE
  8
EBENE_1
 62
    39
  6
CONTINUOUS
 66
     1
 40
0.003000
 41
0.003000
  0
VERTEX
  8
EBENE_1
 62
    39
  6
CONTINUOUS
 10
-0.199799
 20
4.312311
  0
VERTEX
  8
EBENE_1
 62
    39
  6
CONTINUOUS
 10
-0.194117
 20
4.313938
  0
VERTEX
  8
EBENE_1
 62
    39
  6
CONTINUOUS
 10
-0.189938
 20
4.318117
  0
VERTEX
  8
EBENE_1
 62
    39
  6
CONTINUOUS
 10
-0.188311
 20
4.323799
  0
SEQEND
  8
0
  0
POLYLINE
  8
EBENE_1
 62
    39
  6
CONTINUOUS
 66
     1
 40
0.003000
 41
0.003000
  0
VERTEX
  8
EBENE_1
 62
    39
  6
CONTINUOUS
 10
-0.188311
 20
4.323799
  0
VERTEX
  8
EBENE_1
 62
    39
  6
CONTINUOUS
 10
-0.189938
 20
4.329782
  0
VERTEX
  8
EBENE_1
 62
    39
  6
CONTINUOUS
 10
-0.194117
 20
4.333811
  0
VERTEX
  8
EBENE_1
 62
    39
  6
CONTINUOUS
 10
-0.199799
 20
4.335287
  0
SEQEND
  8
0
  0
POLYLINE
  8
EBENE_1
 62
    39
  6
CONTINUOUS
 66
     1
 40
0.003000
 41
0.003000
  0
VERTEX
  8
EBENE_1
 62
    39
  6
CONTINUOUS
 10
-0.199799
 20
4.335287
  0
VERTEX
  8
EBENE_1
 62
    39
  6
CONTINUOUS
 10
-0.205484
 20
4.333811
  0
VERTEX
  8
EBENE_1
 62
    39
  6
CONTINUOUS
 10
-0.209664
 20
4.329782
  0
VERTEX
  8
EBENE_1
 62
    39
  6
CONTINUOUS
 10
-0.211291
 20
4.323799
  0
SEQEND
  8
0
  0
POLYLINE
  8
EBENE_1
 62
    39
  6
CONTINUOUS
 66
     1
 40
0.003000
 41
0.003000
  0
VERTEX
  8
EBENE_1
 62
    39
  6
CONTINUOUS
 10
-0.211291
 20
4.323799
  0
VERTEX
  8
EBENE_1
 62
    39
  6
CONTINUOUS
 10
-0.209664
 20
4.318117
  0
VERTEX
  8
EBENE_1
 62
    39
  6
CONTINUOUS
 10
-0.205484
 20
4.313938
  0
VERTEX
  8
EBENE_1
 62
    39
  6
CONTINUOUS
 10
-0.199799
 20
4.312311
  0
SEQEND
  8
0
  0
POLYLINE
  8
EBENE_1
 62
    39
  6
CONTINUOUS
 66
     1
 40
0.003000
 41
0.003000
  0
VERTEX
  8
EBENE_1
 62
    39
  6
CONTINUOUS
 10
-0.081520
 20
4.267024
  0
VERTEX
  8
EBENE_1
 62
    39
  6
CONTINUOUS
 10
-0.075838
 20
4.268501
  0
VERTEX
  8
EBENE_1
 62
    39
  6
CONTINUOUS
 10
-0.071658
 20
4.272532
  0
VERTEX
  8
EBENE_1
 62
    39
  6
CONTINUOUS
 10
-0.070031
 20
4.278516
  0
SEQEND
  8
0
  0
POLYLINE
  8
EBENE_1
 62
    39
  6
CONTINUOUS
 66
     1
 40
0.003000
 41
0.003000
  0
VERTEX
  8
EBENE_1
 62
    39
  6
CONTINUOUS
 10
-0.070031
 20
4.278516
  0
VERTEX
  8
EBENE_1
 62
    39
  6
CONTINUOUS
 10
-0.071658
 20
4.284198
  0
VERTEX
  8
EBENE_1
 62
    39
  6
CONTINUOUS
 10
-0.075838
 20
4.288377
  0
VERTEX
  8
EBENE_1
 62
    39
  6
CONTINUOUS
 10
-0.081520
 20
4.290004
  0
SEQEND
  8
0
  0
POLYLINE
  8
EBENE_1
 62
    39
  6
CONTINUOUS
 66
     1
 40
0.003000
 41
0.003000
  0
VERTEX
  8
EBENE_1
 62
    39
  6
CONTINUOUS
 10
-0.081520
 20
4.290004
  0
VERTEX
  8
EBENE_1
 62
    39
  6
CONTINUOUS
 10
-0.087503
 20
4.288377
  0
VERTEX
  8
EBENE_1
 62
    39
  6
CONTINUOUS
 10
-0.091535
 20
4.284198
  0
VERTEX
  8
EBENE_1
 62
    39
  6
CONTINUOUS
 10
-0.093012
 20
4.278516
  0
SEQEND
  8
0
  0
POLYLINE
  8
EBENE_1
 62
    39
  6
CONTINUOUS
 66
     1
 40
0.003000
 41
0.003000
  0
VERTEX
  8
EBENE_1
 62
    39
  6
CONTINUOUS
 10
-0.093012
 20
4.278516
  0
VERTEX
  8
EBENE_1
 62
    39
  6
CONTINUOUS
 10
-0.091535
 20
4.272532
  0
VERTEX
  8
EBENE_1
 62
    39
  6
CONTINUOUS
 10
-0.087503
 20
4.268501
  0
VERTEX
  8
EBENE_1
 62
    39
  6
CONTINUOUS
 10
-0.081520
 20
4.267024
  0
SEQEND
  8
0
  0
POLYLINE
  8
EBENE_1
 62
    39
  6
CONTINUOUS
 66
     1
 40
0.003000
 41
0.003000
 70
     1
  0
VERTEX
  8
EBENE_1
 62
    39
  6
CONTINUOUS
 10
0.838358
 20
3.768220
  0
VERTEX
  8
EBENE_1
 62
    39
  6
CONTINUOUS
 10
0.843391
 20
3.769872
  0
VERTEX
  8
EBENE_1
 62
    39
  6
CONTINUOUS
 10
0.847070
 20
3.774227
  0
VERTEX
  8
EBENE_1
 62
    39
  6
CONTINUOUS
 10
0.848496
 20
3.780386
  0
VERTEX
  8
EBENE_1
 62
    39
  6
CONTINUOUS
 10
0.847070
 20
3.786068
  0
VERTEX
  8
EBENE_1
 62
    39
  6
CONTINUOUS
 10
0.843391
 20
3.790247
  0
VERTEX
  8
EBENE_1
 62
    39
  6
CONTINUOUS
 10
0.838358
 20
3.791874
  0
VERTEX
  8
EBENE_1
 62
    39
  6
CONTINUOUS
 10
0.833328
 20
3.790247
  0
VERTEX
  8
EBENE_1
 62
    39
  6
CONTINUOUS
 10
0.829648
 20
3.786068
  0
VERTEX
  8
EBENE_1
 62
    39
  6
CONTINUOUS
 10
0.828220
 20
3.780386
  0
VERTEX
  8
EBENE_1
 62
    39
  6
CONTINUOUS
 10
0.829648
 20
3.774227
  0
VERTEX
  8
EBENE_1
 62
    39
  6
CONTINUOUS
 10
0.833328
 20
3.769872
  0
SEQEND
  8
0
  0
POLYLINE
  8
EBENE_1
 62
    39
  6
CONTINUOUS
 66
     1
 40
0.003000
 41
0.003000
 70
     1
  0
VERTEX
  8
EBENE_1
 62
    39
  6
CONTINUOUS
 10
1.170898
 20
3.850677
  0
VERTEX
  8
EBENE_1
 62
    39
  6
CONTINUOUS
 10
1.176229
 20
3.852329
  0
VERTEX
  8
EBENE_1
 62
    39
  6
CONTINUOUS
 10
1.179759
 20
3.856684
  0
VERTEX
  8
EBENE_1
 62
    39
  6
CONTINUOUS
 10
1.181035
 20
3.862843
  0
VERTEX
  8
EBENE_1
 62
    39
  6
CONTINUOUS
 10
1.179759
 20
3.868826
  0
VERTEX
  8
EBENE_1
 62
    39
  6
CONTINUOUS
 10
1.176229
 20
3.872857
  0
VERTEX
  8
EBENE_1
 62
    39
  6
CONTINUOUS
 10
1.170898
 20
3.874335
  0
VERTEX
  8
EBENE_1
 62
    39
  6
CONTINUOUS
 10
1.165864
 20
3.872857
  0
VERTEX
  8
EBENE_1
 62
    39
  6
CONTINUOUS
 10
1.162183
 20
3.868826
  0
VERTEX
  8
EBENE_1
 62
    39
  6
CONTINUOUS
 10
1.160756
 20
3.862843
  0
VERTEX
  8
EBENE_1
 62
    39
  6
CONTINUOUS
 10
1.162183
 20
3.856684
  0
VERTEX
  8
EBENE_1
 62
    39
  6
CONTINUOUS
 10
1.165864
 20
3.852329
  0
SEQEND
  8
0
  0
POLYLINE
  8
EBENE_1
 62
    39
  6
CONTINUOUS
 66
     1
 40
0.003000
 41
0.003000
 70
     1
  0
VERTEX
  8
EBENE_1
 62
    39
  6
CONTINUOUS
 10
1.037748
 20
3.772276
  0
VERTEX
  8
EBENE_1
 62
    39
  6
CONTINUOUS
 10
1.043078
 20
3.773902
  0
VERTEX
  8
EBENE_1
 62
    39
  6
CONTINUOUS
 10
1.046608
 20
3.778082
  0
VERTEX
  8
EBENE_1
 62
    39
  6
CONTINUOUS
 10
1.047886
 20
3.783764
  0
VERTEX
  8
EBENE_1
 62
    39
  6
CONTINUOUS
 10
1.046608
 20
3.789922
  0
VERTEX
  8
EBENE_1
 62
    39
  6
CONTINUOUS
 10
1.043078
 20
3.794277
  0
VERTEX
  8
EBENE_1
 62
    39
  6
CONTINUOUS
 10
1.037748
 20
3.795929
  0
VERTEX
  8
EBENE_1
 62
    39
  6
CONTINUOUS
 10
1.032714
 20
3.794277
  0
VERTEX
  8
EBENE_1
 62
    39
  6
CONTINUOUS
 10
1.029034
 20
3.789922
  0
VERTEX
  8
EBENE_1
 62
    39
  6
CONTINUOUS
 10
1.027606
 20
3.783764
  0
VERTEX
  8
EBENE_1
 62
    39
  6
CONTINUOUS
 10
1.029034
 20
3.778082
  0
VERTEX
  8
EBENE_1
 62
    39
  6
CONTINUOUS
 10
1.032714
 20
3.773902
  0
SEQEND
  8
0
  0
POLYLINE
  8
EBENE_1
 62
    39
  6
CONTINUOUS
 66
     1
 40
0.003000
 41
0.003000
 70
     1
  0
VERTEX
  8
EBENE_1
 62
    39
  6
CONTINUOUS
 10
0.484870
 20
3.536390
  0
VERTEX
  8
EBENE_1
 62
    39
  6
CONTINUOUS
 10
0.497879
 20
3.517802
  0
VERTEX
  8
EBENE_1
 62
    39
  6
CONTINUOUS
 10
0.512040
 20
3.500764
  0
VERTEX
  8
EBENE_1
 62
    39
  6
CONTINUOUS
 10
0.527228
 20
3.485235
  0
VERTEX
  8
EBENE_1
 62
    39
  6
CONTINUOUS
 10
0.543320
 20
3.471175
  0
VERTEX
  8
EBENE_1
 62
    39
  6
CONTINUOUS
 10
0.560191
 20
3.458542
  0
VERTEX
  8
EBENE_1
 62
    39
  6
CONTINUOUS
 10
0.577716
 20
3.447298
  0
VERTEX
  8
EBENE_1
 62
    39
  6
CONTINUOUS
 10
0.595771
 20
3.437401
  0
VERTEX
  8
EBENE_1
 62
    39
  6
CONTINUOUS
 10
0.614232
 20
3.428811
  0
VERTEX
  8
EBENE_1
 62
    39
  6
CONTINUOUS
 10
0.632973
 20
3.421488
  0
VERTEX
  8
EBENE_1
 62
    39
  6
CONTINUOUS
 10
0.651871
 20
3.415392
  0
VERTEX
  8
EBENE_1
 62
    39
  6
CONTINUOUS
 10
0.670801
 20
3.410482
  0
VERTEX
  8
EBENE_1
 62
    39
  6
CONTINUOUS
 10
0.689638
 20
3.406718
  0
VERTEX
  8
EBENE_1
 62
    39
  6
CONTINUOUS
 10
0.708259
 20
3.404060
  0
VERTEX
  8
EBENE_1
 62
    39
  6
CONTINUOUS
 10
0.726538
 20
3.402467
  0
VERTEX
  8
EBENE_1
 62
    39
  6
CONTINUOUS
 10
0.744351
 20
3.401899
  0
VERTEX
  8
EBENE_1
 62
    39
  6
CONTINUOUS
 10
0.761575
 20
3.402315
  0
VERTEX
  8
EBENE_1
 62
    39
  6
CONTINUOUS
 10
0.778083
 20
3.403676
  0
VERTEX
  8
EBENE_1
 62
    39
  6
CONTINUOUS
 10
0.793752
 20
3.405941
  0
VERTEX
  8
EBENE_1
 62
    39
  6
CONTINUOUS
 10
0.807776
 20
3.407964
  0
VERTEX
  8
EBENE_1
 62
    39
  6
CONTINUOUS
 10
0.823627
 20
3.410651
  0
VERTEX
  8
EBENE_1
 62
    39
  6
CONTINUOUS
 10
0.841116
 20
3.413953
  0
VERTEX
  8
EBENE_1
 62
    39
  6
CONTINUOUS
 10
0.860054
 20
3.417819
  0
VERTEX
  8
EBENE_1
 62
    39
  6
CONTINUOUS
 10
0.880253
 20
3.422201
  0
VERTEX
  8
EBENE_1
 62
    39
  6
CONTINUOUS
 10
0.901523
 20
3.427049
  0
VERTEX
  8
EBENE_1
 62
    39
  6
CONTINUOUS
 10
0.923675
 20
3.432314
  0
VERTEX
  8
EBENE_1
 62
    39
  6
CONTINUOUS
 10
0.946521
 20
3.437947
  0
VERTEX
  8
EBENE_1
 62
    39
  6
CONTINUOUS
 10
0.969871
 20
3.443898
  0
VERTEX
  8
EBENE_1
 62
    39
  6
CONTINUOUS
 10
0.993536
 20
3.450118
  0
VERTEX
  8
EBENE_1
 62
    39
  6
CONTINUOUS
 10
1.017328
 20
3.456558
  0
VERTEX
  8
EBENE_1
 62
    39
  6
CONTINUOUS
 10
1.041057
 20
3.463168
  0
VERTEX
  8
EBENE_1
 62
    39
  6
CONTINUOUS
 10
1.064534
 20
3.469899
  0
VERTEX
  8
EBENE_1
 62
    39
  6
CONTINUOUS
 10
1.087571
 20
3.476702
  0
VERTEX
  8
EBENE_1
 62
    39
  6
CONTINUOUS
 10
1.109979
 20
3.483527
  0
VERTEX
  8
EBENE_1
 62
    39
  6
CONTINUOUS
 10
1.131567
 20
3.490325
  0
VERTEX
  8
EBENE_1
 62
    39
  6
CONTINUOUS
 10
1.152149
 20
3.497046
  0
VERTEX
  8
EBENE_1
 62
    39
  6
CONTINUOUS
 10
1.171533
 20
3.503643
  0
VERTEX
  8
EBENE_1
 62
    39
  6
CONTINUOUS
 10
1.189532
 20
3.510064
  0
VERTEX
  8
EBENE_1
 62
    39
  6
CONTINUOUS
 10
1.205957
 20
3.516260
  0
VERTEX
  8
EBENE_1
 62
    39
  6
CONTINUOUS
 10
1.220618
 20
3.522184
  0
VERTEX
  8
EBENE_1
 62
    39
  6
CONTINUOUS
 10
1.233327
 20
3.527784
  0
VERTEX
  8
EBENE_1
 62
    39
  6
CONTINUOUS
 10
1.243894
 20
3.533012
  0
VERTEX
  8
EBENE_1
 62
    39
  6
CONTINUOUS
 10
1.262934
 20
3.543972
  0
VERTEX
  8
EBENE_1
 62
    39
  6
CONTINUOUS
 10
1.280010
 20
3.557079
  0
VERTEX
  8
EBENE_1
 62
    39
  6
CONTINUOUS
 10
1.295122
 20
3.572324
  0
VERTEX
  8
EBENE_1
 62
    39
  6
CONTINUOUS
 10
1.308270
 20
3.589700
  0
VERTEX
  8
EBENE_1
 62
    39
  6
CONTINUOUS
 10
1.319454
 20
3.609199
  0
VERTEX
  8
EBENE_1
 62
    39
  6
CONTINUOUS
 10
1.328673
 20
3.630813
  0
VERTEX
  8
EBENE_1
 62
    39
  6
CONTINUOUS
 10
1.335929
 20
3.654534
  0
VERTEX
  8
EBENE_1
 62
    39
  6
CONTINUOUS
 10
1.341220
 20
3.680354
  0
VERTEX
  8
EBENE_1
 62
    39
  6
CONTINUOUS
 10
1.341220
 20
3.910154
  0
VERTEX
  8
EBENE_1
 62
    39
  6
CONTINUOUS
 10
1.238484
 20
3.957469
  0
VERTEX
  8
EBENE_1
 62
    39
  6
CONTINUOUS
 10
0.499740
 20
3.762134
  0
VERTEX
  8
EBENE_1
 62
    39
  6
CONTINUOUS
 10
0.489870
 20
3.746644
  0
VERTEX
  8
EBENE_1
 62
    39
  6
CONTINUOUS
 10
0.480708
 20
3.730017
  0
VERTEX
  8
EBENE_1
 62
    39
  6
CONTINUOUS
 10
0.472513
 20
3.712415
  0
VERTEX
  8
EBENE_1
 62
    39
  6
CONTINUOUS
 10
0.465544
 20
3.693995
  0
VERTEX
  8
EBENE_1
 62
    39
  6
CONTINUOUS
 10
0.460057
 20
3.674919
  0
VERTEX
  8
EBENE_1
 62
    39
  6
CONTINUOUS
 10
0.456313
 20
3.655344
  0
VERTEX
  8
EBENE_1
 62
    39
  6
CONTINUOUS
 10
0.454567
 20
3.635432
  0
VERTEX
  8
EBENE_1
 62
    39
  6
CONTINUOUS
 10
0.455080
 20
3.615342
  0
VERTEX
  8
EBENE_1
 62
    39
  6
CONTINUOUS
 10
0.458108
 20
3.595233
  0
VERTEX
  8
EBENE_1
 62
    39
  6
CONTINUOUS
 10
0.463910
 20
3.575265
  0
VERTEX
  8
EBENE_1
 62
    39
  6
CONTINUOUS
 10
0.472745
 20
3.555597
  0
SEQEND
  8
0
  0
POLYLINE
  8
EBENE_1
 62
    39
  6
CONTINUOUS
 66
     1
 40
0.003000
 41
0.003000
 70
     1
  0
VERTEX
  8
EBENE_1
 62
    39
  6
CONTINUOUS
 10
0.498386
 20
3.527602
  0
VERTEX
  8
EBENE_1
 62
    39
  6
CONTINUOUS
 10
0.518120
 20
3.507669
  0
VERTEX
  8
EBENE_1
 62
    39
  6
CONTINUOUS
 10
0.537291
 20
3.490008
  0
VERTEX
  8
EBENE_1
 62
    39
  6
CONTINUOUS
 10
0.555968
 20
3.474493
  0
VERTEX
  8
EBENE_1
 62
    39
  6
CONTINUOUS
 10
0.574218
 20
3.460996
  0
VERTEX
  8
EBENE_1
 62
    39
  6
CONTINUOUS
 10
0.592112
 20
3.449389
  0
VERTEX
  8
EBENE_1
 62
    39
  6
CONTINUOUS
 10
0.609716
 20
3.439547
  0
VERTEX
  8
EBENE_1
 62
    39
  6
CONTINUOUS
 10
0.627100
 20
3.431342
  0
VERTEX
  8
EBENE_1
 62
    39
  6
CONTINUOUS
 10
0.644332
 20
3.424646
  0
VERTEX
  8
EBENE_1
 62
    39
  6
CONTINUOUS
 10
0.661481
 20
3.419333
  0
VERTEX
  8
EBENE_1
 62
    39
  6
CONTINUOUS
 10
0.678614
 20
3.415276
  0
VERTEX
  8
EBENE_1
 62
    39
  6
CONTINUOUS
 10
0.695802
 20
3.412347
  0
VERTEX
  8
EBENE_1
 62
    39
  6
CONTINUOUS
 10
0.713111
 20
3.410419
  0
VERTEX
  8
EBENE_1
 62
    39
  6
CONTINUOUS
 10
0.730612
 20
3.409365
  0
VERTEX
  8
EBENE_1
 62
    39
  6
CONTINUOUS
 10
0.748371
 20
3.409059
  0
VERTEX
  8
EBENE_1
 62
    39
  6
CONTINUOUS
 10
0.766458
 20
3.409372
  0
VERTEX
  8
EBENE_1
 62
    39
  6
CONTINUOUS
 10
0.784942
 20
3.410178
  0
VERTEX
  8
EBENE_1
 62
    39
  6
CONTINUOUS
 10
0.803890
 20
3.411350
  0
VERTEX
  8
EBENE_1
 62
    39
  6
CONTINUOUS
 10
0.818951
 20
3.413728
  0
VERTEX
  8
EBENE_1
 62
    39
  6
CONTINUOUS
 10
0.835806
 20
3.416772
  0
VERTEX
  8
EBENE_1
 62
    39
  6
CONTINUOUS
 10
0.854253
 20
3.420430
  0
VERTEX
  8
EBENE_1
 62
    39
  6
CONTINUOUS
 10
0.874092
 20
3.424652
  0
VERTEX
  8
EBENE_1
 62
    39
  6
CONTINUOUS
 10
0.895121
 20
3.429387
  0
VERTEX
  8
EBENE_1
 62
    39
  6
CONTINUOUS
 10
0.917138
 20
3.434582
  0
VERTEX
  8
EBENE_1
 62
    39
  6
CONTINUOUS
 10
0.939942
 20
3.440188
  0
VERTEX
  8
EBENE_1
 62
    39
  6
CONTINUOUS
 10
0.963332
 20
3.446152
  0
VERTEX
  8
EBENE_1
 62
    39
  6
CONTINUOUS
 10
0.987105
 20
3.452424
  0
VERTEX
  8
EBENE_1
 62
    39
  6
CONTINUOUS
 10
1.011062
 20
3.458951
  0
VERTEX
  8
EBENE_1
 62
    39
  6
CONTINUOUS
 10
1.034999
 20
3.465684
  0
VERTEX
  8
EBENE_1
 62
    39
  6
CONTINUOUS
 10
1.058716
 20
3.472570
  0
VERTEX
  8
EBENE_1
 62
    39
  6
CONTINUOUS
 10
1.082011
 20
3.479559
  0
VERTEX
  8
EBENE_1
 62
    39
  6
CONTINUOUS
 10
1.104684
 20
3.486599
  0
VERTEX
  8
EBENE_1
 62
    39
  6
CONTINUOUS
 10
1.126531
 20
3.493640
  0
VERTEX
  8
EBENE_1
 62
    39
  6
CONTINUOUS
 10
1.147353
 20
3.500629
  0
VERTEX
  8
EBENE_1
 62
    39
  6
CONTINUOUS
 10
1.166947
 20
3.507515
  0
VERTEX
  8
EBENE_1
 62
    39
  6
CONTINUOUS
 10
1.185112
 20
3.514248
  0
VERTEX
  8
EBENE_1
 62
    39
  6
CONTINUOUS
 10
1.201647
 20
3.520776
  0
VERTEX
  8
EBENE_1
 62
    39
  6
CONTINUOUS
 10
1.216350
 20
3.527047
  0
VERTEX
  8
EBENE_1
 62
    39
  6
CONTINUOUS
 10
1.229020
 20
3.533012
  0
VERTEX
  8
EBENE_1
 62
    39
  6
CONTINUOUS
 10
1.246698
 20
3.542827
  0
VERTEX
  8
EBENE_1
 62
    39
  6
CONTINUOUS
 10
1.262802
 20
3.553910
  0
VERTEX
  8
EBENE_1
 62
    39
  6
CONTINUOUS
 10
1.277360
 20
3.566429
  0
VERTEX
  8
EBENE_1
 62
    39
  6
CONTINUOUS
 10
1.290399
 20
3.580551
  0
VERTEX
  8
EBENE_1
 62
    39
  6
CONTINUOUS
 10
1.301947
 20
3.596441
  0
VERTEX
  8
EBENE_1
 62
    39
  6
CONTINUOUS
 10
1.312032
 20
3.614268
  0
VERTEX
  8
EBENE_1
 62
    39
  6
CONTINUOUS
 10
1.320682
 20
3.634197
  0
VERTEX
  8
EBENE_1
 62
    39
  6
CONTINUOUS
 10
1.327924
 20
3.656396
  0
VERTEX
  8
EBENE_1
 62
    39
  6
CONTINUOUS
 10
1.333787
 20
3.681031
  0
VERTEX
  8
EBENE_1
 62
    39
  6
CONTINUOUS
 10
1.331756
 20
3.914886
  0
VERTEX
  8
EBENE_1
 62
    39
  6
CONTINUOUS
 10
1.241189
 20
3.958146
  0
VERTEX
  8
EBENE_1
 62
    39
  6
CONTINUOUS
 10
0.504469
 20
3.761461
  0
VERTEX
  8
EBENE_1
 62
    39
  6
CONTINUOUS
 10
0.494785
 20
3.744816
  0
VERTEX
  8
EBENE_1
 62
    39
  6
CONTINUOUS
 10
0.486136
 20
3.727381
  0
VERTEX
  8
EBENE_1
 62
    39
  6
CONTINUOUS
 10
0.478712
 20
3.709237
  0
VERTEX
  8
EBENE_1
 62
    39
  6
CONTINUOUS
 10
0.472703
 20
3.690467
  0
VERTEX
  8
EBENE_1
 62
    39
  6
CONTINUOUS
 10
0.468299
 20
3.671152
  0
VERTEX
  8
EBENE_1
 62
    39
  6
CONTINUOUS
 10
0.465690
 20
3.651375
  0
VERTEX
  8
EBENE_1
 62
    39
  6
CONTINUOUS
 10
0.465067
 20
3.631217
  0
VERTEX
  8
EBENE_1
 62
    39
  6
CONTINUOUS
 10
0.466619
 20
3.610762
  0
VERTEX
  8
EBENE_1
 62
    39
  6
CONTINUOUS
 10
0.470537
 20
3.590090
  0
VERTEX
  8
EBENE_1
 62
    39
  6
CONTINUOUS
 10
0.477011
 20
3.569285
  0
VERTEX
  8
EBENE_1
 62
    39
  6
CONTINUOUS
 10
0.486230
 20
3.548428
  0
SEQEND
  8
0
  0
POLYLINE
  8
EBENE_1
 62
    39
  6
CONTINUOUS
 66
     1
 40
0.003000
 41
0.003000
  0
VERTEX
  8
EBENE_1
 62
    39
  6
CONTINUOUS
 10
0.670063
 20
3.761461
  0
VERTEX
  8
EBENE_1
 62
    39
  6
CONTINUOUS
 10
0.676047
 20
3.763087
  0
VERTEX
  8
EBENE_1
 62
    39
  6
CONTINUOUS
 10
0.680078
 20
3.767268
  0
VERTEX
  8
EBENE_1
 62
    39
  6
CONTINUOUS
 10
0.681555
 20
3.772953
  0
SEQEND
  8
0
  0
POLYLINE
  8
EBENE_1
 62
    39
  6
CONTINUOUS
 66
     1
 40
0.003000
 41
0.003000
  0
VERTEX
  8
EBENE_1
 62
    39
  6
CONTINUOUS
 10
0.681555
 20
3.772953
  0
VERTEX
  8
EBENE_1
 62
    39
  6
CONTINUOUS
 10
0.680078
 20
3.778633
  0
VERTEX
  8
EBENE_1
 62
    39
  6
CONTINUOUS
 10
0.676047
 20
3.782813
  0
VERTEX
  8
EBENE_1
 62
    39
  6
CONTINUOUS
 10
0.670063
 20
3.784441
  0
SEQEND
  8
0
  0
POLYLINE
  8
EBENE_1
 62
    39
  6
CONTINUOUS
 66
     1
 40
0.003000
 41
0.003000
  0
VERTEX
  8
EBENE_1
 62
    39
  6
CONTINUOUS
 10
0.670063
 20
3.784441
  0
VERTEX
  8
EBENE_1
 62
    39
  6
CONTINUOUS
 10
0.664556
 20
3.782813
  0
VERTEX
  8
EBENE_1
 62
    39
  6
CONTINUOUS
 10
0.660700
 20
3.778633
  0
VERTEX
  8
EBENE_1
 62
    39
  6
CONTINUOUS
 10
0.659248
 20
3.772953
  0
SEQEND
  8
0
  0
POLYLINE
  8
EBENE_1
 62
    39
  6
CONTINUOUS
 66
     1
 40
0.003000
 41
0.003000
  0
VERTEX
  8
EBENE_1
 62
    39
  6
CONTINUOUS
 10
0.659248
 20
3.772953
  0
VERTEX
  8
EBENE_1
 62
    39
  6
CONTINUOUS
 10
0.660700
 20
3.767268
  0
VERTEX
  8
EBENE_1
 62
    39
  6
CONTINUOUS
 10
0.664556
 20
3.763087
  0
VERTEX
  8
EBENE_1
 62
    39
  6
CONTINUOUS
 10
0.670063
 20
3.761461
  0
SEQEND
  8
0
  0
POLYLINE
  8
EBENE_1
 62
    39
  6
CONTINUOUS
 66
     1
 40
0.003000
 41
0.003000
  0
VERTEX
  8
EBENE_1
 62
    39
  6
CONTINUOUS
 10
1.168193
 20
3.889205
  0
VERTEX
  8
EBENE_1
 62
    39
  6
CONTINUOUS
 10
1.173875
 20
3.890831
  0
VERTEX
  8
EBENE_1
 62
    39
  6
CONTINUOUS
 10
1.178054
 20
3.895011
  0
VERTEX
  8
EBENE_1
 62
    39
  6
CONTINUOUS
 10
1.179681
 20
3.900693
  0
SEQEND
  8
0
  0
POLYLINE
  8
EBENE_1
 62
    39
  6
CONTINUOUS
 66
     1
 40
0.003000
 41
0.003000
  0
VERTEX
  8
EBENE_1
 62
    39
  6
CONTINUOUS
 10
1.179681
 20
3.900693
  0
VERTEX
  8
EBENE_1
 62
    39
  6
CONTINUOUS
 10
1.178054
 20
3.906375
  0
VERTEX
  8
EBENE_1
 62
    39
  6
CONTINUOUS
 10
1.173875
 20
3.910554
  0
VERTEX
  8
EBENE_1
 62
    39
  6
CONTINUOUS
 10
1.168193
 20
3.912181
  0
SEQEND
  8
0
  0
POLYLINE
  8
EBENE_1
 62
    39
  6
CONTINUOUS
 66
     1
 40
0.003000
 41
0.003000
  0
VERTEX
  8
EBENE_1
 62
    39
  6
CONTINUOUS
 10
1.168193
 20
3.912181
  0
VERTEX
  8
EBENE_1
 62
    39
  6
CONTINUOUS
 10
1.162510
 20
3.910554
  0
VERTEX
  8
EBENE_1
 62
    39
  6
CONTINUOUS
 10
1.158329
 20
3.906375
  0
VERTEX
  8
EBENE_1
 62
    39
  6
CONTINUOUS
 10
1.156701
 20
3.900693
  0
SEQEND
  8
0
  0
POLYLINE
  8
EBENE_1
 62
    39
  6
CONTINUOUS
 66
     1
 40
0.003000
 41
0.003000
  0
VERTEX
  8
EBENE_1
 62
    39
  6
CONTINUOUS
 10
1.156701
 20
3.900693
  0
VERTEX
  8
EBENE_1
 62
    39
  6
CONTINUOUS
 10
1.158329
 20
3.895011
  0
VERTEX
  8
EBENE_1
 62
    39
  6
CONTINUOUS
 10
1.162510
 20
3.890831
  0
VERTEX
  8
EBENE_1
 62
    39
  6
CONTINUOUS
 10
1.168193
 20
3.889205
  0
SEQEND
  8
0
  0
POLYLINE
  8
EBENE_1
 62
    39
  6
CONTINUOUS
 66
     1
 40
0.003000
 41
0.003000
  0
VERTEX
  8
EBENE_1
 62
    39
  6
CONTINUOUS
 10
0.934335
 20
3.765516
  0
VERTEX
  8
EBENE_1
 62
    39
  6
CONTINUOUS
 10
0.940017
 20
3.766968
  0
VERTEX
  8
EBENE_1
 62
    39
  6
CONTINUOUS
 10
0.944199
 20
3.770823
  0
VERTEX
  8
EBENE_1
 62
    39
  6
CONTINUOUS
 10
0.945827
 20
3.776331
  0
SEQEND
  8
0
  0
POLYLINE
  8
EBENE_1
 62
    39
  6
CONTINUOUS
 66
     1
 40
0.003000
 41
0.003000
  0
VERTEX
  8
EBENE_1
 62
    39
  6
CONTINUOUS
 10
0.945827
 20
3.776331
  0
VERTEX
  8
EBENE_1
 62
    39
  6
CONTINUOUS
 10
0.944199
 20
3.782312
  0
VERTEX
  8
EBENE_1
 62
    39
  6
CONTINUOUS
 10
0.940017
 20
3.786342
  0
VERTEX
  8
EBENE_1
 62
    39
  6
CONTINUOUS
 10
0.934335
 20
3.787819
  0
SEQEND
  8
0
  0
POLYLINE
  8
EBENE_1
 62
    39
  6
CONTINUOUS
 66
     1
 40
0.003000
 41
0.003000
  0
VERTEX
  8
EBENE_1
 62
    39
  6
CONTINUOUS
 10
0.934335
 20
3.787819
  0
VERTEX
  8
EBENE_1
 62
    39
  6
CONTINUOUS
 10
0.928653
 20
3.786342
  0
VERTEX
  8
EBENE_1
 62
    39
  6
CONTINUOUS
 10
0.924473
 20
3.782312
  0
VERTEX
  8
EBENE_1
 62
    39
  6
CONTINUOUS
 10
0.922846
 20
3.776331
  0
SEQEND
  8
0
  0
POLYLINE
  8
EBENE_1
 62
    39
  6
CONTINUOUS
 66
     1
 40
0.003000
 41
0.003000
  0
VERTEX
  8
EBENE_1
 62
    39
  6
CONTINUOUS
 10
0.922846
 20
3.776331
  0
VERTEX
  8
EBENE_1
 62
    39
  6
CONTINUOUS
 10
0.924473
 20
3.770823
  0
VERTEX
  8
EBENE_1
 62
    39
  6
CONTINUOUS
 10
0.928653
 20
3.766968
  0
VERTEX
  8
EBENE_1
 62
    39
  6
CONTINUOUS
 10
0.934335
 20
3.765516
  0
SEQEND
  8
0
  0
POLYLINE
  8
EBENE_1
 62
    39
  6
CONTINUOUS
 66
     1
 40
0.003000
 41
0.003000
 70
     1
  0
VERTEX
  8
EBENE_1
 62
    39
  6
CONTINUOUS
 10
0.317925
 20
3.718878
  0
VERTEX
  8
EBENE_1
 62
    39
  6
CONTINUOUS
 10
0.333410
 20
3.702148
  0
VERTEX
  8
EBENE_1
 62
    39
  6
CONTINUOUS
 10
0.349060
 20
3.687189
  0
VERTEX
  8
EBENE_1
 62
    39
  6
CONTINUOUS
 10
0.364895
 20
3.673929
  0
VERTEX
  8
EBENE_1
 62
    39
  6
CONTINUOUS
 10
0.380940
 20
3.662294
  0
VERTEX
  8
EBENE_1
 62
    39
  6
CONTINUOUS
 10
0.397216
 20
3.652209
  0
VERTEX
  8
EBENE_1
 62
    39
  6
CONTINUOUS
 10
0.413745
 20
3.643602
  0
VERTEX
  8
EBENE_1
 62
    39
  6
CONTINUOUS
 10
0.430550
 20
3.636399
  0
VERTEX
  8
EBENE_1
 62
    39
  6
CONTINUOUS
 10
0.447653
 20
3.630527
  0
VERTEX
  8
EBENE_1
 62
    39
  6
CONTINUOUS
 10
0.465076
 20
3.625912
  0
VERTEX
  8
EBENE_1
 62
    39
  6
CONTINUOUS
 10
0.482843
 20
3.622481
  0
VERTEX
  8
EBENE_1
 62
    39
  6
CONTINUOUS
 10
0.500974
 20
3.620160
  0
VERTEX
  8
EBENE_1
 62
    39
  6
CONTINUOUS
 10
0.519492
 20
3.618875
  0
VERTEX
  8
EBENE_1
 62
    39
  6
CONTINUOUS
 10
0.538420
 20
3.618554
  0
VERTEX
  8
EBENE_1
 62
    39
  6
CONTINUOUS
 10
0.557779
 20
3.619122
  0
VERTEX
  8
EBENE_1
 62
    39
  6
CONTINUOUS
 10
0.577593
 20
3.620506
  0
VERTEX
  8
EBENE_1
 62
    39
  6
CONTINUOUS
 10
0.597883
 20
3.622633
  0
VERTEX
  8
EBENE_1
 62
    39
  6
CONTINUOUS
 10
0.618673
 20
3.625430
  0
VERTEX
  8
EBENE_1
 62
    39
  6
CONTINUOUS
 10
0.639983
 20
3.628822
  0
VERTEX
  8
EBENE_1
 62
    39
  6
CONTINUOUS
 10
0.661837
 20
3.632736
  0
VERTEX
  8
EBENE_1
 62
    39
  6
CONTINUOUS
 10
0.684256
 20
3.637098
  0
VERTEX
  8
EBENE_1
 62
    39
  6
CONTINUOUS
 10
0.701936
 20
3.639844
  0
VERTEX
  8
EBENE_1
 62
    39
  6
CONTINUOUS
 10
0.720685
 20
3.643118
  0
VERTEX
  8
EBENE_1
 62
    39
  6
CONTINUOUS
 10
0.740378
 20
3.646884
  0
VERTEX
  8
EBENE_1
 62
    39
  6
CONTINUOUS
 10
0.760887
 20
3.651104
  0
VERTEX
  8
EBENE_1
 62
    39
  6
CONTINUOUS
 10
0.782088
 20
3.655738
  0
VERTEX
  8
EBENE_1
 62
    39
  6
CONTINUOUS
 10
0.803852
 20
3.660750
  0
VERTEX
  8
EBENE_1
 62
    39
  6
CONTINUOUS
 10
0.826055
 20
3.666102
  0
VERTEX
  8
EBENE_1
 62
    39
  6
CONTINUOUS
 10
0.848569
 20
3.671754
  0
VERTEX
  8
EBENE_1
 62
    39
  6
CONTINUOUS
 10
0.871268
 20
3.677670
  0
VERTEX
  8
EBENE_1
 62
    39
  6
CONTINUOUS
 10
0.894027
 20
3.683812
  0
VERTEX
  8
EBENE_1
 62
    39
  6
CONTINUOUS
 10
0.916718
 20
3.690140
  0
VERTEX
  8
EBENE_1
 62
    39
  6
CONTINUOUS
 10
0.939215
 20
3.696619
  0
VERTEX
  8
EBENE_1
 62
    39
  6
CONTINUOUS
 10
0.961393
 20
3.703208
  0
VERTEX
  8
EBENE_1
 62
    39
  6
CONTINUOUS
 10
0.983124
 20
3.709871
  0
VERTEX
  8
EBENE_1
 62
    39
  6
CONTINUOUS
 10
1.004282
 20
3.716569
  0
VERTEX
  8
EBENE_1
 62
    39
  6
CONTINUOUS
 10
1.024742
 20
3.723264
  0
VERTEX
  8
EBENE_1
 62
    39
  6
CONTINUOUS
 10
1.044376
 20
3.729919
  0
VERTEX
  8
EBENE_1
 62
    39
  6
CONTINUOUS
 10
1.063058
 20
3.736495
  0
VERTEX
  8
EBENE_1
 62
    39
  6
CONTINUOUS
 10
1.080663
 20
3.742955
  0
VERTEX
  8
EBENE_1
 62
    39
  6
CONTINUOUS
 10
1.097063
 20
3.749259
  0
VERTEX
  8
EBENE_1
 62
    39
  6
CONTINUOUS
 10
1.112133
 20
3.755372
  0
VERTEX
  8
EBENE_1
 62
    39
  6
CONTINUOUS
 10
1.125746
 20
3.761253
  0
VERTEX
  8
EBENE_1
 62
    39
  6
CONTINUOUS
 10
1.137776
 20
3.766866
  0
VERTEX
  8
EBENE_1
 62
    39
  6
CONTINUOUS
 10
1.153989
 20
3.774514
  0
VERTEX
  8
EBENE_1
 62
    39
  6
CONTINUOUS
 10
1.171893
 20
3.782692
  0
VERTEX
  8
EBENE_1
 62
    39
  6
CONTINUOUS
 10
1.191006
 20
3.791414
  0
VERTEX
  8
EBENE_1
 62
    39
  6
CONTINUOUS
 10
1.210847
 20
3.800693
  0
VERTEX
  8
EBENE_1
 62
    39
  6
CONTINUOUS
 10
1.230932
 20
3.810543
  0
VERTEX
  8
EBENE_1
 62
    39
  6
CONTINUOUS
 10
1.250781
 20
3.820976
  0
VERTEX
  8
EBENE_1
 62
    39
  6
CONTINUOUS
 10
1.269912
 20
3.832006
  0
VERTEX
  8
EBENE_1
 62
    39
  6
CONTINUOUS
 10
1.287843
 20
3.843646
  0
VERTEX
  8
EBENE_1
 62
    39
  6
CONTINUOUS
 10
1.304092
 20
3.855910
  0
VERTEX
  8
EBENE_1
 62
    39
  6
CONTINUOUS
 10
1.318178
 20
3.868812
  0
VERTEX
  8
EBENE_1
 62
    39
  6
CONTINUOUS
 10
1.329618
 20
3.882363
  0
VERTEX
  8
EBENE_1
 62
    39
  6
CONTINUOUS
 10
1.337931
 20
3.896578
  0
VERTEX
  8
EBENE_1
 62
    39
  6
CONTINUOUS
 10
1.342635
 20
3.911469
  0
VERTEX
  8
EBENE_1
 62
    39
  6
CONTINUOUS
 10
1.343248
 20
3.927051
  0
VERTEX
  8
EBENE_1
 62
    39
  6
CONTINUOUS
 10
1.343248
 20
3.927051
  0
VERTEX
  8
EBENE_1
 62
    39
  6
CONTINUOUS
 10
1.343248
 20
4.216335
  0
VERTEX
  8
EBENE_1
 62
    39
  6
CONTINUOUS
 10
1.254031
 20
4.269728
  0
VERTEX
  8
EBENE_1
 62
    39
  6
CONTINUOUS
 10
0.336850
 20
3.985854
  0
VERTEX
  8
EBENE_1
 62
    39
  6
CONTINUOUS
 10
0.323751
 20
3.966813
  0
VERTEX
  8
EBENE_1
 62
    39
  6
CONTINUOUS
 10
0.312535
 20
3.947407
  0
VERTEX
  8
EBENE_1
 62
    39
  6
CONTINUOUS
 10
0.303184
 20
3.927727
  0
VERTEX
  8
EBENE_1
 62
    39
  6
CONTINUOUS
 10
0.295679
 20
3.907861
  0
VERTEX
  8
EBENE_1
 62
    39
  6
CONTINUOUS
 10
0.290001
 20
3.887901
  0
VERTEX
  8
EBENE_1
 62
    39
  6
CONTINUOUS
 10
0.286130
 20
3.867937
  0
VERTEX
  8
EBENE_1
 62
    39
  6
CONTINUOUS
 10
0.284047
 20
3.848058
  0
VERTEX
  8
EBENE_1
 62
    39
  6
CONTINUOUS
 10
0.283734
 20
3.828355
  0
VERTEX
  8
EBENE_1
 62
    39
  6
CONTINUOUS
 10
0.285170
 20
3.808918
  0
VERTEX
  8
EBENE_1
 62
    39
  6
CONTINUOUS
 10
0.288336
 20
3.789837
  0
VERTEX
  8
EBENE_1
 62
    39
  6
CONTINUOUS
 10
0.293214
 20
3.771203
  0
VERTEX
  8
EBENE_1
 62
    39
  6
CONTINUOUS
 10
0.299785
 20
3.753105
  0
VERTEX
  8
EBENE_1
 62
    39
  6
CONTINUOUS
 10
0.308028
 20
3.735633
  0
SEQEND
  8
0
  0
POLYLINE
  8
EBENE_1
 62
    39
  6
CONTINUOUS
 66
     1
 40
0.003000
 41
0.003000
 70
     1
  0
VERTEX
  8
EBENE_1
 62
    39
  6
CONTINUOUS
 10
0.334146
 20
3.713472
  0
VERTEX
  8
EBENE_1
 62
    39
  6
CONTINUOUS
 10
0.355206
 20
3.697608
  0
VERTEX
  8
EBENE_1
 62
    39
  6
CONTINUOUS
 10
0.374834
 20
3.683538
  0
VERTEX
  8
EBENE_1
 62
    39
  6
CONTINUOUS
 10
0.393264
 20
3.671191
  0
VERTEX
  8
EBENE_1
 62
    39
  6
CONTINUOUS
 10
0.410728
 20
3.660497
  0
VERTEX
  8
EBENE_1
 62
    39
  6
CONTINUOUS
 10
0.427459
 20
3.651383
  0
VERTEX
  8
EBENE_1
 62
    39
  6
CONTINUOUS
 10
0.443690
 20
3.643780
  0
VERTEX
  8
EBENE_1
 62
    39
  6
CONTINUOUS
 10
0.459654
 20
3.637616
  0
VERTEX
  8
EBENE_1
 62
    39
  6
CONTINUOUS
 10
0.475584
 20
3.632821
  0
VERTEX
  8
EBENE_1
 62
    39
  6
CONTINUOUS
 10
0.491713
 20
3.629323
  0
VERTEX
  8
EBENE_1
 62
    39
  6
CONTINUOUS
 10
0.508274
 20
3.627052
  0
VERTEX
  8
EBENE_1
 62
    39
  6
CONTINUOUS
 10
0.525499
 20
3.625937
  0
VERTEX
  8
EBENE_1
 62
    39
  6
CONTINUOUS
 10
0.543622
 20
3.625906
  0
VERTEX
  8
EBENE_1
 62
    39
  6
CONTINUOUS
 10
0.562876
 20
3.626890
  0
VERTEX
  8
EBENE_1
 62
    39
  6
CONTINUOUS
 10
0.583493
 20
3.628816
  0
VERTEX
  8
EBENE_1
 62
    39
  6
CONTINUOUS
 10
0.605707
 20
3.631614
  0
VERTEX
  8
EBENE_1
 62
    39
  6
CONTINUOUS
 10
0.629750
 20
3.635213
  0
VERTEX
  8
EBENE_1
 62
    39
  6
CONTINUOUS
 10
0.655855
 20
3.639543
  0
VERTEX
  8
EBENE_1
 62
    39
  6
CONTINUOUS
 10
0.684256
 20
3.644531
  0
VERTEX
  8
EBENE_1
 62
    39
  6
CONTINUOUS
 10
0.702441
 20
3.647610
  0
VERTEX
  8
EBENE_1
 62
    39
  6
CONTINUOUS
 10
0.721697
 20
3.651115
  0
VERTEX
  8
EBENE_1
 62
    39
  6
CONTINUOUS
 10
0.741890
 20
3.655017
  0
VERTEX
  8
EBENE_1
 62
    39
  6
CONTINUOUS
 10
0.762886
 20
3.659291
  0
VERTEX
  8
EBENE_1
 62
    39
  6
CONTINUOUS
 10
0.784548
 20
3.663910
  0
VERTEX
  8
EBENE_1
 62
    39
  6
CONTINUOUS
 10
0.806743
 20
3.668845
  0
VERTEX
  8
EBENE_1
 62
    39
  6
CONTINUOUS
 10
0.829336
 20
3.674071
  0
VERTEX
  8
EBENE_1
 62
    39
  6
CONTINUOUS
 10
0.852192
 20
3.679560
  0
VERTEX
  8
EBENE_1
 62
    39
  6
CONTINUOUS
 10
0.875175
 20
3.685285
  0
VERTEX
  8
EBENE_1
 62
    39
  6
CONTINUOUS
 10
0.898152
 20
3.691219
  0
VERTEX
  8
EBENE_1
 62
    39
  6
CONTINUOUS
 10
0.920987
 20
3.697335
  0
VERTEX
  8
EBENE_1
 62
    39
  6
CONTINUOUS
 10
0.943545
 20
3.703606
  0
VERTEX
  8
EBENE_1
 62
    39
  6
CONTINUOUS
 10
0.965692
 20
3.710005
  0
VERTEX
  8
EBENE_1
 62
    39
  6
CONTINUOUS
 10
0.987293
 20
3.716505
  0
VERTEX
  8
EBENE_1
 62
    39
  6
CONTINUOUS
 10
1.008213
 20
3.723079
  0
VERTEX
  8
EBENE_1
 62
    39
  6
CONTINUOUS
 10
1.028317
 20
3.729699
  0
VERTEX
  8
EBENE_1
 62
    39
  6
CONTINUOUS
 10
1.047471
 20
3.736340
  0
VERTEX
  8
EBENE_1
 62
    39
  6
CONTINUOUS
 10
1.065539
 20
3.742973
  0
VERTEX
  8
EBENE_1
 62
    39
  6
CONTINUOUS
 10
1.082387
 20
3.749572
  0
VERTEX
  8
EBENE_1
 62
    39
  6
CONTINUOUS
 10
1.097879
 20
3.756110
  0
VERTEX
  8
EBENE_1
 62
    39
  6
CONTINUOUS
 10
1.111882
 20
3.762560
  0
VERTEX
  8
EBENE_1
 62
    39
  6
CONTINUOUS
 10
1.124260
 20
3.768894
  0
VERTEX
  8
EBENE_1
 62
    39
  6
CONTINUOUS
 10
1.140243
 20
3.777087
  0
VERTEX
  8
EBENE_1
 62
    39
  6
CONTINUOUS
 10
1.158026
 20
3.785236
  0
VERTEX
  8
EBENE_1
 62
    39
  6
CONTINUOUS
 10
1.177113
 20
3.793462
  0
VERTEX
  8
EBENE_1
 62
    39
  6
CONTINUOUS
 10
1.197006
 20
3.801885
  0
VERTEX
  8
EBENE_1
 62
    39
  6
CONTINUOUS
 10
1.217211
 20
3.810628
  0
VERTEX
  8
EBENE_1
 62
    39
  6
CONTINUOUS
 10
1.237229
 20
3.819811
  0
VERTEX
  8
EBENE_1
 62
    39
  6
CONTINUOUS
 10
1.256564
 20
3.829556
  0
VERTEX
  8
EBENE_1
 62
    39
  6
CONTINUOUS
 10
1.274720
 20
3.839984
  0
VERTEX
  8
EBENE_1
 62
    39
  6
CONTINUOUS
 10
1.291200
 20
3.851215
  0
VERTEX
  8
EBENE_1
 62
    39
  6
CONTINUOUS
 10
1.305508
 20
3.863372
  0
VERTEX
  8
EBENE_1
 62
    39
  6
CONTINUOUS
 10
1.317147
 20
3.876575
  0
VERTEX
  8
EBENE_1
 62
    39
  6
CONTINUOUS
 10
1.325620
 20
3.890945
  0
VERTEX
  8
EBENE_1
 62
    39
  6
CONTINUOUS
 10
1.330431
 20
3.906604
  0
VERTEX
  8
EBENE_1
 62
    39
  6
CONTINUOUS
 10
1.331083
 20
3.923673
  0
VERTEX
  8
EBENE_1
 62
    39
  6
CONTINUOUS
 10
1.331083
 20
3.923673
  0
VERTEX
  8
EBENE_1
 62
    39
  6
CONTINUOUS
 10
1.335138
 20
4.246748
  0
VERTEX
  8
EBENE_1
 62
    39
  6
CONTINUOUS
 10
1.254031
 20
4.265673
  0
VERTEX
  8
EBENE_1
 62
    39
  6
CONTINUOUS
 10
0.344287
 20
3.990587
  0
VERTEX
  8
EBENE_1
 62
    39
  6
CONTINUOUS
 10
0.331449
 20
3.969774
  0
VERTEX
  8
EBENE_1
 62
    39
  6
CONTINUOUS
 10
0.320705
 20
3.949059
  0
VERTEX
  8
EBENE_1
 62
    39
  6
CONTINUOUS
 10
0.311997
 20
3.928456
  0
VERTEX
  8
EBENE_1
 62
    39
  6
CONTINUOUS
 10
0.305269
 20
3.907981
  0
VERTEX
  8
EBENE_1
 62
    39
  6
CONTINUOUS
 10
0.300462
 20
3.887648
  0
VERTEX
  8
EBENE_1
 62
    39
  6
CONTINUOUS
 10
0.297518
 20
3.867471
  0
VERTEX
  8
EBENE_1
 62
    39
  6
CONTINUOUS
 10
0.296381
 20
3.847466
  0
VERTEX
  8
EBENE_1
 62
    39
  6
CONTINUOUS
 10
0.296992
 20
3.827647
  0
VERTEX
  8
EBENE_1
 62
    39
  6
CONTINUOUS
 10
0.299294
 20
3.808029
  0
VERTEX
  8
EBENE_1
 62
    39
  6
CONTINUOUS
 10
0.303229
 20
3.788627
  0
VERTEX
  8
EBENE_1
 62
    39
  6
CONTINUOUS
 10
0.308739
 20
3.769456
  0
VERTEX
  8
EBENE_1
 62
    39
  6
CONTINUOUS
 10
0.315767
 20
3.750530
  0
VERTEX
  8
EBENE_1
 62
    39
  6
CONTINUOUS
 10
0.324255
 20
3.731864
  0
SEQEND
  8
0
  0
POLYLINE
  8
EBENE_1
 62
    39
  6
CONTINUOUS
 66
     1
 40
0.003000
 41
0.003000
 70
     1
  0
VERTEX
  8
EBENE_1
 62
    39
  6
CONTINUOUS
 10
0.588957
 20
4.008835
  0
VERTEX
  8
EBENE_1
 62
    39
  6
CONTINUOUS
 10
0.595115
 20
4.010287
  0
VERTEX
  8
EBENE_1
 62
    39
  6
CONTINUOUS
 10
0.599470
 20
4.014142
  0
VERTEX
  8
EBENE_1
 62
    39
  6
CONTINUOUS
 10
0.601122
 20
4.019650
  0
VERTEX
  8
EBENE_1
 62
    39
  6
CONTINUOUS
 10
0.599470
 20
4.025331
  0
VERTEX
  8
EBENE_1
 62
    39
  6
CONTINUOUS
 10
0.595115
 20
4.029511
  0
VERTEX
  8
EBENE_1
 62
    39
  6
CONTINUOUS
 10
0.588957
 20
4.031138
  0
VERTEX
  8
EBENE_1
 62
    39
  6
CONTINUOUS
 10
0.582322
 20
4.029511
  0
VERTEX
  8
EBENE_1
 62
    39
  6
CONTINUOUS
 10
0.577791
 20
4.025331
  0
VERTEX
  8
EBENE_1
 62
    39
  6
CONTINUOUS
 10
0.576114
 20
4.019650
  0
VERTEX
  8
EBENE_1
 62
    39
  6
CONTINUOUS
 10
0.577791
 20
4.014142
  0
VERTEX
  8
EBENE_1
 62
    39
  6
CONTINUOUS
 10
0.582322
 20
4.010287
  0
SEQEND
  8
0
  0
POLYLINE
  8
EBENE_1
 62
    39
  6
CONTINUOUS
 66
     1
 40
0.003000
 41
0.003000
 70
     1
  0
VERTEX
  8
EBENE_1
 62
    39
  6
CONTINUOUS
 10
0.923520
 20
4.062906
  0
VERTEX
  8
EBENE_1
 62
    39
  6
CONTINUOUS
 10
0.929854
 20
4.064533
  0
VERTEX
  8
EBENE_1
 62
    39
  6
CONTINUOUS
 10
0.934535
 20
4.068715
  0
VERTEX
  8
EBENE_1
 62
    39
  6
CONTINUOUS
 10
0.936362
 20
4.074398
  0
VERTEX
  8
EBENE_1
 62
    39
  6
CONTINUOUS
 10
0.934535
 20
4.079904
  0
VERTEX
  8
EBENE_1
 62
    39
  6
CONTINUOUS
 10
0.929854
 20
4.083758
  0
VERTEX
  8
EBENE_1
 62
    39
  6
CONTINUOUS
 10
0.923520
 20
4.085209
  0
VERTEX
  8
EBENE_1
 62
    39
  6
CONTINUOUS
 10
0.917188
 20
4.083758
  0
VERTEX
  8
EBENE_1
 62
    39
  6
CONTINUOUS
 10
0.912505
 20
4.079904
  0
VERTEX
  8
EBENE_1
 62
    39
  6
CONTINUOUS
 10
0.910677
 20
4.074398
  0
VERTEX
  8
EBENE_1
 62
    39
  6
CONTINUOUS
 10
0.912505
 20
4.068715
  0
VERTEX
  8
EBENE_1
 62
    39
  6
CONTINUOUS
 10
0.917188
 20
4.064533
  0
SEQEND
  8
0
  0
POLYLINE
  8
EBENE_1
 62
    39
  6
CONTINUOUS
 66
     1
 40
0.003000
 41
0.003000
 70
     1
  0
VERTEX
  8
EBENE_1
 62
    39
  6
CONTINUOUS
 10
1.176980
 20
4.173752
  0
VERTEX
  8
EBENE_1
 62
    39
  6
CONTINUOUS
 10
1.183139
 20
4.175204
  0
VERTEX
  8
EBENE_1
 62
    39
  6
CONTINUOUS
 10
1.187494
 20
4.179060
  0
VERTEX
  8
EBENE_1
 62
    39
  6
CONTINUOUS
 10
1.189146
 20
4.184567
  0
VERTEX
  8
EBENE_1
 62
    39
  6
CONTINUOUS
 10
1.187494
 20
4.190249
  0
VERTEX
  8
EBENE_1
 62
    39
  6
CONTINUOUS
 10
1.183139
 20
4.194428
  0
VERTEX
  8
EBENE_1
 62
    39
  6
CONTINUOUS
 10
1.176980
 20
4.196055
  0
VERTEX
  8
EBENE_1
 62
    39
  6
CONTINUOUS
 10
1.170345
 20
4.194428
  0
VERTEX
  8
EBENE_1
 62
    39
  6
CONTINUOUS
 10
1.165815
 20
4.190249
  0
VERTEX
  8
EBENE_1
 62
    39
  6
CONTINUOUS
 10
1.164138
 20
4.184567
  0
VERTEX
  8
EBENE_1
 62
    39
  6
CONTINUOUS
 10
1.165815
 20
4.179060
  0
VERTEX
  8
EBENE_1
 62
    39
  6
CONTINUOUS
 10
1.170345
 20
4.175204
  0
SEQEND
  8
0
  0
POLYLINE
  8
EBENE_1
 62
    39
  6
CONTINUOUS
 66
     1
 40
0.003000
 41
0.003000
  0
VERTEX
  8
EBENE_1
 62
    39
  6
CONTINUOUS
 10
0.288185
 20
4.394768
  0
VERTEX
  8
EBENE_1
 62
    39
  6
CONTINUOUS
 10
0.605177
 20
3.875008
  0
VERTEX
  8
EBENE_1
 62
    39
  6
CONTINUOUS
 10
0.273315
 20
3.788496
  0
SEQEND
  8
0
  0
POLYLINE
  8
EBENE_1
 62
    39
  6
CONTINUOUS
 66
     1
 40
0.003000
 41
0.003000
  0
VERTEX
  8
EBENE_1
 62
    39
  6
CONTINUOUS
 10
0.273315
 20
3.788496
  0
VERTEX
  8
EBENE_1
 62
    39
  6
CONTINUOUS
 10
0.263526
 20
3.786714
  0
VERTEX
  8
EBENE_1
 62
    39
  6
CONTINUOUS
 10
0.252970
 20
3.785633
  0
VERTEX
  8
EBENE_1
 62
    39
  6
CONTINUOUS
 10
0.241692
 20
3.785251
  0
VERTEX
  8
EBENE_1
 62
    39
  6
CONTINUOUS
 10
0.229737
 20
3.785565
  0
VERTEX
  8
EBENE_1
 62
    39
  6
CONTINUOUS
 10
0.217151
 20
3.786571
  0
VERTEX
  8
EBENE_1
 62
    39
  6
CONTINUOUS
 10
0.203977
 20
3.788267
  0
VERTEX
  8
EBENE_1
 62
    39
  6
CONTINUOUS
 10
0.190262
 20
3.790648
  0
VERTEX
  8
EBENE_1
 62
    39
  6
CONTINUOUS
 10
0.176049
 20
3.793713
  0
VERTEX
  8
EBENE_1
 62
    39
  6
CONTINUOUS
 10
0.161385
 20
3.797459
  0
VERTEX
  8
EBENE_1
 62
    39
  6
CONTINUOUS
 10
0.146313
 20
3.801881
  0
VERTEX
  8
EBENE_1
 62
    39
  6
CONTINUOUS
 10
0.130878
 20
3.806977
  0
VERTEX
  8
EBENE_1
 62
    39
  6
CONTINUOUS
 10
0.115127
 20
3.812743
  0
VERTEX
  8
EBENE_1
 62
    39
  6
CONTINUOUS
 10
0.099103
 20
3.819178
  0
VERTEX
  8
EBENE_1
 62
    39
  6
CONTINUOUS
 10
0.082851
 20
3.826277
  0
VERTEX
  8
EBENE_1
 62
    39
  6
CONTINUOUS
 10
0.066417
 20
3.834037
  0
VERTEX
  8
EBENE_1
 62
    39
  6
CONTINUOUS
 10
0.049846
 20
3.842456
  0
VERTEX
  8
EBENE_1
 62
    39
  6
CONTINUOUS
 10
0.033181
 20
3.851530
  0
VERTEX
  8
EBENE_1
 62
    39
  6
CONTINUOUS
 10
0.016469
 20
3.861256
  0
VERTEX
  8
EBENE_1
 62
    39
  6
CONTINUOUS
 10
-0.000246
 20
3.871631
  0
VERTEX
  8
EBENE_1
 62
    39
  6
CONTINUOUS
 10
-0.016918
 20
3.882652
  0
VERTEX
  8
EBENE_1
 62
    39
  6
CONTINUOUS
 10
-0.033504
 20
3.894316
  0
VERTEX
  8
EBENE_1
 62
    39
  6
CONTINUOUS
 10
-0.049958
 20
3.906619
  0
VERTEX
  8
EBENE_1
 62
    39
  6
CONTINUOUS
 10
-0.066235
 20
3.919560
  0
VERTEX
  8
EBENE_1
 62
    39
  6
CONTINUOUS
 10
-0.082290
 20
3.933133
  0
VERTEX
  8
EBENE_1
 62
    39
  6
CONTINUOUS
 10
-0.098078
 20
3.947337
  0
VERTEX
  8
EBENE_1
 62
    39
  6
CONTINUOUS
 10
-0.113554
 20
3.962169
  0
VERTEX
  8
EBENE_1
 62
    39
  6
CONTINUOUS
 10
-0.128674
 20
3.977624
  0
VERTEX
  8
EBENE_1
 62
    39
  6
CONTINUOUS
 10
-0.143392
 20
3.993701
  0
VERTEX
  8
EBENE_1
 62
    39
  6
CONTINUOUS
 10
-0.157664
 20
4.010396
  0
VERTEX
  8
EBENE_1
 62
    39
  6
CONTINUOUS
 10
-0.171444
 20
4.027705
  0
VERTEX
  8
EBENE_1
 62
    39
  6
CONTINUOUS
 10
-0.184688
 20
4.045627
  0
VERTEX
  8
EBENE_1
 62
    39
  6
CONTINUOUS
 10
-0.197351
 20
4.064157
  0
VERTEX
  8
EBENE_1
 62
    39
  6
CONTINUOUS
 10
-0.209387
 20
4.083292
  0
VERTEX
  8
EBENE_1
 62
    39
  6
CONTINUOUS
 10
-0.220752
 20
4.103030
  0
VERTEX
  8
EBENE_1
 62
    39
  6
CONTINUOUS
 10
-0.231401
 20
4.123368
  0
VERTEX
  8
EBENE_1
 62
    39
  6
CONTINUOUS
 10
-0.241289
 20
4.144301
  0
VERTEX
  8
EBENE_1
 62
    39
  6
CONTINUOUS
 10
-0.250371
 20
4.165828
  0
VERTEX
  8
EBENE_1
 62
    39
  6
CONTINUOUS
 10
-0.258602
 20
4.187945
  0
SEQEND
  8
0
  0
POLYLINE
  8
EBENE_1
 62
    39
  6
CONTINUOUS
 66
     1
 40
0.003000
 41
0.003000
  0
VERTEX
  8
EBENE_1
 62
    39
  6
CONTINUOUS
 10
-0.258602
 20
4.187945
  0
VERTEX
  8
EBENE_1
 62
    39
  6
CONTINUOUS
 10
-0.262501
 20
4.213983
  0
VERTEX
  8
EBENE_1
 62
    39
  6
CONTINUOUS
 10
-0.263615
 20
4.238558
  0
VERTEX
  8
EBENE_1
 62
    39
  6
CONTINUOUS
 10
-0.262109
 20
4.261549
  0
VERTEX
  8
EBENE_1
 62
    39
  6
CONTINUOUS
 10
-0.258146
 20
4.282833
  0
VERTEX
  8
EBENE_1
 62
    39
  6
CONTINUOUS
 10
-0.251893
 20
4.302290
  0
VERTEX
  8
EBENE_1
 62
    39
  6
CONTINUOUS
 10
-0.243512
 20
4.319797
  0
VERTEX
  8
EBENE_1
 62
    39
  6
CONTINUOUS
 10
-0.233170
 20
4.335232
  0
VERTEX
  8
EBENE_1
 62
    39
  6
CONTINUOUS
 10
-0.221030
 20
4.348473
  0
VERTEX
  8
EBENE_1
 62
    39
  6
CONTINUOUS
 10
-0.207256
 20
4.359398
  0
VERTEX
  8
EBENE_1
 62
    39
  6
CONTINUOUS
 10
-0.192014
 20
4.367886
  0
VERTEX
  8
EBENE_1
 62
    39
  6
CONTINUOUS
 10
-0.175469
 20
4.373815
  0
SEQEND
  8
0
  0
POLYLINE
  8
EBENE_1
 62
    39
  6
CONTINUOUS
 66
     1
 40
0.003000
 41
0.003000
  0
VERTEX
  8
EBENE_1
 62
    39
  6
CONTINUOUS
 10
-0.175469
 20
4.373815
  0
VERTEX
  8
EBENE_1
 62
    39
  6
CONTINUOUS
 10
0.169228
 20
4.466413
  0
SEQEND
  8
0
  0
POLYLINE
  8
EBENE_1
 62
    39
  6
CONTINUOUS
 66
     1
 40
0.003000
 41
0.003000
  0
VERTEX
  8
EBENE_1
 62
    39
  6
CONTINUOUS
 10
0.169228
 20
4.466413
  0
VERTEX
  8
EBENE_1
 62
    39
  6
CONTINUOUS
 10
0.193646
 20
4.470497
  0
VERTEX
  8
EBENE_1
 62
    39
  6
CONTINUOUS
 10
0.212668
 20
4.469403
  0
VERTEX
  8
EBENE_1
 62
    39
  6
CONTINUOUS
 10
0.227406
 20
4.464058
  0
VERTEX
  8
EBENE_1
 62
    39
  6
CONTINUOUS
 10
0.238973
 20
4.455393
  0
VERTEX
  8
EBENE_1
 62
    39
  6
CONTINUOUS
 10
0.248481
 20
4.444336
  0
VERTEX
  8
EBENE_1
 62
    39
  6
CONTINUOUS
 10
0.257044
 20
4.431816
  0
VERTEX
  8
EBENE_1
 62
    39
  6
CONTINUOUS
 10
0.265774
 20
4.418762
  0
VERTEX
  8
EBENE_1
 62
    39
  6
CONTINUOUS
 10
0.275784
 20
4.406103
  0
VERTEX
  8
EBENE_1
 62
    39
  6
CONTINUOUS
 10
0.288185
 20
4.394768
  0
SEQEND
  8
0
  0
POLYLINE
  8
EBENE_1
 62
    39
  6
CONTINUOUS
 66
     1
 40
0.003000
 41
0.003000
 70
     1
  0
VERTEX
  8
EBENE_1
 62
    39
  6
CONTINUOUS
 10
0.288185
 20
4.392740
  0
VERTEX
  8
EBENE_1
 62
    39
  6
CONTINUOUS
 10
0.599772
 20
3.881091
  0
VERTEX
  8
EBENE_1
 62
    39
  6
CONTINUOUS
 10
0.273315
 20
3.795929
  0
VERTEX
  8
EBENE_1
 62
    39
  6
CONTINUOUS
 10
0.263422
 20
3.794156
  0
VERTEX
  8
EBENE_1
 62
    39
  6
CONTINUOUS
 10
0.252735
 20
3.793108
  0
VERTEX
  8
EBENE_1
 62
    39
  6
CONTINUOUS
 10
0.241303
 20
3.792783
  0
VERTEX
  8
EBENE_1
 62
    39
  6
CONTINUOUS
 10
0.229173
 20
3.793177
  0
VERTEX
  8
EBENE_1
 62
    39
  6
CONTINUOUS
 10
0.216393
 20
3.794287
  0
VERTEX
  8
EBENE_1
 62
    39
  6
CONTINUOUS
 10
0.203010
 20
3.796111
  0
VERTEX
  8
EBENE_1
 62
    39
  6
CONTINUOUS
 10
0.189073
 20
3.798644
  0
VERTEX
  8
EBENE_1
 62
    39
  6
CONTINUOUS
 10
0.174629
 20
3.801884
  0
VERTEX
  8
EBENE_1
 62
    39
  6
CONTINUOUS
 10
0.159726
 20
3.805828
  0
VERTEX
  8
EBENE_1
 62
    39
  6
CONTINUOUS
 10
0.144413
 20
3.810473
  0
VERTEX
  8
EBENE_1
 62
    39
  6
CONTINUOUS
 10
0.128735
 20
3.815815
  0
VERTEX
  8
EBENE_1
 62
    39
  6
CONTINUOUS
 10
0.112743
 20
3.821851
  0
VERTEX
  8
EBENE_1
 62
    39
  6
CONTINUOUS
 10
0.096482
 20
3.828579
  0
VERTEX
  8
EBENE_1
 62
    39
  6
CONTINUOUS
 10
0.080002
 20
3.835995
  0
VERTEX
  8
EBENE_1
 62
    39
  6
CONTINUOUS
 10
0.063349
 20
3.844095
  0
VERTEX
  8
EBENE_1
 62
    39
  6
CONTINUOUS
 10
0.046573
 20
3.852878
  0
VERTEX
  8
EBENE_1
 62
    39
  6
CONTINUOUS
 10
0.029719
 20
3.862339
  0
VERTEX
  8
EBENE_1
 62
    39
  6
CONTINUOUS
 10
0.012837
 20
3.872476
  0
VERTEX
  8
EBENE_1
 62
    39
  6
CONTINUOUS
 10
-0.004026
 20
3.883286
  0
VERTEX
  8
EBENE_1
 62
    39
  6
CONTINUOUS
 10
-0.020822
 20
3.894765
  0
VERTEX
  8
EBENE_1
 62
    39
  6
CONTINUOUS
 10
-0.037504
 20
3.906910
  0
VERTEX
  8
EBENE_1
 62
    39
  6
CONTINUOUS
 10
-0.054023
 20
3.919718
  0
VERTEX
  8
EBENE_1
 62
    39
  6
CONTINUOUS
 10
-0.070332
 20
3.933186
  0
VERTEX
  8
EBENE_1
 62
    39
  6
CONTINUOUS
 10
-0.086383
 20
3.947312
  0
VERTEX
  8
EBENE_1
 62
    39
  6
CONTINUOUS
 10
-0.102128
 20
3.962091
  0
VERTEX
  8
EBENE_1
 62
    39
  6
CONTINUOUS
 10
-0.117520
 20
3.977520
  0
VERTEX
  8
EBENE_1
 62
    39
  6
CONTINUOUS
 10
-0.132510
 20
3.993597
  0
VERTEX
  8
EBENE_1
 62
    39
  6
CONTINUOUS
 10
-0.147051
 20
4.010319
  0
VERTEX
  8
EBENE_1
 62
    39
  6
CONTINUOUS
 10
-0.161095
 20
4.027682
  0
VERTEX
  8
EBENE_1
 62
    39
  6
CONTINUOUS
 10
-0.174594
 20
4.045683
  0
VERTEX
  8
EBENE_1
 62
    39
  6
CONTINUOUS
 10
-0.187501
 20
4.064319
  0
VERTEX
  8
EBENE_1
 62
    39
  6
CONTINUOUS
 10
-0.199767
 20
4.083586
  0
VERTEX
  8
EBENE_1
 62
    39
  6
CONTINUOUS
 10
-0.211345
 20
4.103483
  0
VERTEX
  8
EBENE_1
 62
    39
  6
CONTINUOUS
 10
-0.222187
 20
4.124006
  0
VERTEX
  8
EBENE_1
 62
    39
  6
CONTINUOUS
 10
-0.232245
 20
4.145150
  0
VERTEX
  8
EBENE_1
 62
    39
  6
CONTINUOUS
 10
-0.241472
 20
4.166915
  0
VERTEX
  8
EBENE_1
 62
    39
  6
CONTINUOUS
 10
-0.249819
 20
4.189295
  0
VERTEX
  8
EBENE_1
 62
    39
  6
CONTINUOUS
 10
-0.249819
 20
4.189295
  0
VERTEX
  8
EBENE_1
 62
    39
  6
CONTINUOUS
 10
-0.253718
 20
4.214813
  0
VERTEX
  8
EBENE_1
 62
    39
  6
CONTINUOUS
 10
-0.254838
 20
4.238928
  0
VERTEX
  8
EBENE_1
 62
    39
  6
CONTINUOUS
 10
-0.253350
 20
4.261515
  0
VERTEX
  8
EBENE_1
 62
    39
  6
CONTINUOUS
 10
-0.249425
 20
4.282444
  0
VERTEX
  8
EBENE_1
 62
    39
  6
CONTINUOUS
 10
-0.243233
 20
4.301588
  0
VERTEX
  8
EBENE_1
 62
    39
  6
CONTINUOUS
 10
-0.234945
 20
4.318818
  0
VERTEX
  8
EBENE_1
 62
    39
  6
CONTINUOUS
 10
-0.224732
 20
4.334006
  0
VERTEX
  8
EBENE_1
 62
    39
  6
CONTINUOUS
 10
-0.212763
 20
4.347026
  0
VERTEX
  8
EBENE_1
 62
    39
  6
CONTINUOUS
 10
-0.199211
 20
4.357748
  0
VERTEX
  8
EBENE_1
 62
    39
  6
CONTINUOUS
 10
-0.184245
 20
4.366044
  0
VERTEX
  8
EBENE_1
 62
    39
  6
CONTINUOUS
 10
-0.168035
 20
4.371787
  0
VERTEX
  8
EBENE_1
 62
    39
  6
CONTINUOUS
 10
0.171256
 20
4.463031
  0
VERTEX
  8
EBENE_1
 62
    39
  6
CONTINUOUS
 10
0.195271
 20
4.467141
  0
VERTEX
  8
EBENE_1
 62
    39
  6
CONTINUOUS
 10
0.213973
 20
4.466115
  0
VERTEX
  8
EBENE_1
 62
    39
  6
CONTINUOUS
 10
0.228458
 20
4.460879
  0
VERTEX
  8
EBENE_1
 62
    39
  6
CONTINUOUS
 10
0.239822
 20
4.452355
  0
VERTEX
  8
EBENE_1
 62
    39
  6
CONTINUOUS
 10
0.249161
 20
4.441466
  0
VERTEX
  8
EBENE_1
 62
    39
  6
CONTINUOUS
 10
0.257571
 20
4.429137
  0
VERTEX
  8
EBENE_1
 62
    39
  6
CONTINUOUS
 10
0.266148
 20
4.416291
  0
VERTEX
  8
EBENE_1
 62
    39
  6
CONTINUOUS
 10
0.275987
 20
4.403851
  0
SEQEND
  8
0
  0
POLYLINE
  8
EBENE_1
 62
    39
  6
CONTINUOUS
 66
     1
 40
0.003000
 41
0.003000
  0
VERTEX
  8
EBENE_1
 62
    39
  6
CONTINUOUS
 10
0.010398
 20
4.369083
  0
VERTEX
  8
EBENE_1
 62
    39
  6
CONTINUOUS
 10
0.016379
 20
4.370560
  0
VERTEX
  8
EBENE_1
 62
    39
  6
CONTINUOUS
 10
0.020409
 20
4.374591
  0
VERTEX
  8
EBENE_1
 62
    39
  6
CONTINUOUS
 10
0.021886
 20
4.380575
  0
SEQEND
  8
0
  0
POLYLINE
  8
EBENE_1
 62
    39
  6
CONTINUOUS
 66
     1
 40
0.003000
 41
0.003000
  0
VERTEX
  8
EBENE_1
 62
    39
  6
CONTINUOUS
 10
0.021886
 20
4.380575
  0
VERTEX
  8
EBENE_1
 62
    39
  6
CONTINUOUS
 10
0.020409
 20
4.386257
  0
VERTEX
  8
EBENE_1
 62
    39
  6
CONTINUOUS
 10
0.016379
 20
4.390436
  0
VERTEX
  8
EBENE_1
 62
    39
  6
CONTINUOUS
 10
0.010398
 20
4.392063
  0
SEQEND
  8
0
  0
POLYLINE
  8
EBENE_1
 62
    39
  6
CONTINUOUS
 66
     1
 40
0.003000
 41
0.003000
  0
VERTEX
  8
EBENE_1
 62
    39
  6
CONTINUOUS
 10
0.010398
 20
4.392063
  0
VERTEX
  8
EBENE_1
 62
    39
  6
CONTINUOUS
 10
0.004891
 20
4.390436
  0
VERTEX
  8
EBENE_1
 62
    39
  6
CONTINUOUS
 10
0.001038
 20
4.386257
  0
VERTEX
  8
EBENE_1
 62
    39
  6
CONTINUOUS
 10
-0.000413
 20
4.380575
  0
SEQEND
  8
0
  0
POLYLINE
  8
EBENE_1
 62
    39
  6
CONTINUOUS
 66
     1
 40
0.003000
 41
0.003000
  0
VERTEX
  8
EBENE_1
 62
    39
  6
CONTINUOUS
 10
-0.000413
 20
4.380575
  0
VERTEX
  8
EBENE_1
 62
    39
  6
CONTINUOUS
 10
0.001038
 20
4.374591
  0
VERTEX
  8
EBENE_1
 62
    39
  6
CONTINUOUS
 10
0.004891
 20
4.370560
  0
VERTEX
  8
EBENE_1
 62
    39
  6
CONTINUOUS
 10
0.010398
 20
4.369083
  0
SEQEND
  8
0
  0
POLYLINE
  8
EBENE_1
 62
    39
  6
CONTINUOUS
 66
     1
 40
0.003000
 41
0.003000
  0
VERTEX
  8
EBENE_1
 62
    39
  6
CONTINUOUS
 10
0.132055
 20
4.394768
  0
VERTEX
  8
EBENE_1
 62
    39
  6
CONTINUOUS
 10
0.137738
 20
4.396394
  0
VERTEX
  8
EBENE_1
 62
    39
  6
CONTINUOUS
 10
0.141920
 20
4.400574
  0
VERTEX
  8
EBENE_1
 62
    39
  6
CONTINUOUS
 10
0.143547
 20
4.406256
  0
SEQEND
  8
0
  0
POLYLINE
  8
EBENE_1
 62
    39
  6
CONTINUOUS
 66
     1
 40
0.003000
 41
0.003000
  0
VERTEX
  8
EBENE_1
 62
    39
  6
CONTINUOUS
 10
0.143547
 20
4.406256
  0
VERTEX
  8
EBENE_1
 62
    39
  6
CONTINUOUS
 10
0.141920
 20
4.412240
  0
VERTEX
  8
EBENE_1
 62
    39
  6
CONTINUOUS
 10
0.137738
 20
4.416271
  0
VERTEX
  8
EBENE_1
 62
    39
  6
CONTINUOUS
 10
0.132055
 20
4.417748
  0
SEQEND
  8
0
  0
POLYLINE
  8
EBENE_1
 62
    39
  6
CONTINUOUS
 66
     1
 40
0.003000
 41
0.003000
  0
VERTEX
  8
EBENE_1
 62
    39
  6
CONTINUOUS
 10
0.132055
 20
4.417748
  0
VERTEX
  8
EBENE_1
 62
    39
  6
CONTINUOUS
 10
0.126373
 20
4.416271
  0
VERTEX
  8
EBENE_1
 62
    39
  6
CONTINUOUS
 10
0.122194
 20
4.412240
  0
VERTEX
  8
EBENE_1
 62
    39
  6
CONTINUOUS
 10
0.120567
 20
4.406256
  0
SEQEND
  8
0
  0
POLYLINE
  8
EBENE_1
 62
    39
  6
CONTINUOUS
 66
     1
 40
0.003000
 41
0.003000
  0
VERTEX
  8
EBENE_1
 62
    39
  6
CONTINUOUS
 10
0.120567
 20
4.406256
  0
VERTEX
  8
EBENE_1
 62
    39
  6
CONTINUOUS
 10
0.122194
 20
4.400574
  0
VERTEX
  8
EBENE_1
 62
    39
  6
CONTINUOUS
 10
0.126373
 20
4.396394
  0
VERTEX
  8
EBENE_1
 62
    39
  6
CONTINUOUS
 10
0.132055
 20
4.394768
  0
SEQEND
  8
0
  0
POLYLINE
  8
EBENE_1
 62
    39
  6
CONTINUOUS
 66
     1
 40
0.003000
 41
0.003000
  0
VERTEX
  8
EBENE_1
 62
    39
  6
CONTINUOUS
 10
0.251012
 20
4.349484
  0
VERTEX
  8
EBENE_1
 62
    39
  6
CONTINUOUS
 10
0.256695
 20
4.350960
  0
VERTEX
  8
EBENE_1
 62
    39
  6
CONTINUOUS
 10
0.260876
 20
4.354990
  0
VERTEX
  8
EBENE_1
 62
    39
  6
CONTINUOUS
 10
0.262504
 20
4.360972
  0
SEQEND
  8
0
  0
POLYLINE
  8
EBENE_1
 62
    39
  6
CONTINUOUS
 66
     1
 40
0.003000
 41
0.003000
  0
VERTEX
  8
EBENE_1
 62
    39
  6
CONTINUOUS
 10
0.262504
 20
4.360972
  0
VERTEX
  8
EBENE_1
 62
    39
  6
CONTINUOUS
 10
0.260876
 20
4.366655
  0
VERTEX
  8
EBENE_1
 62
    39
  6
CONTINUOUS
 10
0.256695
 20
4.370837
  0
VERTEX
  8
EBENE_1
 62
    39
  6
CONTINUOUS
 10
0.251012
 20
4.372465
  0
SEQEND
  8
0
  0
POLYLINE
  8
EBENE_1
 62
    39
  6
CONTINUOUS
 66
     1
 40
0.003000
 41
0.003000
  0
VERTEX
  8
EBENE_1
 62
    39
  6
CONTINUOUS
 10
0.251012
 20
4.372465
  0
VERTEX
  8
EBENE_1
 62
    39
  6
CONTINUOUS
 10
0.245028
 20
4.370837
  0
VERTEX
  8
EBENE_1
 62
    39
  6
CONTINUOUS
 10
0.240997
 20
4.366655
  0
VERTEX
  8
EBENE_1
 62
    39
  6
CONTINUOUS
 10
0.239520
 20
4.360972
  0
SEQEND
  8
0
  0
POLYLINE
  8
EBENE_1
 62
    39
  6
CONTINUOUS
 66
     1
 40
0.003000
 41
0.003000
  0
VERTEX
  8
EBENE_1
 62
    39
  6
CONTINUOUS
 10
0.239520
 20
4.360972
  0
VERTEX
  8
EBENE_1
 62
    39
  6
CONTINUOUS
 10
0.240997
 20
4.354990
  0
VERTEX
  8
EBENE_1
 62
    39
  6
CONTINUOUS
 10
0.245028
 20
4.350960
  0
VERTEX
  8
EBENE_1
 62
    39
  6
CONTINUOUS
 10
0.251012
 20
4.349484
  0
SEQEND
  8
0
  0
POLYLINE
  8
EBENE_1
 62
    39
  6
CONTINUOUS
 66
     1
 40
0.003000
 41
0.003000
 70
     1
  0
VERTEX
  8
EBENE_1
 62
    39
  6
CONTINUOUS
 10
1.285362
 20
2.235071
  0
VERTEX
  8
EBENE_1
 62
    39
  6
CONTINUOUS
 10
1.285362
 20
2.474252
  0
VERTEX
  8
EBENE_1
 62
    39
  6
CONTINUOUS
 10
-0.770539
 20
2.474252
  0
VERTEX
  8
EBENE_1
 62
    39
  6
CONTINUOUS
 10
-0.770539
 20
2.235071
  0
SEQEND
  8
0
  0
TEXT
  8
EBENE_1
 62
    39
 10
-0.770539
 20
2.270240
 40
0.186875
  1
Endort als Doppelort 
 41
1.000000
  7
SN0
 71
     0
 72
     5
 11
1.345524
 21
2.270240
  0
ENDSEC
  0
EOF
