  0
SECTION
  2
HEADER
  9
$ACADVER
  1
AC1006
  9
$EXTMIN
 10
-1.540063
 20
-1.092445
  9
$EXTMAX
 10
1.557736
 20
1.079303
  9
$LTSCALE
 40
0.000394
  9
$PDMODE
 70
    35
  9
$PDSIZE
 40
0.000315
  0
ENDSEC
  0
SECTION
  2
TABLES
  0
TABLE
  2
LTYPE
 70
     9
  0
LTYPE
  2
CONTINUOUS
 70
    64
  3
Solid line
 72
    65
 73
     0
 40
0.000000
  0
LTYPE
  2
DASHED
 70
    64
  3
__ __ __ __ __ __ __ __ __ __ __ __ __ __ __
 72
    65
 73
     2
 40
0.000003
 49
0.000002
 49
-0.000001
  0
LTYPE
  2
HIDDEN
 70
    64
  3
 _ _ _ _ _ _ _ _ _ _ _ _ _ _ _ _ _ _ _ _ _ _
 72
    65
 73
     2
 40
0.000001
 49
0.000001
 49
-0.000000
  0
LTYPE
  2
CENTER
 70
    64
  3
____ _ ____ _ ____ _ ____ _ ____ _ ____ _ ____
 72
    65
 73
     4
 40
0.000008
 49
0.000005
 49
-0.000001
 49
0.000001
 49
-0.000001
  0
LTYPE
  2
PHANTOM
 70
    64
  3
_____ _ _ _____ _ _ _____ _ _ _____ _ _ ____
 72
    65
 73
     6
 40
0.000010
 49
0.000005
 49
-0.000001
 49
0.000001
 49
-0.000001
 49
0.000001
 49
-0.000001
  0
LTYPE
  2
DOT
 70
    64
  3
...............................................
 72
    65
 73
     2
 40
0.000001
 49
0.000000
 49
-0.000001
  0
LTYPE
  2
DASHDOT
 70
    64
  3
__ . __ . __ . __ . __ . __ . __ . __ . __ . __
 72
    65
 73
     4
 40
0.000004
 49
0.000002
 49
-0.000001
 49
0.000000
 49
-0.000001
  0
LTYPE
  2
BORDER
 70
    64
  3
__ __ . __ __ . __ __ . __ __ . __ __ . __ __
 72
    65
 73
     6
 40
0.000007
 49
0.000002
 49
-0.000001
 49
0.000002
 49
-0.000001
 49
0.000000
 49
-0.000001
  0
LTYPE
  2
DIVIDE
 70
    64
  3
__ . . __ . . __ . . __ . . __ . . __ . . __
 72
    65
 73
     6
 40
0.000005
 49
0.000002
 49
-0.000001
 49
0.000000
 49
-0.000001
 49
0.000000
 49
-0.000001
  0
LTYPE
  2
DOTDOT
 70
    64
  3
 . .  . .  . .  . .  . .  . . 
 72
    65
 73
     5
 40
0.000002
 49
-0.000001
 49
0.000000
 49
-0.000001
 49
0.000000
 49
-0.000001
  0
ENDTAB
  0
TABLE
  2
STYLE
 70
     2
  0
STYLE
 70
     0
  2
SN0
 40
0.000000
 41
0.000004
 50
0.000000
 71
     0
 42
0.000000
  3
SCRIPTS
  0
STYLE
 70
    68
  2
SV0
 40
0.000000
 41
0.000004
 50
0.000000
 71
     0
 42
0.000000
  3
SCRIPTS
  0
ENDTAB
  0
TABLE
  2
LAYER
 70
     3
  0
LAYER
  2
FOREGROUND
 70
    64
 62
     7
  6
CONTINUOUS
  0
LAYER
  2
BACKGROUND
 70
    65
 62
    -7
  6
CONTINUOUS
  0
LAYER
  2
EBENE_1
 70
    64
 62
     7
  6
CONTINUOUS
  0
ENDTAB
  0
ENDSEC
  0
SECTION
  2
ENTITIES
  0
POLYLINE
  8
EBENE_1
 62
    39
  6
CONTINUOUS
 66
     1
 40
0.013890
 41
0.013890
 70
     1
  0
VERTEX
  8
EBENE_1
 62
    39
  6
CONTINUOUS
 10
-0.348945
 20
-1.085500
  0
VERTEX
  8
EBENE_1
 62
    39
  6
CONTINUOUS
 10
-0.348945
 20
-0.833551
  0
VERTEX
  8
EBENE_1
 62
    39
  6
CONTINUOUS
 10
-1.533118
 20
-0.833551
  0
VERTEX
  8
EBENE_1
 62
    39
  6
CONTINUOUS
 10
-1.533118
 20
-1.085500
  0
SEQEND
  8
0
  0
TEXT
  8
EBENE_1
 62
    39
 10
-1.533118
 20
-1.049177
 40
0.197505
  1
Wandkehle 
 41
1.000000
  7
SN0
 71
     0
 72
     5
 11
-0.275721
 21
-1.049177
  0
POLYLINE
  8
EBENE_1
 62
    39
  6
CONTINUOUS
 66
     1
 40
0.003000
 41
0.003000
 70
     1
  0
VERTEX
  8
EBENE_1
 62
    39
  6
CONTINUOUS
 10
0.389969
 20
-0.306240
  0
VERTEX
  8
EBENE_1
 62
    39
  6
CONTINUOUS
 10
0.252846
 20
-0.711185
  0
VERTEX
  8
EBENE_1
 62
    39
  6
CONTINUOUS
 10
0.891331
 20
-0.704760
  0
VERTEX
  8
EBENE_1
 62
    39
  6
CONTINUOUS
 10
0.891331
 20
-0.299815
  0
VERTEX
  8
EBENE_1
 62
    39
  6
CONTINUOUS
 10
0.890353
 20
-0.273383
  0
VERTEX
  8
EBENE_1
 62
    39
  6
CONTINUOUS
 10
0.890604
 20
-0.249025
  0
VERTEX
  8
EBENE_1
 62
    39
  6
CONTINUOUS
 10
0.891144
 20
-0.227020
  0
VERTEX
  8
EBENE_1
 62
    39
  6
CONTINUOUS
 10
0.891031
 20
-0.207642
  0
VERTEX
  8
EBENE_1
 62
    39
  6
CONTINUOUS
 10
0.889326
 20
-0.191168
  0
VERTEX
  8
EBENE_1
 62
    39
  6
CONTINUOUS
 10
0.885087
 20
-0.177874
  0
VERTEX
  8
EBENE_1
 62
    39
  6
CONTINUOUS
 10
0.877374
 20
-0.168036
  0
VERTEX
  8
EBENE_1
 62
    39
  6
CONTINUOUS
 10
0.865246
 20
-0.161931
  0
VERTEX
  8
EBENE_1
 62
    39
  6
CONTINUOUS
 10
0.847764
 20
-0.159835
  0
VERTEX
  8
EBENE_1
 62
    39
  6
CONTINUOUS
 10
0.528524
 20
-0.225539
  0
VERTEX
  8
EBENE_1
 62
    39
  6
CONTINUOUS
 10
0.495276
 20
-0.231656
  0
VERTEX
  8
EBENE_1
 62
    39
  6
CONTINUOUS
 10
0.469685
 20
-0.239074
  0
VERTEX
  8
EBENE_1
 62
    39
  6
CONTINUOUS
 10
0.450497
 20
-0.247470
  0
VERTEX
  8
EBENE_1
 62
    39
  6
CONTINUOUS
 10
0.436455
 20
-0.256517
  0
VERTEX
  8
EBENE_1
 62
    39
  6
CONTINUOUS
 10
0.426304
 20
-0.265890
  0
VERTEX
  8
EBENE_1
 62
    39
  6
CONTINUOUS
 10
0.418788
 20
-0.275262
  0
VERTEX
  8
EBENE_1
 62
    39
  6
CONTINUOUS
 10
0.412652
 20
-0.284309
  0
VERTEX
  8
EBENE_1
 62
    39
  6
CONTINUOUS
 10
0.406641
 20
-0.292705
  0
VERTEX
  8
EBENE_1
 62
    39
  6
CONTINUOUS
 10
0.399498
 20
-0.300124
  0
SEQEND
  8
0
  0
POLYLINE
  8
EBENE_1
 62
    39
  6
CONTINUOUS
 66
     1
 40
0.003000
 41
0.003000
 70
     1
  0
VERTEX
  8
EBENE_1
 62
    39
  6
CONTINUOUS
 10
0.394969
 20
-0.309098
  0
VERTEX
  8
EBENE_1
 62
    39
  6
CONTINUOUS
 10
0.261417
 20
-0.704043
  0
VERTEX
  8
EBENE_1
 62
    39
  6
CONTINUOUS
 10
0.883476
 20
-0.698331
  0
VERTEX
  8
EBENE_1
 62
    39
  6
CONTINUOUS
 10
0.883476
 20
-0.303386
  0
VERTEX
  8
EBENE_1
 62
    39
  6
CONTINUOUS
 10
0.882477
 20
-0.277428
  0
VERTEX
  8
EBENE_1
 62
    39
  6
CONTINUOUS
 10
0.882683
 20
-0.253533
  0
VERTEX
  8
EBENE_1
 62
    39
  6
CONTINUOUS
 10
0.883183
 20
-0.231966
  0
VERTEX
  8
EBENE_1
 62
    39
  6
CONTINUOUS
 10
0.883067
 20
-0.212991
  0
VERTEX
  8
EBENE_1
 62
    39
  6
CONTINUOUS
 10
0.881422
 20
-0.196873
  0
VERTEX
  8
EBENE_1
 62
    39
  6
CONTINUOUS
 10
0.877338
 20
-0.183877
  0
VERTEX
  8
EBENE_1
 62
    39
  6
CONTINUOUS
 10
0.869903
 20
-0.174266
  0
VERTEX
  8
EBENE_1
 62
    39
  6
CONTINUOUS
 10
0.858207
 20
-0.168305
  0
VERTEX
  8
EBENE_1
 62
    39
  6
CONTINUOUS
 10
0.841339
 20
-0.166260
  0
VERTEX
  8
EBENE_1
 62
    39
  6
CONTINUOUS
 10
0.529953
 20
-0.230539
  0
VERTEX
  8
EBENE_1
 62
    39
  6
CONTINUOUS
 10
0.497479
 20
-0.236615
  0
VERTEX
  8
EBENE_1
 62
    39
  6
CONTINUOUS
 10
0.472513
 20
-0.243920
  0
VERTEX
  8
EBENE_1
 62
    39
  6
CONTINUOUS
 10
0.453821
 20
-0.252142
  0
VERTEX
  8
EBENE_1
 62
    39
  6
CONTINUOUS
 10
0.440169
 20
-0.260968
  0
VERTEX
  8
EBENE_1
 62
    39
  6
CONTINUOUS
 10
0.430321
 20
-0.270086
  0
VERTEX
  8
EBENE_1
 62
    39
  6
CONTINUOUS
 10
0.423045
 20
-0.279182
  0
VERTEX
  8
EBENE_1
 62
    39
  6
CONTINUOUS
 10
0.417106
 20
-0.287945
  0
VERTEX
  8
EBENE_1
 62
    39
  6
CONTINUOUS
 10
0.411270
 20
-0.296060
  0
VERTEX
  8
EBENE_1
 62
    39
  6
CONTINUOUS
 10
0.404302
 20
-0.303215
  0
SEQEND
  8
0
  0
POLYLINE
  8
EBENE_1
 62
    39
  6
CONTINUOUS
 66
     1
 40
0.003000
 41
0.003000
  0
VERTEX
  8
EBENE_1
 62
    39
  6
CONTINUOUS
 10
0.063587
 20
-0.380516
  0
VERTEX
  8
EBENE_1
 62
    39
  6
CONTINUOUS
 10
-0.034969
 20
-0.719043
  0
VERTEX
  8
EBENE_1
 62
    39
  6
CONTINUOUS
 10
0.253559
 20
-0.716898
  0
SEQEND
  8
0
  0
POLYLINE
  8
EBENE_1
 62
    39
  6
CONTINUOUS
 66
     1
 40
0.003000
 41
0.003000
  0
VERTEX
  8
EBENE_1
 62
    39
  6
CONTINUOUS
 10
0.253559
 20
-0.716898
  0
VERTEX
  8
EBENE_1
 62
    39
  6
CONTINUOUS
 10
0.263171
 20
-0.716078
  0
VERTEX
  8
EBENE_1
 62
    39
  6
CONTINUOUS
 10
0.273401
 20
-0.714282
  0
VERTEX
  8
EBENE_1
 62
    39
  6
CONTINUOUS
 10
0.284194
 20
-0.711529
  0
VERTEX
  8
EBENE_1
 62
    39
  6
CONTINUOUS
 10
0.295496
 20
-0.707836
  0
VERTEX
  8
EBENE_1
 62
    39
  6
CONTINUOUS
 10
0.307252
 20
-0.703223
  0
VERTEX
  8
EBENE_1
 62
    39
  6
CONTINUOUS
 10
0.319408
 20
-0.697709
  0
VERTEX
  8
EBENE_1
 62
    39
  6
CONTINUOUS
 10
0.331907
 20
-0.691312
  0
VERTEX
  8
EBENE_1
 62
    39
  6
CONTINUOUS
 10
0.344697
 20
-0.684051
  0
VERTEX
  8
EBENE_1
 62
    39
  6
CONTINUOUS
 10
0.357721
 20
-0.675946
  0
VERTEX
  8
EBENE_1
 62
    39
  6
CONTINUOUS
 10
0.370926
 20
-0.667015
  0
VERTEX
  8
EBENE_1
 62
    39
  6
CONTINUOUS
 10
0.384256
 20
-0.657276
  0
VERTEX
  8
EBENE_1
 62
    39
  6
CONTINUOUS
 10
0.397657
 20
-0.646750
  0
VERTEX
  8
EBENE_1
 62
    39
  6
CONTINUOUS
 10
0.411075
 20
-0.635454
  0
VERTEX
  8
EBENE_1
 62
    39
  6
CONTINUOUS
 10
0.424453
 20
-0.623407
  0
VERTEX
  8
EBENE_1
 62
    39
  6
CONTINUOUS
 10
0.437739
 20
-0.610629
  0
VERTEX
  8
EBENE_1
 62
    39
  6
CONTINUOUS
 10
0.450876
 20
-0.597137
  0
VERTEX
  8
EBENE_1
 62
    39
  6
CONTINUOUS
 10
0.463810
 20
-0.582952
  0
VERTEX
  8
EBENE_1
 62
    39
  6
CONTINUOUS
 10
0.476487
 20
-0.568091
  0
VERTEX
  8
EBENE_1
 62
    39
  6
CONTINUOUS
 10
0.488851
 20
-0.552574
  0
VERTEX
  8
EBENE_1
 62
    39
  6
CONTINUOUS
 10
0.500848
 20
-0.536419
  0
VERTEX
  8
EBENE_1
 62
    39
  6
CONTINUOUS
 10
0.512424
 20
-0.519645
  0
VERTEX
  8
EBENE_1
 62
    39
  6
CONTINUOUS
 10
0.523523
 20
-0.502272
  0
VERTEX
  8
EBENE_1
 62
    39
  6
CONTINUOUS
 10
0.534091
 20
-0.484318
  0
VERTEX
  8
EBENE_1
 62
    39
  6
CONTINUOUS
 10
0.544073
 20
-0.465801
  0
VERTEX
  8
EBENE_1
 62
    39
  6
CONTINUOUS
 10
0.553414
 20
-0.446741
  0
VERTEX
  8
EBENE_1
 62
    39
  6
CONTINUOUS
 10
0.562060
 20
-0.427157
  0
VERTEX
  8
EBENE_1
 62
    39
  6
CONTINUOUS
 10
0.569956
 20
-0.407066
  0
VERTEX
  8
EBENE_1
 62
    39
  6
CONTINUOUS
 10
0.577047
 20
-0.386489
  0
VERTEX
  8
EBENE_1
 62
    39
  6
CONTINUOUS
 10
0.583278
 20
-0.365444
  0
VERTEX
  8
EBENE_1
 62
    39
  6
CONTINUOUS
 10
0.588595
 20
-0.343950
  0
VERTEX
  8
EBENE_1
 62
    39
  6
CONTINUOUS
 10
0.592942
 20
-0.322025
  0
VERTEX
  8
EBENE_1
 62
    39
  6
CONTINUOUS
 10
0.596266
 20
-0.299689
  0
VERTEX
  8
EBENE_1
 62
    39
  6
CONTINUOUS
 10
0.598512
 20
-0.276961
  0
SEQEND
  8
0
  0
POLYLINE
  8
EBENE_1
 62
    39
  6
CONTINUOUS
 66
     1
 40
0.003000
 41
0.003000
  0
VERTEX
  8
EBENE_1
 62
    39
  6
CONTINUOUS
 10
0.598512
 20
-0.276961
  0
VERTEX
  8
EBENE_1
 62
    39
  6
CONTINUOUS
 10
0.595230
 20
-0.255402
  0
VERTEX
  8
EBENE_1
 62
    39
  6
CONTINUOUS
 10
0.589051
 20
-0.240588
  0
VERTEX
  8
EBENE_1
 62
    39
  6
CONTINUOUS
 10
0.580335
 20
-0.231465
  0
VERTEX
  8
EBENE_1
 62
    39
  6
CONTINUOUS
 10
0.569442
 20
-0.226978
  0
VERTEX
  8
EBENE_1
 62
    39
  6
CONTINUOUS
 10
0.556733
 20
-0.226074
  0
VERTEX
  8
EBENE_1
 62
    39
  6
CONTINUOUS
 10
0.542566
 20
-0.227698
  0
VERTEX
  8
EBENE_1
 62
    39
  6
CONTINUOUS
 10
0.527303
 20
-0.230796
  0
VERTEX
  8
EBENE_1
 62
    39
  6
CONTINUOUS
 10
0.511303
 20
-0.234314
  0
VERTEX
  8
EBENE_1
 62
    39
  6
CONTINUOUS
 10
0.494926
 20
-0.237198
  0
VERTEX
  8
EBENE_1
 62
    39
  6
CONTINUOUS
 10
0.478531
 20
-0.238394
  0
SEQEND
  8
0
  0
POLYLINE
  8
EBENE_1
 62
    39
  6
CONTINUOUS
 66
     1
 40
0.003000
 41
0.003000
  0
VERTEX
  8
EBENE_1
 62
    39
  6
CONTINUOUS
 10
0.478531
 20
-0.238394
  0
VERTEX
  8
EBENE_1
 62
    39
  6
CONTINUOUS
 10
0.152862
 20
-0.316240
  0
SEQEND
  8
0
  0
POLYLINE
  8
EBENE_1
 62
    39
  6
CONTINUOUS
 66
     1
 40
0.003000
 41
0.003000
  0
VERTEX
  8
EBENE_1
 62
    39
  6
CONTINUOUS
 10
0.152862
 20
-0.316240
  0
VERTEX
  8
EBENE_1
 62
    39
  6
CONTINUOUS
 10
0.123087
 20
-0.318621
  0
VERTEX
  8
EBENE_1
 62
    39
  6
CONTINUOUS
 10
0.103688
 20
-0.325287
  0
VERTEX
  8
EBENE_1
 62
    39
  6
CONTINUOUS
 10
0.091351
 20
-0.335523
  0
VERTEX
  8
EBENE_1
 62
    39
  6
CONTINUOUS
 10
0.082764
 20
-0.348616
  0
VERTEX
  8
EBENE_1
 62
    39
  6
CONTINUOUS
 10
0.074613
 20
-0.363852
  0
VERTEX
  8
EBENE_1
 62
    39
  6
CONTINUOUS
 10
0.063587
 20
-0.380516
  0
SEQEND
  8
0
  0
POLYLINE
  8
EBENE_1
 62
    39
  6
CONTINUOUS
 66
     1
 40
0.003000
 41
0.003000
 70
     1
  0
VERTEX
  8
EBENE_1
 62
    39
  6
CONTINUOUS
 10
0.063587
 20
-0.378374
  0
VERTEX
  8
EBENE_1
 62
    39
  6
CONTINUOUS
 10
-0.034252
 20
-0.714756
  0
VERTEX
  8
EBENE_1
 62
    39
  6
CONTINUOUS
 10
0.249276
 20
-0.712614
  0
VERTEX
  8
EBENE_1
 62
    39
  6
CONTINUOUS
 10
0.259121
 20
-0.711762
  0
VERTEX
  8
EBENE_1
 62
    39
  6
CONTINUOUS
 10
0.269602
 20
-0.709888
  0
VERTEX
  8
EBENE_1
 62
    39
  6
CONTINUOUS
 10
0.280660
 20
-0.707013
  0
VERTEX
  8
EBENE_1
 62
    39
  6
CONTINUOUS
 10
0.292237
 20
-0.703157
  0
VERTEX
  8
EBENE_1
 62
    39
  6
CONTINUOUS
 10
0.304273
 20
-0.698340
  0
VERTEX
  8
EBENE_1
 62
    39
  6
CONTINUOUS
 10
0.316711
 20
-0.692584
  0
VERTEX
  8
EBENE_1
 62
    39
  6
CONTINUOUS
 10
0.329491
 20
-0.685908
  0
VERTEX
  8
EBENE_1
 62
    39
  6
CONTINUOUS
 10
0.342554
 20
-0.678333
  0
VERTEX
  8
EBENE_1
 62
    39
  6
CONTINUOUS
 10
0.355843
 20
-0.669879
  0
VERTEX
  8
EBENE_1
 62
    39
  6
CONTINUOUS
 10
0.369298
 20
-0.660567
  0
VERTEX
  8
EBENE_1
 62
    39
  6
CONTINUOUS
 10
0.382860
 20
-0.650417
  0
VERTEX
  8
EBENE_1
 62
    39
  6
CONTINUOUS
 10
0.396471
 20
-0.639449
  0
VERTEX
  8
EBENE_1
 62
    39
  6
CONTINUOUS
 10
0.410072
 20
-0.627684
  0
VERTEX
  8
EBENE_1
 62
    39
  6
CONTINUOUS
 10
0.423605
 20
-0.615142
  0
VERTEX
  8
EBENE_1
 62
    39
  6
CONTINUOUS
 10
0.437010
 20
-0.601844
  0
VERTEX
  8
EBENE_1
 62
    39
  6
CONTINUOUS
 10
0.450229
 20
-0.587810
  0
VERTEX
  8
EBENE_1
 62
    39
  6
CONTINUOUS
 10
0.463203
 20
-0.573060
  0
VERTEX
  8
EBENE_1
 62
    39
  6
CONTINUOUS
 10
0.475874
 20
-0.557615
  0
VERTEX
  8
EBENE_1
 62
    39
  6
CONTINUOUS
 10
0.488182
 20
-0.541495
  0
VERTEX
  8
EBENE_1
 62
    39
  6
CONTINUOUS
 10
0.500070
 20
-0.524721
  0
VERTEX
  8
EBENE_1
 62
    39
  6
CONTINUOUS
 10
0.511478
 20
-0.507313
  0
VERTEX
  8
EBENE_1
 62
    39
  6
CONTINUOUS
 10
0.522348
 20
-0.489292
  0
VERTEX
  8
EBENE_1
 62
    39
  6
CONTINUOUS
 10
0.532620
 20
-0.470677
  0
VERTEX
  8
EBENE_1
 62
    39
  6
CONTINUOUS
 10
0.542237
 20
-0.451490
  0
VERTEX
  8
EBENE_1
 62
    39
  6
CONTINUOUS
 10
0.551139
 20
-0.431750
  0
VERTEX
  8
EBENE_1
 62
    39
  6
CONTINUOUS
 10
0.559268
 20
-0.411478
  0
VERTEX
  8
EBENE_1
 62
    39
  6
CONTINUOUS
 10
0.566565
 20
-0.390695
  0
VERTEX
  8
EBENE_1
 62
    39
  6
CONTINUOUS
 10
0.572971
 20
-0.369420
  0
VERTEX
  8
EBENE_1
 62
    39
  6
CONTINUOUS
 10
0.578428
 20
-0.347675
  0
VERTEX
  8
EBENE_1
 62
    39
  6
CONTINUOUS
 10
0.582877
 20
-0.325479
  0
VERTEX
  8
EBENE_1
 62
    39
  6
CONTINUOUS
 10
0.586259
 20
-0.302854
  0
VERTEX
  8
EBENE_1
 62
    39
  6
CONTINUOUS
 10
0.588516
 20
-0.279819
  0
VERTEX
  8
EBENE_1
 62
    39
  6
CONTINUOUS
 10
0.585548
 20
-0.258900
  0
VERTEX
  8
EBENE_1
 62
    39
  6
CONTINUOUS
 10
0.579859
 20
-0.244714
  0
VERTEX
  8
EBENE_1
 62
    39
  6
CONTINUOUS
 10
0.571771
 20
-0.236193
  0
VERTEX
  8
EBENE_1
 62
    39
  6
CONTINUOUS
 10
0.561604
 20
-0.232269
  0
VERTEX
  8
EBENE_1
 62
    39
  6
CONTINUOUS
 10
0.549681
 20
-0.231877
  0
VERTEX
  8
EBENE_1
 62
    39
  6
CONTINUOUS
 10
0.536322
 20
-0.233949
  0
VERTEX
  8
EBENE_1
 62
    39
  6
CONTINUOUS
 10
0.521849
 20
-0.237417
  0
VERTEX
  8
EBENE_1
 62
    39
  6
CONTINUOUS
 10
0.506583
 20
-0.241216
  0
VERTEX
  8
EBENE_1
 62
    39
  6
CONTINUOUS
 10
0.490847
 20
-0.244278
  0
VERTEX
  8
EBENE_1
 62
    39
  6
CONTINUOUS
 10
0.474961
 20
-0.245535
  0
VERTEX
  8
EBENE_1
 62
    39
  6
CONTINUOUS
 10
0.145717
 20
-0.313386
  0
VERTEX
  8
EBENE_1
 62
    39
  6
CONTINUOUS
 10
0.113645
 20
-0.321522
  0
VERTEX
  8
EBENE_1
 62
    39
  6
CONTINUOUS
 10
0.091254
 20
-0.335153
  0
VERTEX
  8
EBENE_1
 62
    39
  6
CONTINUOUS
 10
0.076798
 20
-0.350968
  0
VERTEX
  8
EBENE_1
 62
    39
  6
CONTINUOUS
 10
0.068532
 20
-0.365651
  0
VERTEX
  8
EBENE_1
 62
    39
  6
CONTINUOUS
 10
0.064710
 20
-0.375891
  0
SEQEND
  8
0
  0
POLYLINE
  8
EBENE_1
 62
    39
  6
CONTINUOUS
 66
     1
 40
0.003000
 41
0.003000
  0
VERTEX
  8
EBENE_1
 62
    39
  6
CONTINUOUS
 10
0.219280
 20
-0.322669
  0
VERTEX
  8
EBENE_1
 62
    39
  6
CONTINUOUS
 10
0.215073
 20
-0.324837
  0
VERTEX
  8
EBENE_1
 62
    39
  6
CONTINUOUS
 10
0.212771
 20
-0.329069
  0
VERTEX
  8
EBENE_1
 62
    39
  6
CONTINUOUS
 10
0.212850
 20
-0.334094
  0
SEQEND
  8
0
  0
POLYLINE
  8
EBENE_1
 62
    39
  6
CONTINUOUS
 66
     1
 40
0.003000
 41
0.003000
  0
VERTEX
  8
EBENE_1
 62
    39
  6
CONTINUOUS
 10
0.212850
 20
-0.334094
  0
VERTEX
  8
EBENE_1
 62
    39
  6
CONTINUOUS
 10
0.215338
 20
-0.338301
  0
VERTEX
  8
EBENE_1
 62
    39
  6
CONTINUOUS
 10
0.219412
 20
-0.340603
  0
VERTEX
  8
EBENE_1
 62
    39
  6
CONTINUOUS
 10
0.224280
 20
-0.340524
  0
SEQEND
  8
0
  0
POLYLINE
  8
EBENE_1
 62
    39
  6
CONTINUOUS
 66
     1
 40
0.003000
 41
0.003000
  0
VERTEX
  8
EBENE_1
 62
    39
  6
CONTINUOUS
 10
0.224280
 20
-0.340524
  0
VERTEX
  8
EBENE_1
 62
    39
  6
CONTINUOUS
 10
0.228669
 20
-0.338355
  0
VERTEX
  8
EBENE_1
 62
    39
  6
CONTINUOUS
 10
0.231315
 20
-0.334121
  0
VERTEX
  8
EBENE_1
 62
    39
  6
CONTINUOUS
 10
0.231421
 20
-0.329094
  0
SEQEND
  8
0
  0
POLYLINE
  8
EBENE_1
 62
    39
  6
CONTINUOUS
 66
     1
 40
0.003000
 41
0.003000
  0
VERTEX
  8
EBENE_1
 62
    39
  6
CONTINUOUS
 10
0.231421
 20
-0.329094
  0
VERTEX
  8
EBENE_1
 62
    39
  6
CONTINUOUS
 10
0.228749
 20
-0.324891
  0
VERTEX
  8
EBENE_1
 62
    39
  6
CONTINUOUS
 10
0.224332
 20
-0.322590
  0
VERTEX
  8
EBENE_1
 62
    39
  6
CONTINUOUS
 10
0.219280
 20
-0.322669
  0
SEQEND
  8
0
  0
POLYLINE
  8
EBENE_1
 62
    39
  6
CONTINUOUS
 66
     1
 40
0.003000
 41
0.003000
  0
VERTEX
  8
EBENE_1
 62
    39
  6
CONTINUOUS
 10
0.099295
 20
-0.381945
  0
VERTEX
  8
EBENE_1
 62
    39
  6
CONTINUOUS
 10
0.094904
 20
-0.384115
  0
VERTEX
  8
EBENE_1
 62
    39
  6
CONTINUOUS
 10
0.092259
 20
-0.388348
  0
VERTEX
  8
EBENE_1
 62
    39
  6
CONTINUOUS
 10
0.092154
 20
-0.393374
  0
SEQEND
  8
0
  0
POLYLINE
  8
EBENE_1
 62
    39
  6
CONTINUOUS
 66
     1
 40
0.003000
 41
0.003000
  0
VERTEX
  8
EBENE_1
 62
    39
  6
CONTINUOUS
 10
0.092154
 20
-0.393374
  0
VERTEX
  8
EBENE_1
 62
    39
  6
CONTINUOUS
 10
0.094825
 20
-0.397604
  0
VERTEX
  8
EBENE_1
 62
    39
  6
CONTINUOUS
 10
0.099243
 20
-0.400091
  0
VERTEX
  8
EBENE_1
 62
    39
  6
CONTINUOUS
 10
0.104295
 20
-0.400516
  0
SEQEND
  8
0
  0
POLYLINE
  8
EBENE_1
 62
    39
  6
CONTINUOUS
 66
     1
 40
0.003000
 41
0.003000
  0
VERTEX
  8
EBENE_1
 62
    39
  6
CONTINUOUS
 10
0.104295
 20
-0.400516
  0
VERTEX
  8
EBENE_1
 62
    39
  6
CONTINUOUS
 10
0.108501
 20
-0.397844
  0
VERTEX
  8
EBENE_1
 62
    39
  6
CONTINUOUS
 10
0.110802
 20
-0.393427
  0
VERTEX
  8
EBENE_1
 62
    39
  6
CONTINUOUS
 10
0.110724
 20
-0.388374
  0
SEQEND
  8
0
  0
POLYLINE
  8
EBENE_1
 62
    39
  6
CONTINUOUS
 66
     1
 40
0.003000
 41
0.003000
  0
VERTEX
  8
EBENE_1
 62
    39
  6
CONTINUOUS
 10
0.110724
 20
-0.388374
  0
VERTEX
  8
EBENE_1
 62
    39
  6
CONTINUOUS
 10
0.108237
 20
-0.384167
  0
VERTEX
  8
EBENE_1
 62
    39
  6
CONTINUOUS
 10
0.104163
 20
-0.381865
  0
VERTEX
  8
EBENE_1
 62
    39
  6
CONTINUOUS
 10
0.099295
 20
-0.381945
  0
SEQEND
  8
0
  0
POLYLINE
  8
EBENE_1
 62
    39
  6
CONTINUOUS
 66
     1
 40
0.003000
 41
0.003000
  0
VERTEX
  8
EBENE_1
 62
    39
  6
CONTINUOUS
 10
-0.248508
 20
-0.454791
  0
VERTEX
  8
EBENE_1
 62
    39
  6
CONTINUOUS
 10
-0.328496
 20
-0.724039
  0
VERTEX
  8
EBENE_1
 62
    39
  6
CONTINUOUS
 10
-0.040681
 20
-0.721898
  0
SEQEND
  8
0
  0
POLYLINE
  8
EBENE_1
 62
    39
  6
CONTINUOUS
 66
     1
 40
0.003000
 41
0.003000
  0
VERTEX
  8
EBENE_1
 62
    39
  6
CONTINUOUS
 10
-0.040681
 20
-0.721898
  0
VERTEX
  8
EBENE_1
 62
    39
  6
CONTINUOUS
 10
-0.029427
 20
-0.721194
  0
VERTEX
  8
EBENE_1
 62
    39
  6
CONTINUOUS
 10
-0.017732
 20
-0.719833
  0
VERTEX
  8
EBENE_1
 62
    39
  6
CONTINUOUS
 10
-0.005642
 20
-0.717792
  0
VERTEX
  8
EBENE_1
 62
    39
  6
CONTINUOUS
 10
0.006797
 20
-0.715047
  0
VERTEX
  8
EBENE_1
 62
    39
  6
CONTINUOUS
 10
0.019540
 20
-0.711576
  0
VERTEX
  8
EBENE_1
 62
    39
  6
CONTINUOUS
 10
0.032542
 20
-0.707354
  0
VERTEX
  8
EBENE_1
 62
    39
  6
CONTINUOUS
 10
0.045755
 20
-0.702358
  0
VERTEX
  8
EBENE_1
 62
    39
  6
CONTINUOUS
 10
0.059136
 20
-0.696567
  0
VERTEX
  8
EBENE_1
 62
    39
  6
CONTINUOUS
 10
0.072637
 20
-0.689955
  0
VERTEX
  8
EBENE_1
 62
    39
  6
CONTINUOUS
 10
0.086214
 20
-0.682500
  0
VERTEX
  8
EBENE_1
 62
    39
  6
CONTINUOUS
 10
0.099821
 20
-0.674179
  0
VERTEX
  8
EBENE_1
 62
    39
  6
CONTINUOUS
 10
0.113411
 20
-0.664968
  0
VERTEX
  8
EBENE_1
 62
    39
  6
CONTINUOUS
 10
0.126940
 20
-0.654844
  0
VERTEX
  8
EBENE_1
 62
    39
  6
CONTINUOUS
 10
0.140362
 20
-0.643785
  0
VERTEX
  8
EBENE_1
 62
    39
  6
CONTINUOUS
 10
0.153630
 20
-0.631766
  0
VERTEX
  8
EBENE_1
 62
    39
  6
CONTINUOUS
 10
0.166700
 20
-0.618765
  0
VERTEX
  8
EBENE_1
 62
    39
  6
CONTINUOUS
 10
0.179526
 20
-0.604758
  0
VERTEX
  8
EBENE_1
 62
    39
  6
CONTINUOUS
 10
0.192061
 20
-0.589722
  0
VERTEX
  8
EBENE_1
 62
    39
  6
CONTINUOUS
 10
0.204261
 20
-0.573634
  0
VERTEX
  8
EBENE_1
 62
    39
  6
CONTINUOUS
 10
0.216079
 20
-0.556471
  0
VERTEX
  8
EBENE_1
 62
    39
  6
CONTINUOUS
 10
0.227470
 20
-0.538209
  0
VERTEX
  8
EBENE_1
 62
    39
  6
CONTINUOUS
 10
0.238389
 20
-0.518825
  0
VERTEX
  8
EBENE_1
 62
    39
  6
CONTINUOUS
 10
0.248789
 20
-0.498296
  0
VERTEX
  8
EBENE_1
 62
    39
  6
CONTINUOUS
 10
0.258625
 20
-0.476599
  0
VERTEX
  8
EBENE_1
 62
    39
  6
CONTINUOUS
 10
0.267851
 20
-0.453710
  0
VERTEX
  8
EBENE_1
 62
    39
  6
CONTINUOUS
 10
0.276421
 20
-0.429606
  0
VERTEX
  8
EBENE_1
 62
    39
  6
CONTINUOUS
 10
0.284291
 20
-0.404264
  0
VERTEX
  8
EBENE_1
 62
    39
  6
CONTINUOUS
 10
0.291413
 20
-0.377661
  0
SEQEND
  8
0
  0
POLYLINE
  8
EBENE_1
 62
    39
  6
CONTINUOUS
 66
     1
 40
0.003000
 41
0.003000
  0
VERTEX
  8
EBENE_1
 62
    39
  6
CONTINUOUS
 10
0.291413
 20
-0.377661
  0
VERTEX
  8
EBENE_1
 62
    39
  6
CONTINUOUS
 10
0.288132
 20
-0.350633
  0
VERTEX
  8
EBENE_1
 62
    39
  6
CONTINUOUS
 10
0.282574
 20
-0.331362
  0
VERTEX
  8
EBENE_1
 62
    39
  6
CONTINUOUS
 10
0.274740
 20
-0.318570
  0
VERTEX
  8
EBENE_1
 62
    39
  6
CONTINUOUS
 10
0.264630
 20
-0.310974
  0
VERTEX
  8
EBENE_1
 62
    39
  6
CONTINUOUS
 10
0.252244
 20
-0.307296
  0
VERTEX
  8
EBENE_1
 62
    39
  6
CONTINUOUS
 10
0.237581
 20
-0.306254
  0
VERTEX
  8
EBENE_1
 62
    39
  6
CONTINUOUS
 10
0.220642
 20
-0.306568
  0
VERTEX
  8
EBENE_1
 62
    39
  6
CONTINUOUS
 10
0.201425
 20
-0.306957
  0
SEQEND
  8
0
  0
POLYLINE
  8
EBENE_1
 62
    39
  6
CONTINUOUS
 66
     1
 40
0.003000
 41
0.003000
  0
VERTEX
  8
EBENE_1
 62
    39
  6
CONTINUOUS
 10
0.201425
 20
-0.306957
  0
VERTEX
  8
EBENE_1
 62
    39
  6
CONTINUOUS
 10
-0.129240
 20
-0.386945
  0
SEQEND
  8
0
  0
POLYLINE
  8
EBENE_1
 62
    39
  6
CONTINUOUS
 66
     1
 40
0.003000
 41
0.003000
  0
VERTEX
  8
EBENE_1
 62
    39
  6
CONTINUOUS
 10
-0.129240
 20
-0.386945
  0
VERTEX
  8
EBENE_1
 62
    39
  6
CONTINUOUS
 10
-0.162477
 20
-0.393855
  0
VERTEX
  8
EBENE_1
 62
    39
  6
CONTINUOUS
 10
-0.187777
 20
-0.402472
  0
VERTEX
  8
EBENE_1
 62
    39
  6
CONTINUOUS
 10
-0.207087
 20
-0.412834
  0
VERTEX
  8
EBENE_1
 62
    39
  6
CONTINUOUS
 10
-0.222349
 20
-0.424981
  0
VERTEX
  8
EBENE_1
 62
    39
  6
CONTINUOUS
 10
-0.235508
 20
-0.438954
  0
VERTEX
  8
EBENE_1
 62
    39
  6
CONTINUOUS
 10
-0.248508
 20
-0.454791
  0
SEQEND
  8
0
  0
POLYLINE
  8
EBENE_1
 62
    39
  6
CONTINUOUS
 66
     1
 40
0.003000
 41
0.003000
 70
     1
  0
VERTEX
  8
EBENE_1
 62
    39
  6
CONTINUOUS
 10
-0.249937
 20
-0.456937
  0
VERTEX
  8
EBENE_1
 62
    39
  6
CONTINUOUS
 10
-0.325642
 20
-0.717614
  0
VERTEX
  8
EBENE_1
 62
    39
  6
CONTINUOUS
 10
-0.042110
 20
-0.715472
  0
VERTEX
  8
EBENE_1
 62
    39
  6
CONTINUOUS
 10
-0.030697
 20
-0.714759
  0
VERTEX
  8
EBENE_1
 62
    39
  6
CONTINUOUS
 10
-0.018861
 20
-0.713394
  0
VERTEX
  8
EBENE_1
 62
    39
  6
CONTINUOUS
 10
-0.006646
 20
-0.711348
  0
VERTEX
  8
EBENE_1
 62
    39
  6
CONTINUOUS
 10
0.005906
 20
-0.708592
  0
VERTEX
  8
EBENE_1
 62
    39
  6
CONTINUOUS
 10
0.018753
 20
-0.705097
  0
VERTEX
  8
EBENE_1
 62
    39
  6
CONTINUOUS
 10
0.031852
 20
-0.700834
  0
VERTEX
  8
EBENE_1
 62
    39
  6
CONTINUOUS
 10
0.045160
 20
-0.695774
  0
VERTEX
  8
EBENE_1
 62
    39
  6
CONTINUOUS
 10
0.058636
 20
-0.689889
  0
VERTEX
  8
EBENE_1
 62
    39
  6
CONTINUOUS
 10
0.072237
 20
-0.683149
  0
VERTEX
  8
EBENE_1
 62
    39
  6
CONTINUOUS
 10
0.085920
 20
-0.675525
  0
VERTEX
  8
EBENE_1
 62
    39
  6
CONTINUOUS
 10
0.099642
 20
-0.666988
  0
VERTEX
  8
EBENE_1
 62
    39
  6
CONTINUOUS
 10
0.113363
 20
-0.657510
  0
VERTEX
  8
EBENE_1
 62
    39
  6
CONTINUOUS
 10
0.127038
 20
-0.647062
  0
VERTEX
  8
EBENE_1
 62
    39
  6
CONTINUOUS
 10
0.140625
 20
-0.635614
  0
VERTEX
  8
EBENE_1
 62
    39
  6
CONTINUOUS
 10
0.154083
 20
-0.623137
  0
VERTEX
  8
EBENE_1
 62
    39
  6
CONTINUOUS
 10
0.167368
 20
-0.609603
  0
VERTEX
  8
EBENE_1
 62
    39
  6
CONTINUOUS
 10
0.180438
 20
-0.594983
  0
VERTEX
  8
EBENE_1
 62
    39
  6
CONTINUOUS
 10
0.193251
 20
-0.579248
  0
VERTEX
  8
EBENE_1
 62
    39
  6
CONTINUOUS
 10
0.205765
 20
-0.562368
  0
VERTEX
  8
EBENE_1
 62
    39
  6
CONTINUOUS
 10
0.217936
 20
-0.544315
  0
VERTEX
  8
EBENE_1
 62
    39
  6
CONTINUOUS
 10
0.229722
 20
-0.525060
  0
VERTEX
  8
EBENE_1
 62
    39
  6
CONTINUOUS
 10
0.241081
 20
-0.504573
  0
VERTEX
  8
EBENE_1
 62
    39
  6
CONTINUOUS
 10
0.251971
 20
-0.482827
  0
VERTEX
  8
EBENE_1
 62
    39
  6
CONTINUOUS
 10
0.262348
 20
-0.459791
  0
VERTEX
  8
EBENE_1
 62
    39
  6
CONTINUOUS
 10
0.272171
 20
-0.435438
  0
VERTEX
  8
EBENE_1
 62
    39
  6
CONTINUOUS
 10
0.281398
 20
-0.409738
  0
VERTEX
  8
EBENE_1
 62
    39
  6
CONTINUOUS
 10
0.289984
 20
-0.382661
  0
VERTEX
  8
EBENE_1
 62
    39
  6
CONTINUOUS
 10
0.289984
 20
-0.382661
  0
VERTEX
  8
EBENE_1
 62
    39
  6
CONTINUOUS
 10
0.286553
 20
-0.356134
  0
VERTEX
  8
EBENE_1
 62
    39
  6
CONTINUOUS
 10
0.280611
 20
-0.337298
  0
VERTEX
  8
EBENE_1
 62
    39
  6
CONTINUOUS
 10
0.272259
 20
-0.324874
  0
VERTEX
  8
EBENE_1
 62
    39
  6
CONTINUOUS
 10
0.261596
 20
-0.317580
  0
VERTEX
  8
EBENE_1
 62
    39
  6
CONTINUOUS
 10
0.248724
 20
-0.314136
  0
VERTEX
  8
EBENE_1
 62
    39
  6
CONTINUOUS
 10
0.233743
 20
-0.313261
  0
VERTEX
  8
EBENE_1
 62
    39
  6
CONTINUOUS
 10
0.216753
 20
-0.313676
  0
VERTEX
  8
EBENE_1
 62
    39
  6
CONTINUOUS
 10
0.197854
 20
-0.314098
  0
VERTEX
  8
EBENE_1
 62
    39
  6
CONTINUOUS
 10
-0.156382
 20
-0.392657
  0
VERTEX
  8
EBENE_1
 62
    39
  6
CONTINUOUS
 10
-0.185976
 20
-0.395088
  0
VERTEX
  8
EBENE_1
 62
    39
  6
CONTINUOUS
 10
-0.206029
 20
-0.401863
  0
VERTEX
  8
EBENE_1
 62
    39
  6
CONTINUOUS
 10
-0.219496
 20
-0.412210
  0
VERTEX
  8
EBENE_1
 62
    39
  6
CONTINUOUS
 10
-0.229332
 20
-0.425353
  0
VERTEX
  8
EBENE_1
 62
    39
  6
CONTINUOUS
 10
-0.238494
 20
-0.440520
  0
SEQEND
  8
0
  0
POLYLINE
  8
EBENE_1
 62
    39
  6
CONTINUOUS
 66
     1
 40
0.003000
 41
0.003000
  0
VERTEX
  8
EBENE_1
 62
    39
  6
CONTINUOUS
 10
-0.086390
 20
-0.389087
  0
VERTEX
  8
EBENE_1
 62
    39
  6
CONTINUOUS
 10
-0.090622
 20
-0.391600
  0
VERTEX
  8
EBENE_1
 62
    39
  6
CONTINUOUS
 10
-0.093108
 20
-0.395859
  0
VERTEX
  8
EBENE_1
 62
    39
  6
CONTINUOUS
 10
-0.093531
 20
-0.401228
  0
SEQEND
  8
0
  0
POLYLINE
  8
EBENE_1
 62
    39
  6
CONTINUOUS
 66
     1
 40
0.003000
 41
0.003000
  0
VERTEX
  8
EBENE_1
 62
    39
  6
CONTINUOUS
 10
-0.093531
 20
-0.401228
  0
VERTEX
  8
EBENE_1
 62
    39
  6
CONTINUOUS
 10
-0.090860
 20
-0.405435
  0
VERTEX
  8
EBENE_1
 62
    39
  6
CONTINUOUS
 10
-0.086442
 20
-0.407737
  0
VERTEX
  8
EBENE_1
 62
    39
  6
CONTINUOUS
 10
-0.081390
 20
-0.407657
  0
SEQEND
  8
0
  0
POLYLINE
  8
EBENE_1
 62
    39
  6
CONTINUOUS
 66
     1
 40
0.003000
 41
0.003000
  0
VERTEX
  8
EBENE_1
 62
    39
  6
CONTINUOUS
 10
-0.081390
 20
-0.407657
  0
VERTEX
  8
EBENE_1
 62
    39
  6
CONTINUOUS
 10
-0.077184
 20
-0.405170
  0
VERTEX
  8
EBENE_1
 62
    39
  6
CONTINUOUS
 10
-0.074883
 20
-0.401096
  0
VERTEX
  8
EBENE_1
 62
    39
  6
CONTINUOUS
 10
-0.074961
 20
-0.396228
  0
SEQEND
  8
0
  0
POLYLINE
  8
EBENE_1
 62
    39
  6
CONTINUOUS
 66
     1
 40
0.003000
 41
0.003000
  0
VERTEX
  8
EBENE_1
 62
    39
  6
CONTINUOUS
 10
-0.074961
 20
-0.396228
  0
VERTEX
  8
EBENE_1
 62
    39
  6
CONTINUOUS
 10
-0.077131
 20
-0.391520
  0
VERTEX
  8
EBENE_1
 62
    39
  6
CONTINUOUS
 10
-0.081364
 20
-0.389034
  0
VERTEX
  8
EBENE_1
 62
    39
  6
CONTINUOUS
 10
-0.086390
 20
-0.389087
  0
SEQEND
  8
0
  0
POLYLINE
  8
EBENE_1
 62
    39
  6
CONTINUOUS
 66
     1
 40
0.003000
 41
0.003000
  0
VERTEX
  8
EBENE_1
 62
    39
  6
CONTINUOUS
 10
-0.212799
 20
-0.452650
  0
VERTEX
  8
EBENE_1
 62
    39
  6
CONTINUOUS
 10
-0.217006
 20
-0.455137
  0
VERTEX
  8
EBENE_1
 62
    39
  6
CONTINUOUS
 10
-0.219308
 20
-0.459211
  0
VERTEX
  8
EBENE_1
 62
    39
  6
CONTINUOUS
 10
-0.219228
 20
-0.464079
  0
SEQEND
  8
0
  0
POLYLINE
  8
EBENE_1
 62
    39
  6
CONTINUOUS
 66
     1
 40
0.003000
 41
0.003000
  0
VERTEX
  8
EBENE_1
 62
    39
  6
CONTINUOUS
 10
-0.219228
 20
-0.464079
  0
VERTEX
  8
EBENE_1
 62
    39
  6
CONTINUOUS
 10
-0.216741
 20
-0.468470
  0
VERTEX
  8
EBENE_1
 62
    39
  6
CONTINUOUS
 10
-0.212667
 20
-0.471115
  0
VERTEX
  8
EBENE_1
 62
    39
  6
CONTINUOUS
 10
-0.207799
 20
-0.471220
  0
SEQEND
  8
0
  0
POLYLINE
  8
EBENE_1
 62
    39
  6
CONTINUOUS
 66
     1
 40
0.003000
 41
0.003000
  0
VERTEX
  8
EBENE_1
 62
    39
  6
CONTINUOUS
 10
-0.207799
 20
-0.471220
  0
VERTEX
  8
EBENE_1
 62
    39
  6
CONTINUOUS
 10
-0.203410
 20
-0.468549
  0
VERTEX
  8
EBENE_1
 62
    39
  6
CONTINUOUS
 10
-0.200764
 20
-0.464131
  0
VERTEX
  8
EBENE_1
 62
    39
  6
CONTINUOUS
 10
-0.200657
 20
-0.459079
  0
SEQEND
  8
0
  0
POLYLINE
  8
EBENE_1
 62
    39
  6
CONTINUOUS
 66
     1
 40
0.003000
 41
0.003000
  0
VERTEX
  8
EBENE_1
 62
    39
  6
CONTINUOUS
 10
-0.200657
 20
-0.459079
  0
VERTEX
  8
EBENE_1
 62
    39
  6
CONTINUOUS
 10
-0.203329
 20
-0.454872
  0
VERTEX
  8
EBENE_1
 62
    39
  6
CONTINUOUS
 10
-0.207747
 20
-0.452570
  0
VERTEX
  8
EBENE_1
 62
    39
  6
CONTINUOUS
 10
-0.212799
 20
-0.452650
  0
SEQEND
  8
0
  0
POLYLINE
  8
EBENE_1
 62
    39
  6
CONTINUOUS
 66
     1
 40
0.003000
 41
0.003000
  0
VERTEX
  8
EBENE_1
 62
    39
  6
CONTINUOUS
 10
0.040732
 20
-0.366949
  0
VERTEX
  8
EBENE_1
 62
    39
  6
CONTINUOUS
 10
0.036341
 20
-0.369619
  0
VERTEX
  8
EBENE_1
 62
    39
  6
CONTINUOUS
 10
0.033696
 20
-0.374037
  0
VERTEX
  8
EBENE_1
 62
    39
  6
CONTINUOUS
 10
0.033591
 20
-0.379091
  0
SEQEND
  8
0
  0
POLYLINE
  8
EBENE_1
 62
    39
  6
CONTINUOUS
 66
     1
 40
0.003000
 41
0.003000
  0
VERTEX
  8
EBENE_1
 62
    39
  6
CONTINUOUS
 10
0.033591
 20
-0.379091
  0
VERTEX
  8
EBENE_1
 62
    39
  6
CONTINUOUS
 10
0.036262
 20
-0.383294
  0
VERTEX
  8
EBENE_1
 62
    39
  6
CONTINUOUS
 10
0.040680
 20
-0.385595
  0
VERTEX
  8
EBENE_1
 62
    39
  6
CONTINUOUS
 10
0.045732
 20
-0.385516
  0
SEQEND
  8
0
  0
POLYLINE
  8
EBENE_1
 62
    39
  6
CONTINUOUS
 66
     1
 40
0.003000
 41
0.003000
  0
VERTEX
  8
EBENE_1
 62
    39
  6
CONTINUOUS
 10
0.045732
 20
-0.385516
  0
VERTEX
  8
EBENE_1
 62
    39
  6
CONTINUOUS
 10
0.049938
 20
-0.383030
  0
VERTEX
  8
EBENE_1
 62
    39
  6
CONTINUOUS
 10
0.052238
 20
-0.378957
  0
VERTEX
  8
EBENE_1
 62
    39
  6
CONTINUOUS
 10
0.052157
 20
-0.374091
  0
SEQEND
  8
0
  0
POLYLINE
  8
EBENE_1
 62
    39
  6
CONTINUOUS
 66
     1
 40
0.003000
 41
0.003000
  0
VERTEX
  8
EBENE_1
 62
    39
  6
CONTINUOUS
 10
0.052157
 20
-0.374091
  0
VERTEX
  8
EBENE_1
 62
    39
  6
CONTINUOUS
 10
0.049673
 20
-0.369699
  0
VERTEX
  8
EBENE_1
 62
    39
  6
CONTINUOUS
 10
0.045600
 20
-0.367054
  0
VERTEX
  8
EBENE_1
 62
    39
  6
CONTINUOUS
 10
0.040732
 20
-0.366949
  0
SEQEND
  8
0
  0
POLYLINE
  8
EBENE_1
 62
    39
  6
CONTINUOUS
 66
     1
 40
0.003000
 41
0.003000
  0
VERTEX
  8
EBENE_1
 62
    39
  6
CONTINUOUS
 10
-0.559894
 20
-0.517642
  0
VERTEX
  8
EBENE_1
 62
    39
  6
CONTINUOUS
 10
-0.620602
 20
-0.730469
  0
VERTEX
  8
EBENE_1
 62
    39
  6
CONTINUOUS
 10
-0.332067
 20
-0.728327
  0
SEQEND
  8
0
  0
POLYLINE
  8
EBENE_1
 62
    39
  6
CONTINUOUS
 66
     1
 40
0.003000
 41
0.003000
  0
VERTEX
  8
EBENE_1
 62
    39
  6
CONTINUOUS
 10
-0.332067
 20
-0.728327
  0
VERTEX
  8
EBENE_1
 62
    39
  6
CONTINUOUS
 10
-0.319307
 20
-0.727689
  0
VERTEX
  8
EBENE_1
 62
    39
  6
CONTINUOUS
 10
-0.306554
 20
-0.726617
  0
VERTEX
  8
EBENE_1
 62
    39
  6
CONTINUOUS
 10
-0.293799
 20
-0.725032
  0
VERTEX
  8
EBENE_1
 62
    39
  6
CONTINUOUS
 10
-0.281033
 20
-0.722858
  0
VERTEX
  8
EBENE_1
 62
    39
  6
CONTINUOUS
 10
-0.268249
 20
-0.720017
  0
VERTEX
  8
EBENE_1
 62
    39
  6
CONTINUOUS
 10
-0.255438
 20
-0.716431
  0
VERTEX
  8
EBENE_1
 62
    39
  6
CONTINUOUS
 10
-0.242592
 20
-0.712024
  0
VERTEX
  8
EBENE_1
 62
    39
  6
CONTINUOUS
 10
-0.229702
 20
-0.706716
  0
VERTEX
  8
EBENE_1
 62
    39
  6
CONTINUOUS
 10
-0.216760
 20
-0.700432
  0
VERTEX
  8
EBENE_1
 62
    39
  6
CONTINUOUS
 10
-0.203757
 20
-0.693093
  0
VERTEX
  8
EBENE_1
 62
    39
  6
CONTINUOUS
 10
-0.190686
 20
-0.684622
  0
VERTEX
  8
EBENE_1
 62
    39
  6
CONTINUOUS
 10
-0.177537
 20
-0.674942
  0
VERTEX
  8
EBENE_1
 62
    39
  6
CONTINUOUS
 10
-0.164303
 20
-0.663974
  0
VERTEX
  8
EBENE_1
 62
    39
  6
CONTINUOUS
 10
-0.150974
 20
-0.651642
  0
VERTEX
  8
EBENE_1
 62
    39
  6
CONTINUOUS
 10
-0.137544
 20
-0.637868
  0
VERTEX
  8
EBENE_1
 62
    39
  6
CONTINUOUS
 10
-0.124003
 20
-0.622575
  0
VERTEX
  8
EBENE_1
 62
    39
  6
CONTINUOUS
 10
-0.110343
 20
-0.605684
  0
VERTEX
  8
EBENE_1
 62
    39
  6
CONTINUOUS
 10
-0.096555
 20
-0.587119
  0
VERTEX
  8
EBENE_1
 62
    39
  6
CONTINUOUS
 10
-0.082632
 20
-0.566802
  0
VERTEX
  8
EBENE_1
 62
    39
  6
CONTINUOUS
 10
-0.068564
 20
-0.544656
  0
VERTEX
  8
EBENE_1
 62
    39
  6
CONTINUOUS
 10
-0.054344
 20
-0.520602
  0
VERTEX
  8
EBENE_1
 62
    39
  6
CONTINUOUS
 10
-0.039963
 20
-0.494564
  0
VERTEX
  8
EBENE_1
 62
    39
  6
CONTINUOUS
 10
-0.025413
 20
-0.466464
  0
VERTEX
  8
EBENE_1
 62
    39
  6
CONTINUOUS
 10
-0.010685
 20
-0.436224
  0
SEQEND
  8
0
  0
POLYLINE
  8
EBENE_1
 62
    39
  6
CONTINUOUS
 66
     1
 40
0.003000
 41
0.003000
  0
VERTEX
  8
EBENE_1
 62
    39
  6
CONTINUOUS
 10
-0.010685
 20
-0.436224
  0
VERTEX
  8
EBENE_1
 62
    39
  6
CONTINUOUS
 10
-0.013840
 20
-0.412356
  0
VERTEX
  8
EBENE_1
 62
    39
  6
CONTINUOUS
 10
-0.019787
 20
-0.395676
  0
VERTEX
  8
EBENE_1
 62
    39
  6
CONTINUOUS
 10
-0.028249
 20
-0.385015
  0
VERTEX
  8
EBENE_1
 62
    39
  6
CONTINUOUS
 10
-0.038951
 20
-0.379203
  0
VERTEX
  8
EBENE_1
 62
    39
  6
CONTINUOUS
 10
-0.051616
 20
-0.377071
  0
VERTEX
  8
EBENE_1
 62
    39
  6
CONTINUOUS
 10
-0.065969
 20
-0.377449
  0
VERTEX
  8
EBENE_1
 62
    39
  6
CONTINUOUS
 10
-0.081732
 20
-0.379167
  0
VERTEX
  8
EBENE_1
 62
    39
  6
CONTINUOUS
 10
-0.098630
 20
-0.381055
  0
VERTEX
  8
EBENE_1
 62
    39
  6
CONTINUOUS
 10
-0.116386
 20
-0.381945
  0
SEQEND
  8
0
  0
POLYLINE
  8
EBENE_1
 62
    39
  6
CONTINUOUS
 66
     1
 40
0.003000
 41
0.003000
  0
VERTEX
  8
EBENE_1
 62
    39
  6
CONTINUOUS
 10
-0.116386
 20
-0.381945
  0
VERTEX
  8
EBENE_1
 62
    39
  6
CONTINUOUS
 10
-0.432772
 20
-0.456220
  0
SEQEND
  8
0
  0
POLYLINE
  8
EBENE_1
 62
    39
  6
CONTINUOUS
 66
     1
 40
0.003000
 41
0.003000
  0
VERTEX
  8
EBENE_1
 62
    39
  6
CONTINUOUS
 10
-0.432772
 20
-0.456220
  0
VERTEX
  8
EBENE_1
 62
    39
  6
CONTINUOUS
 10
-0.466837
 20
-0.462655
  0
VERTEX
  8
EBENE_1
 62
    39
  6
CONTINUOUS
 10
-0.493662
 20
-0.470082
  0
VERTEX
  8
EBENE_1
 62
    39
  6
CONTINUOUS
 10
-0.514813
 20
-0.478897
  0
VERTEX
  8
EBENE_1
 62
    39
  6
CONTINUOUS
 10
-0.531857
 20
-0.489497
  0
VERTEX
  8
EBENE_1
 62
    39
  6
CONTINUOUS
 10
-0.546361
 20
-0.502280
  0
VERTEX
  8
EBENE_1
 62
    39
  6
CONTINUOUS
 10
-0.559894
 20
-0.517642
  0
SEQEND
  8
0
  0
POLYLINE
  8
EBENE_1
 62
    39
  6
CONTINUOUS
 66
     1
 40
0.003000
 41
0.003000
 70
     1
  0
VERTEX
  8
EBENE_1
 62
    39
  6
CONTINUOUS
 10
-0.562039
 20
-0.524067
  0
VERTEX
  8
EBENE_1
 62
    39
  6
CONTINUOUS
 10
-0.617744
 20
-0.724756
  0
VERTEX
  8
EBENE_1
 62
    39
  6
CONTINUOUS
 10
-0.325642
 20
-0.722614
  0
VERTEX
  8
EBENE_1
 62
    39
  6
CONTINUOUS
 10
-0.312640
 20
-0.721927
  0
VERTEX
  8
EBENE_1
 62
    39
  6
CONTINUOUS
 10
-0.299694
 20
-0.720883
  0
VERTEX
  8
EBENE_1
 62
    39
  6
CONTINUOUS
 10
-0.286794
 20
-0.719400
  0
VERTEX
  8
EBENE_1
 62
    39
  6
CONTINUOUS
 10
-0.273929
 20
-0.717396
  0
VERTEX
  8
EBENE_1
 62
    39
  6
CONTINUOUS
 10
-0.261089
 20
-0.714789
  0
VERTEX
  8
EBENE_1
 62
    39
  6
CONTINUOUS
 10
-0.248264
 20
-0.711499
  0
VERTEX
  8
EBENE_1
 62
    39
  6
CONTINUOUS
 10
-0.235442
 20
-0.707441
  0
VERTEX
  8
EBENE_1
 62
    39
  6
CONTINUOUS
 10
-0.222614
 20
-0.702536
  0
VERTEX
  8
EBENE_1
 62
    39
  6
CONTINUOUS
 10
-0.209768
 20
-0.696701
  0
VERTEX
  8
EBENE_1
 62
    39
  6
CONTINUOUS
 10
-0.196894
 20
-0.689854
  0
VERTEX
  8
EBENE_1
 62
    39
  6
CONTINUOUS
 10
-0.183981
 20
-0.681914
  0
VERTEX
  8
EBENE_1
 62
    39
  6
CONTINUOUS
 10
-0.171020
 20
-0.672798
  0
VERTEX
  8
EBENE_1
 62
    39
  6
CONTINUOUS
 10
-0.157999
 20
-0.662425
  0
VERTEX
  8
EBENE_1
 62
    39
  6
CONTINUOUS
 10
-0.144908
 20
-0.650713
  0
VERTEX
  8
EBENE_1
 62
    39
  6
CONTINUOUS
 10
-0.131737
 20
-0.637580
  0
VERTEX
  8
EBENE_1
 62
    39
  6
CONTINUOUS
 10
-0.118474
 20
-0.622944
  0
VERTEX
  8
EBENE_1
 62
    39
  6
CONTINUOUS
 10
-0.105110
 20
-0.606724
  0
VERTEX
  8
EBENE_1
 62
    39
  6
CONTINUOUS
 10
-0.091633
 20
-0.588837
  0
VERTEX
  8
EBENE_1
 62
    39
  6
CONTINUOUS
 10
-0.078034
 20
-0.569201
  0
VERTEX
  8
EBENE_1
 62
    39
  6
CONTINUOUS
 10
-0.064301
 20
-0.547736
  0
VERTEX
  8
EBENE_1
 62
    39
  6
CONTINUOUS
 10
-0.050425
 20
-0.524359
  0
VERTEX
  8
EBENE_1
 62
    39
  6
CONTINUOUS
 10
-0.036394
 20
-0.498988
  0
VERTEX
  8
EBENE_1
 62
    39
  6
CONTINUOUS
 10
-0.022198
 20
-0.471541
  0
VERTEX
  8
EBENE_1
 62
    39
  6
CONTINUOUS
 10
-0.007827
 20
-0.441937
  0
VERTEX
  8
EBENE_1
 62
    39
  6
CONTINUOUS
 10
-0.007827
 20
-0.441937
  0
VERTEX
  8
EBENE_1
 62
    39
  6
CONTINUOUS
 10
-0.005964
 20
-0.417275
  0
VERTEX
  8
EBENE_1
 62
    39
  6
CONTINUOUS
 10
-0.008186
 20
-0.400246
  0
VERTEX
  8
EBENE_1
 62
    39
  6
CONTINUOUS
 10
-0.014156
 20
-0.389511
  0
VERTEX
  8
EBENE_1
 62
    39
  6
CONTINUOUS
 10
-0.023541
 20
-0.383730
  0
VERTEX
  8
EBENE_1
 62
    39
  6
CONTINUOUS
 10
-0.036006
 20
-0.381566
  0
VERTEX
  8
EBENE_1
 62
    39
  6
CONTINUOUS
 10
-0.051216
 20
-0.381678
  0
VERTEX
  8
EBENE_1
 62
    39
  6
CONTINUOUS
 10
-0.068836
 20
-0.382727
  0
VERTEX
  8
EBENE_1
 62
    39
  6
CONTINUOUS
 10
-0.088531
 20
-0.383374
  0
VERTEX
  8
EBENE_1
 62
    39
  6
CONTINUOUS
 10
-0.471339
 20
-0.467650
  0
VERTEX
  8
EBENE_1
 62
    39
  6
CONTINUOUS
 10
-0.501415
 20
-0.469498
  0
VERTEX
  8
EBENE_1
 62
    39
  6
CONTINUOUS
 10
-0.521038
 20
-0.474818
  0
VERTEX
  8
EBENE_1
 62
    39
  6
CONTINUOUS
 10
-0.533560
 20
-0.483272
  0
VERTEX
  8
EBENE_1
 62
    39
  6
CONTINUOUS
 10
-0.542332
 20
-0.494523
  0
VERTEX
  8
EBENE_1
 62
    39
  6
CONTINUOUS
 10
-0.550708
 20
-0.508234
  0
VERTEX
  8
EBENE_1
 62
    39
  6
CONTINUOUS
 10
-0.562039
 20
-0.524067
  0
SEQEND
  8
0
  0
POLYLINE
  8
EBENE_1
 62
    39
  6
CONTINUOUS
 66
     1
 40
0.003000
 41
0.003000
  0
VERTEX
  8
EBENE_1
 62
    39
  6
CONTINUOUS
 10
-0.383492
 20
-0.469791
  0
VERTEX
  8
EBENE_1
 62
    39
  6
CONTINUOUS
 10
-0.387698
 20
-0.472463
  0
VERTEX
  8
EBENE_1
 62
    39
  6
CONTINUOUS
 10
-0.389998
 20
-0.476881
  0
VERTEX
  8
EBENE_1
 62
    39
  6
CONTINUOUS
 10
-0.389917
 20
-0.481933
  0
SEQEND
  8
0
  0
POLYLINE
  8
EBENE_1
 62
    39
  6
CONTINUOUS
 66
     1
 40
0.003000
 41
0.003000
  0
VERTEX
  8
EBENE_1
 62
    39
  6
CONTINUOUS
 10
-0.389917
 20
-0.481933
  0
VERTEX
  8
EBENE_1
 62
    39
  6
CONTINUOUS
 10
-0.387750
 20
-0.486139
  0
VERTEX
  8
EBENE_1
 62
    39
  6
CONTINUOUS
 10
-0.383518
 20
-0.488439
  0
VERTEX
  8
EBENE_1
 62
    39
  6
CONTINUOUS
 10
-0.378492
 20
-0.488358
  0
SEQEND
  8
0
  0
POLYLINE
  8
EBENE_1
 62
    39
  6
CONTINUOUS
 66
     1
 40
0.003000
 41
0.003000
  0
VERTEX
  8
EBENE_1
 62
    39
  6
CONTINUOUS
 10
-0.378492
 20
-0.488358
  0
VERTEX
  8
EBENE_1
 62
    39
  6
CONTINUOUS
 10
-0.373784
 20
-0.485874
  0
VERTEX
  8
EBENE_1
 62
    39
  6
CONTINUOUS
 10
-0.371297
 20
-0.481801
  0
VERTEX
  8
EBENE_1
 62
    39
  6
CONTINUOUS
 10
-0.371350
 20
-0.476933
  0
SEQEND
  8
0
  0
POLYLINE
  8
EBENE_1
 62
    39
  6
CONTINUOUS
 66
     1
 40
0.003000
 41
0.003000
  0
VERTEX
  8
EBENE_1
 62
    39
  6
CONTINUOUS
 10
-0.371350
 20
-0.476933
  0
VERTEX
  8
EBENE_1
 62
    39
  6
CONTINUOUS
 10
-0.373863
 20
-0.472542
  0
VERTEX
  8
EBENE_1
 62
    39
  6
CONTINUOUS
 10
-0.378121
 20
-0.469897
  0
VERTEX
  8
EBENE_1
 62
    39
  6
CONTINUOUS
 10
-0.383492
 20
-0.469791
  0
SEQEND
  8
0
  0
POLYLINE
  8
EBENE_1
 62
    39
  6
CONTINUOUS
 66
     1
 40
0.003000
 41
0.003000
  0
VERTEX
  8
EBENE_1
 62
    39
  6
CONTINUOUS
 10
-0.517756
 20
-0.517642
  0
VERTEX
  8
EBENE_1
 62
    39
  6
CONTINUOUS
 10
-0.521963
 20
-0.519809
  0
VERTEX
  8
EBENE_1
 62
    39
  6
CONTINUOUS
 10
-0.524265
 20
-0.524041
  0
VERTEX
  8
EBENE_1
 62
    39
  6
CONTINUOUS
 10
-0.524185
 20
-0.529067
  0
SEQEND
  8
0
  0
POLYLINE
  8
EBENE_1
 62
    39
  6
CONTINUOUS
 66
     1
 40
0.003000
 41
0.003000
  0
VERTEX
  8
EBENE_1
 62
    39
  6
CONTINUOUS
 10
-0.524185
 20
-0.529067
  0
VERTEX
  8
EBENE_1
 62
    39
  6
CONTINUOUS
 10
-0.522016
 20
-0.533274
  0
VERTEX
  8
EBENE_1
 62
    39
  6
CONTINUOUS
 10
-0.517784
 20
-0.535576
  0
VERTEX
  8
EBENE_1
 62
    39
  6
CONTINUOUS
 10
-0.512760
 20
-0.535496
  0
SEQEND
  8
0
  0
POLYLINE
  8
EBENE_1
 62
    39
  6
CONTINUOUS
 66
     1
 40
0.003000
 41
0.003000
  0
VERTEX
  8
EBENE_1
 62
    39
  6
CONTINUOUS
 10
-0.512760
 20
-0.535496
  0
VERTEX
  8
EBENE_1
 62
    39
  6
CONTINUOUS
 10
-0.508050
 20
-0.533326
  0
VERTEX
  8
EBENE_1
 62
    39
  6
CONTINUOUS
 10
-0.505564
 20
-0.529093
  0
VERTEX
  8
EBENE_1
 62
    39
  6
CONTINUOUS
 10
-0.505618
 20
-0.524067
  0
SEQEND
  8
0
  0
POLYLINE
  8
EBENE_1
 62
    39
  6
CONTINUOUS
 66
     1
 40
0.003000
 41
0.003000
  0
VERTEX
  8
EBENE_1
 62
    39
  6
CONTINUOUS
 10
-0.505618
 20
-0.524067
  0
VERTEX
  8
EBENE_1
 62
    39
  6
CONTINUOUS
 10
-0.508129
 20
-0.519863
  0
VERTEX
  8
EBENE_1
 62
    39
  6
CONTINUOUS
 10
-0.512387
 20
-0.517562
  0
VERTEX
  8
EBENE_1
 62
    39
  6
CONTINUOUS
 10
-0.517756
 20
-0.517642
  0
SEQEND
  8
0
  0
POLYLINE
  8
EBENE_1
 62
    39
  6
CONTINUOUS
 66
     1
 40
0.003000
 41
0.003000
  0
VERTEX
  8
EBENE_1
 62
    39
  6
CONTINUOUS
 10
-0.252079
 20
-0.439795
  0
VERTEX
  8
EBENE_1
 62
    39
  6
CONTINUOUS
 10
-0.256789
 20
-0.442467
  0
VERTEX
  8
EBENE_1
 62
    39
  6
CONTINUOUS
 10
-0.259276
 20
-0.446885
  0
VERTEX
  8
EBENE_1
 62
    39
  6
CONTINUOUS
 10
-0.259224
 20
-0.451937
  0
SEQEND
  8
0
  0
POLYLINE
  8
EBENE_1
 62
    39
  6
CONTINUOUS
 66
     1
 40
0.003000
 41
0.003000
  0
VERTEX
  8
EBENE_1
 62
    39
  6
CONTINUOUS
 10
-0.259224
 20
-0.451937
  0
VERTEX
  8
EBENE_1
 62
    39
  6
CONTINUOUS
 10
-0.256711
 20
-0.456143
  0
VERTEX
  8
EBENE_1
 62
    39
  6
CONTINUOUS
 10
-0.252452
 20
-0.458443
  0
VERTEX
  8
EBENE_1
 62
    39
  6
CONTINUOUS
 10
-0.247083
 20
-0.458362
  0
SEQEND
  8
0
  0
POLYLINE
  8
EBENE_1
 62
    39
  6
CONTINUOUS
 66
     1
 40
0.003000
 41
0.003000
  0
VERTEX
  8
EBENE_1
 62
    39
  6
CONTINUOUS
 10
-0.247083
 20
-0.458362
  0
VERTEX
  8
EBENE_1
 62
    39
  6
CONTINUOUS
 10
-0.242691
 20
-0.455878
  0
VERTEX
  8
EBENE_1
 62
    39
  6
CONTINUOUS
 10
-0.240046
 20
-0.451805
  0
VERTEX
  8
EBENE_1
 62
    39
  6
CONTINUOUS
 10
-0.239941
 20
-0.446937
  0
SEQEND
  8
0
  0
POLYLINE
  8
EBENE_1
 62
    39
  6
CONTINUOUS
 66
     1
 40
0.003000
 41
0.003000
  0
VERTEX
  8
EBENE_1
 62
    39
  6
CONTINUOUS
 10
-0.239941
 20
-0.446937
  0
VERTEX
  8
EBENE_1
 62
    39
  6
CONTINUOUS
 10
-0.242611
 20
-0.442546
  0
VERTEX
  8
EBENE_1
 62
    39
  6
CONTINUOUS
 10
-0.247028
 20
-0.439901
  0
VERTEX
  8
EBENE_1
 62
    39
  6
CONTINUOUS
 10
-0.252079
 20
-0.439795
  0
SEQEND
  8
0
  0
POLYLINE
  8
EBENE_1
 62
    39
  6
CONTINUOUS
 66
     1
 40
0.003000
 41
0.003000
 70
     1
  0
VERTEX
  8
EBENE_1
 62
    39
  6
CONTINUOUS
 10
-1.037685
 20
-0.227681
  0
VERTEX
  8
EBENE_1
 62
    39
  6
CONTINUOUS
 10
-1.221945
 20
-0.726898
  0
VERTEX
  8
EBENE_1
 62
    39
  6
CONTINUOUS
 10
-0.594177
 20
-0.732610
  0
VERTEX
  8
EBENE_1
 62
    39
  6
CONTINUOUS
 10
-0.561430
 20
-0.726208
  0
VERTEX
  8
EBENE_1
 62
    39
  6
CONTINUOUS
 10
-0.534943
 20
-0.715939
  0
VERTEX
  8
EBENE_1
 62
    39
  6
CONTINUOUS
 10
-0.513880
 20
-0.703159
  0
VERTEX
  8
EBENE_1
 62
    39
  6
CONTINUOUS
 10
-0.497404
 20
-0.689224
  0
VERTEX
  8
EBENE_1
 62
    39
  6
CONTINUOUS
 10
-0.484677
 20
-0.675490
  0
VERTEX
  8
EBENE_1
 62
    39
  6
CONTINUOUS
 10
-0.474862
 20
-0.663313
  0
VERTEX
  8
EBENE_1
 62
    39
  6
CONTINUOUS
 10
-0.467123
 20
-0.654048
  0
VERTEX
  8
EBENE_1
 62
    39
  6
CONTINUOUS
 10
-0.460622
 20
-0.649051
  0
VERTEX
  8
EBENE_1
 62
    39
  6
CONTINUOUS
 10
-0.461435
 20
-0.647128
  0
VERTEX
  8
EBENE_1
 62
    39
  6
CONTINUOUS
 10
-0.463943
 20
-0.642347
  0
VERTEX
  8
EBENE_1
 62
    39
  6
CONTINUOUS
 10
-0.468038
 20
-0.634910
  0
VERTEX
  8
EBENE_1
 62
    39
  6
CONTINUOUS
 10
-0.473610
 20
-0.625015
  0
VERTEX
  8
EBENE_1
 62
    39
  6
CONTINUOUS
 10
-0.480550
 20
-0.612863
  0
VERTEX
  8
EBENE_1
 62
    39
  6
CONTINUOUS
 10
-0.488750
 20
-0.598653
  0
VERTEX
  8
EBENE_1
 62
    39
  6
CONTINUOUS
 10
-0.498100
 20
-0.582585
  0
VERTEX
  8
EBENE_1
 62
    39
  6
CONTINUOUS
 10
-0.508492
 20
-0.564859
  0
VERTEX
  8
EBENE_1
 62
    39
  6
CONTINUOUS
 10
-0.519815
 20
-0.545675
  0
VERTEX
  8
EBENE_1
 62
    39
  6
CONTINUOUS
 10
-0.531962
 20
-0.525233
  0
VERTEX
  8
EBENE_1
 62
    39
  6
CONTINUOUS
 10
-0.544823
 20
-0.503732
  0
VERTEX
  8
EBENE_1
 62
    39
  6
CONTINUOUS
 10
-0.558289
 20
-0.481372
  0
VERTEX
  8
EBENE_1
 62
    39
  6
CONTINUOUS
 10
-0.572252
 20
-0.458353
  0
VERTEX
  8
EBENE_1
 62
    39
  6
CONTINUOUS
 10
-0.586601
 20
-0.434876
  0
VERTEX
  8
EBENE_1
 62
    39
  6
CONTINUOUS
 10
-0.601228
 20
-0.411138
  0
VERTEX
  8
EBENE_1
 62
    39
  6
CONTINUOUS
 10
-0.616025
 20
-0.387342
  0
VERTEX
  8
EBENE_1
 62
    39
  6
CONTINUOUS
 10
-0.630881
 20
-0.363685
  0
VERTEX
  8
EBENE_1
 62
    39
  6
CONTINUOUS
 10
-0.645689
 20
-0.340369
  0
VERTEX
  8
EBENE_1
 62
    39
  6
CONTINUOUS
 10
-0.660338
 20
-0.317592
  0
VERTEX
  8
EBENE_1
 62
    39
  6
CONTINUOUS
 10
-0.674720
 20
-0.295556
  0
VERTEX
  8
EBENE_1
 62
    39
  6
CONTINUOUS
 10
-0.688726
 20
-0.274459
  0
VERTEX
  8
EBENE_1
 62
    39
  6
CONTINUOUS
 10
-0.702247
 20
-0.254501
  0
VERTEX
  8
EBENE_1
 62
    39
  6
CONTINUOUS
 10
-0.715174
 20
-0.235882
  0
VERTEX
  8
EBENE_1
 62
    39
  6
CONTINUOUS
 10
-0.727398
 20
-0.218803
  0
VERTEX
  8
EBENE_1
 62
    39
  6
CONTINUOUS
 10
-0.738809
 20
-0.203462
  0
VERTEX
  8
EBENE_1
 62
    39
  6
CONTINUOUS
 10
-0.749299
 20
-0.190060
  0
VERTEX
  8
EBENE_1
 62
    39
  6
CONTINUOUS
 10
-0.758759
 20
-0.178797
  0
VERTEX
  8
EBENE_1
 62
    39
  6
CONTINUOUS
 10
-0.767079
 20
-0.169871
  0
VERTEX
  8
EBENE_1
 62
    39
  6
CONTINUOUS
 10
-0.774151
 20
-0.163484
  0
VERTEX
  8
EBENE_1
 62
    39
  6
CONTINUOUS
 10
-0.779866
 20
-0.159835
  0
VERTEX
  8
EBENE_1
 62
    39
  6
CONTINUOUS
 10
-0.782720
 20
-0.161976
  0
VERTEX
  8
EBENE_1
 62
    39
  6
CONTINUOUS
 10
-0.802116
 20
-0.155519
  0
VERTEX
  8
EBENE_1
 62
    39
  6
CONTINUOUS
 10
-0.821182
 20
-0.149889
  0
VERTEX
  8
EBENE_1
 62
    39
  6
CONTINUOUS
 10
-0.839890
 20
-0.145211
  0
VERTEX
  8
EBENE_1
 62
    39
  6
CONTINUOUS
 10
-0.858213
 20
-0.141610
  0
VERTEX
  8
EBENE_1
 62
    39
  6
CONTINUOUS
 10
-0.876121
 20
-0.139210
  0
VERTEX
  8
EBENE_1
 62
    39
  6
CONTINUOUS
 10
-0.893586
 20
-0.138136
  0
VERTEX
  8
EBENE_1
 62
    39
  6
CONTINUOUS
 10
-0.910581
 20
-0.138511
  0
VERTEX
  8
EBENE_1
 62
    39
  6
CONTINUOUS
 10
-0.927076
 20
-0.140461
  0
VERTEX
  8
EBENE_1
 62
    39
  6
CONTINUOUS
 10
-0.943045
 20
-0.144110
  0
VERTEX
  8
EBENE_1
 62
    39
  6
CONTINUOUS
 10
-0.958457
 20
-0.149583
  0
VERTEX
  8
EBENE_1
 62
    39
  6
CONTINUOUS
 10
-0.973286
 20
-0.157003
  0
VERTEX
  8
EBENE_1
 62
    39
  6
CONTINUOUS
 10
-0.987503
 20
-0.166496
  0
VERTEX
  8
EBENE_1
 62
    39
  6
CONTINUOUS
 10
-1.001080
 20
-0.178186
  0
VERTEX
  8
EBENE_1
 62
    39
  6
CONTINUOUS
 10
-1.013988
 20
-0.192197
  0
VERTEX
  8
EBENE_1
 62
    39
  6
CONTINUOUS
 10
-1.026199
 20
-0.208654
  0
SEQEND
  8
0
  0
POLYLINE
  8
EBENE_1
 62
    39
  6
CONTINUOUS
 66
     1
 40
0.003000
 41
0.003000
 70
     1
  0
VERTEX
  8
EBENE_1
 62
    39
  6
CONTINUOUS
 10
-1.039114
 20
-0.221252
  0
VERTEX
  8
EBENE_1
 62
    39
  6
CONTINUOUS
 10
-1.220520
 20
-0.717614
  0
VERTEX
  8
EBENE_1
 62
    39
  6
CONTINUOUS
 10
-0.592035
 20
-0.725469
  0
VERTEX
  8
EBENE_1
 62
    39
  6
CONTINUOUS
 10
-0.560416
 20
-0.718984
  0
VERTEX
  8
EBENE_1
 62
    39
  6
CONTINUOUS
 10
-0.535123
 20
-0.708943
  0
VERTEX
  8
EBENE_1
 62
    39
  6
CONTINUOUS
 10
-0.515255
 20
-0.696608
  0
VERTEX
  8
EBENE_1
 62
    39
  6
CONTINUOUS
 10
-0.499905
 20
-0.683243
  0
VERTEX
  8
EBENE_1
 62
    39
  6
CONTINUOUS
 10
-0.488171
 20
-0.670113
  0
VERTEX
  8
EBENE_1
 62
    39
  6
CONTINUOUS
 10
-0.479148
 20
-0.658481
  0
VERTEX
  8
EBENE_1
 62
    39
  6
CONTINUOUS
 10
-0.471933
 20
-0.649611
  0
VERTEX
  8
EBENE_1
 62
    39
  6
CONTINUOUS
 10
-0.465622
 20
-0.644768
  0
VERTEX
  8
EBENE_1
 62
    39
  6
CONTINUOUS
 10
-0.466406
 20
-0.642924
  0
VERTEX
  8
EBENE_1
 62
    39
  6
CONTINUOUS
 10
-0.468827
 20
-0.638214
  0
VERTEX
  8
EBENE_1
 62
    39
  6
CONTINUOUS
 10
-0.472784
 20
-0.630839
  0
VERTEX
  8
EBENE_1
 62
    39
  6
CONTINUOUS
 10
-0.478177
 20
-0.620994
  0
VERTEX
  8
EBENE_1
 62
    39
  6
CONTINUOUS
 10
-0.484902
 20
-0.608880
  0
VERTEX
  8
EBENE_1
 62
    39
  6
CONTINUOUS
 10
-0.492860
 20
-0.594695
  0
VERTEX
  8
EBENE_1
 62
    39
  6
CONTINUOUS
 10
-0.501948
 20
-0.578636
  0
VERTEX
  8
EBENE_1
 62
    39
  6
CONTINUOUS
 10
-0.512065
 20
-0.560902
  0
VERTEX
  8
EBENE_1
 62
    39
  6
CONTINUOUS
 10
-0.523110
 20
-0.541692
  0
VERTEX
  8
EBENE_1
 62
    39
  6
CONTINUOUS
 10
-0.534982
 20
-0.521204
  0
VERTEX
  8
EBENE_1
 62
    39
  6
CONTINUOUS
 10
-0.547578
 20
-0.499636
  0
VERTEX
  8
EBENE_1
 62
    39
  6
CONTINUOUS
 10
-0.560798
 20
-0.477186
  0
VERTEX
  8
EBENE_1
 62
    39
  6
CONTINUOUS
 10
-0.574540
 20
-0.454053
  0
VERTEX
  8
EBENE_1
 62
    39
  6
CONTINUOUS
 10
-0.588703
 20
-0.430436
  0
VERTEX
  8
EBENE_1
 62
    39
  6
CONTINUOUS
 10
-0.603185
 20
-0.406532
  0
VERTEX
  8
EBENE_1
 62
    39
  6
CONTINUOUS
 10
-0.617885
 20
-0.382540
  0
VERTEX
  8
EBENE_1
 62
    39
  6
CONTINUOUS
 10
-0.632702
 20
-0.358659
  0
VERTEX
  8
EBENE_1
 62
    39
  6
CONTINUOUS
 10
-0.647533
 20
-0.335086
  0
VERTEX
  8
EBENE_1
 62
    39
  6
CONTINUOUS
 10
-0.662279
 20
-0.312020
  0
VERTEX
  8
EBENE_1
 62
    39
  6
CONTINUOUS
 10
-0.676836
 20
-0.289660
  0
VERTEX
  8
EBENE_1
 62
    39
  6
CONTINUOUS
 10
-0.691105
 20
-0.268203
  0
VERTEX
  8
EBENE_1
 62
    39
  6
CONTINUOUS
 10
-0.704983
 20
-0.247849
  0
VERTEX
  8
EBENE_1
 62
    39
  6
CONTINUOUS
 10
-0.718369
 20
-0.228795
  0
VERTEX
  8
EBENE_1
 62
    39
  6
CONTINUOUS
 10
-0.731161
 20
-0.211239
  0
VERTEX
  8
EBENE_1
 62
    39
  6
CONTINUOUS
 10
-0.743259
 20
-0.195381
  0
VERTEX
  8
EBENE_1
 62
    39
  6
CONTINUOUS
 10
-0.754561
 20
-0.181418
  0
VERTEX
  8
EBENE_1
 62
    39
  6
CONTINUOUS
 10
-0.764965
 20
-0.169550
  0
VERTEX
  8
EBENE_1
 62
    39
  6
CONTINUOUS
 10
-0.774371
 20
-0.159973
  0
VERTEX
  8
EBENE_1
 62
    39
  6
CONTINUOUS
 10
-0.782676
 20
-0.152887
  0
VERTEX
  8
EBENE_1
 62
    39
  6
CONTINUOUS
 10
-0.789779
 20
-0.148490
  0
VERTEX
  8
EBENE_1
 62
    39
  6
CONTINUOUS
 10
-0.795579
 20
-0.146980
  0
VERTEX
  8
EBENE_1
 62
    39
  6
CONTINUOUS
 10
-0.795579
 20
-0.146980
  0
VERTEX
  8
EBENE_1
 62
    39
  6
CONTINUOUS
 10
-0.792008
 20
-0.149122
  0
VERTEX
  8
EBENE_1
 62
    39
  6
CONTINUOUS
 10
-0.812105
 20
-0.142335
  0
VERTEX
  8
EBENE_1
 62
    39
  6
CONTINUOUS
 10
-0.831811
 20
-0.136633
  0
VERTEX
  8
EBENE_1
 62
    39
  6
CONTINUOUS
 10
-0.851096
 20
-0.132147
  0
VERTEX
  8
EBENE_1
 62
    39
  6
CONTINUOUS
 10
-0.869933
 20
-0.129009
  0
VERTEX
  8
EBENE_1
 62
    39
  6
CONTINUOUS
 10
-0.888290
 20
-0.127352
  0
VERTEX
  8
EBENE_1
 62
    39
  6
CONTINUOUS
 10
-0.906140
 20
-0.127307
  0
VERTEX
  8
EBENE_1
 62
    39
  6
CONTINUOUS
 10
-0.923453
 20
-0.129007
  0
VERTEX
  8
EBENE_1
 62
    39
  6
CONTINUOUS
 10
-0.940199
 20
-0.132583
  0
VERTEX
  8
EBENE_1
 62
    39
  6
CONTINUOUS
 10
-0.956350
 20
-0.138168
  0
VERTEX
  8
EBENE_1
 62
    39
  6
CONTINUOUS
 10
-0.971876
 20
-0.145894
  0
VERTEX
  8
EBENE_1
 62
    39
  6
CONTINUOUS
 10
-0.986749
 20
-0.155892
  0
VERTEX
  8
EBENE_1
 62
    39
  6
CONTINUOUS
 10
-1.000938
 20
-0.168295
  0
VERTEX
  8
EBENE_1
 62
    39
  6
CONTINUOUS
 10
-1.014415
 20
-0.183234
  0
VERTEX
  8
EBENE_1
 62
    39
  6
CONTINUOUS
 10
-1.027150
 20
-0.200843
  0
VERTEX
  8
EBENE_1
 62
    39
  6
CONTINUOUS
 10
-1.039114
 20
-0.221252
  0
SEQEND
  8
0
  0
POLYLINE
  8
EBENE_1
 62
    39
  6
CONTINUOUS
 66
     1
 40
0.003000
 41
0.003000
 70
     1
  0
VERTEX
  8
EBENE_1
 62
    39
  6
CONTINUOUS
 10
-0.976268
 20
-0.175543
  0
VERTEX
  8
EBENE_1
 62
    39
  6
CONTINUOUS
 10
-0.980473
 20
-0.178059
  0
VERTEX
  8
EBENE_1
 62
    39
  6
CONTINUOUS
 10
-0.982775
 20
-0.182317
  0
VERTEX
  8
EBENE_1
 62
    39
  6
CONTINUOUS
 10
-0.982697
 20
-0.187685
  0
VERTEX
  8
EBENE_1
 62
    39
  6
CONTINUOUS
 10
-0.980210
 20
-0.191892
  0
VERTEX
  8
EBENE_1
 62
    39
  6
CONTINUOUS
 10
-0.976135
 20
-0.194194
  0
VERTEX
  8
EBENE_1
 62
    39
  6
CONTINUOUS
 10
-0.971268
 20
-0.194114
  0
VERTEX
  8
EBENE_1
 62
    39
  6
CONTINUOUS
 10
-0.966560
 20
-0.191627
  0
VERTEX
  8
EBENE_1
 62
    39
  6
CONTINUOUS
 10
-0.964073
 20
-0.187553
  0
VERTEX
  8
EBENE_1
 62
    39
  6
CONTINUOUS
 10
-0.964126
 20
-0.182685
  0
VERTEX
  8
EBENE_1
 62
    39
  6
CONTINUOUS
 10
-0.966640
 20
-0.177980
  0
VERTEX
  8
EBENE_1
 62
    39
  6
CONTINUOUS
 10
-0.970899
 20
-0.175493
  0
SEQEND
  8
0
  0
POLYLINE
  8
EBENE_1
 62
    39
  6
CONTINUOUS
 66
     1
 40
0.003000
 41
0.003000
 70
     1
  0
VERTEX
  8
EBENE_1
 62
    39
  6
CONTINUOUS
 10
-1.026260
 20
-0.261248
  0
VERTEX
  8
EBENE_1
 62
    39
  6
CONTINUOUS
 10
-1.030466
 20
-0.263735
  0
VERTEX
  8
EBENE_1
 62
    39
  6
CONTINUOUS
 10
-1.032767
 20
-0.267808
  0
VERTEX
  8
EBENE_1
 62
    39
  6
CONTINUOUS
 10
-1.032689
 20
-0.272673
  0
VERTEX
  8
EBENE_1
 62
    39
  6
CONTINUOUS
 10
-1.030519
 20
-0.276906
  0
VERTEX
  8
EBENE_1
 62
    39
  6
CONTINUOUS
 10
-1.026286
 20
-0.279394
  0
VERTEX
  8
EBENE_1
 62
    39
  6
CONTINUOUS
 10
-1.021260
 20
-0.279819
  0
VERTEX
  8
EBENE_1
 62
    39
  6
CONTINUOUS
 10
-1.017029
 20
-0.277146
  0
VERTEX
  8
EBENE_1
 62
    39
  6
CONTINUOUS
 10
-1.014543
 20
-0.272728
  0
VERTEX
  8
EBENE_1
 62
    39
  6
CONTINUOUS
 10
-1.014118
 20
-0.267677
  0
VERTEX
  8
EBENE_1
 62
    39
  6
CONTINUOUS
 10
-1.016790
 20
-0.263471
  0
VERTEX
  8
EBENE_1
 62
    39
  6
CONTINUOUS
 10
-1.021207
 20
-0.261169
  0
SEQEND
  8
0
  0
POLYLINE
  8
EBENE_1
 62
    39
  6
CONTINUOUS
 66
     1
 40
0.003000
 41
0.003000
 70
     1
  0
VERTEX
  8
EBENE_1
 62
    39
  6
CONTINUOUS
 10
-0.770583
 20
-0.205539
  0
VERTEX
  8
EBENE_1
 62
    39
  6
CONTINUOUS
 10
-0.775290
 20
-0.208211
  0
VERTEX
  8
EBENE_1
 62
    39
  6
CONTINUOUS
 10
-0.777776
 20
-0.212629
  0
VERTEX
  8
EBENE_1
 62
    39
  6
CONTINUOUS
 10
-0.777724
 20
-0.217681
  0
VERTEX
  8
EBENE_1
 62
    39
  6
CONTINUOUS
 10
-0.775237
 20
-0.221888
  0
VERTEX
  8
EBENE_1
 62
    39
  6
CONTINUOUS
 10
-0.771163
 20
-0.224190
  0
VERTEX
  8
EBENE_1
 62
    39
  6
CONTINUOUS
 10
-0.766295
 20
-0.224110
  0
VERTEX
  8
EBENE_1
 62
    39
  6
CONTINUOUS
 10
-0.761587
 20
-0.221623
  0
VERTEX
  8
EBENE_1
 62
    39
  6
CONTINUOUS
 10
-0.759100
 20
-0.217549
  0
VERTEX
  8
EBENE_1
 62
    39
  6
CONTINUOUS
 10
-0.759154
 20
-0.212681
  0
VERTEX
  8
EBENE_1
 62
    39
  6
CONTINUOUS
 10
-0.761641
 20
-0.208292
  0
VERTEX
  8
EBENE_1
 62
    39
  6
CONTINUOUS
 10
-0.765715
 20
-0.205647
  0
SEQEND
  8
0
  0
POLYLINE
  8
EBENE_1
 62
    39
  6
CONTINUOUS
 66
     1
 40
0.003000
 41
0.003000
  0
VERTEX
  8
EBENE_1
 62
    39
  6
CONTINUOUS
 10
-1.369783
 20
-0.343382
  0
VERTEX
  8
EBENE_1
 62
    39
  6
CONTINUOUS
 10
-1.481913
 20
-0.727610
  0
VERTEX
  8
EBENE_1
 62
    39
  6
CONTINUOUS
 10
-1.204807
 20
-0.725469
  0
SEQEND
  8
0
  0
POLYLINE
  8
EBENE_1
 62
    39
  6
CONTINUOUS
 66
     1
 40
0.003000
 41
0.003000
  0
VERTEX
  8
EBENE_1
 62
    39
  6
CONTINUOUS
 10
-1.204807
 20
-0.725469
  0
VERTEX
  8
EBENE_1
 62
    39
  6
CONTINUOUS
 10
-1.194912
 20
-0.724585
  0
VERTEX
  8
EBENE_1
 62
    39
  6
CONTINUOUS
 10
-1.184345
 20
-0.722639
  0
VERTEX
  8
EBENE_1
 62
    39
  6
CONTINUOUS
 10
-1.173169
 20
-0.719654
  0
VERTEX
  8
EBENE_1
 62
    39
  6
CONTINUOUS
 10
-1.161449
 20
-0.715650
  0
VERTEX
  8
EBENE_1
 62
    39
  6
CONTINUOUS
 10
-1.149248
 20
-0.710649
  0
VERTEX
  8
EBENE_1
 62
    39
  6
CONTINUOUS
 10
-1.136630
 20
-0.704673
  0
VERTEX
  8
EBENE_1
 62
    39
  6
CONTINUOUS
 10
-1.123659
 20
-0.697744
  0
VERTEX
  8
EBENE_1
 62
    39
  6
CONTINUOUS
 10
-1.110398
 20
-0.689884
  0
VERTEX
  8
EBENE_1
 62
    39
  6
CONTINUOUS
 10
-1.096910
 20
-0.681114
  0
VERTEX
  8
EBENE_1
 62
    39
  6
CONTINUOUS
 10
-1.083261
 20
-0.671456
  0
VERTEX
  8
EBENE_1
 62
    39
  6
CONTINUOUS
 10
-1.069513
 20
-0.660931
  0
VERTEX
  8
EBENE_1
 62
    39
  6
CONTINUOUS
 10
-1.055731
 20
-0.649562
  0
VERTEX
  8
EBENE_1
 62
    39
  6
CONTINUOUS
 10
-1.041977
 20
-0.637370
  0
VERTEX
  8
EBENE_1
 62
    39
  6
CONTINUOUS
 10
-1.028316
 20
-0.624377
  0
VERTEX
  8
EBENE_1
 62
    39
  6
CONTINUOUS
 10
-1.014811
 20
-0.610604
  0
VERTEX
  8
EBENE_1
 62
    39
  6
CONTINUOUS
 10
-1.001526
 20
-0.596073
  0
VERTEX
  8
EBENE_1
 62
    39
  6
CONTINUOUS
 10
-0.988526
 20
-0.580807
  0
VERTEX
  8
EBENE_1
 62
    39
  6
CONTINUOUS
 10
-0.975872
 20
-0.564826
  0
VERTEX
  8
EBENE_1
 62
    39
  6
CONTINUOUS
 10
-0.963630
 20
-0.548153
  0
VERTEX
  8
EBENE_1
 62
    39
  6
CONTINUOUS
 10
-0.951863
 20
-0.530809
  0
VERTEX
  8
EBENE_1
 62
    39
  6
CONTINUOUS
 10
-0.940635
 20
-0.512815
  0
VERTEX
  8
EBENE_1
 62
    39
  6
CONTINUOUS
 10
-0.930009
 20
-0.494194
  0
VERTEX
  8
EBENE_1
 62
    39
  6
CONTINUOUS
 10
-0.920049
 20
-0.474968
  0
VERTEX
  8
EBENE_1
 62
    39
  6
CONTINUOUS
 10
-0.910819
 20
-0.455157
  0
VERTEX
  8
EBENE_1
 62
    39
  6
CONTINUOUS
 10
-0.902382
 20
-0.434785
  0
VERTEX
  8
EBENE_1
 62
    39
  6
CONTINUOUS
 10
-0.894803
 20
-0.413871
  0
VERTEX
  8
EBENE_1
 62
    39
  6
CONTINUOUS
 10
-0.888145
 20
-0.392439
  0
VERTEX
  8
EBENE_1
 62
    39
  6
CONTINUOUS
 10
-0.882471
 20
-0.370510
  0
VERTEX
  8
EBENE_1
 62
    39
  6
CONTINUOUS
 10
-0.877846
 20
-0.348105
  0
VERTEX
  8
EBENE_1
 62
    39
  6
CONTINUOUS
 10
-0.874333
 20
-0.325247
  0
VERTEX
  8
EBENE_1
 62
    39
  6
CONTINUOUS
 10
-0.871996
 20
-0.301957
  0
SEQEND
  8
0
  0
POLYLINE
  8
EBENE_1
 62
    39
  6
CONTINUOUS
 66
     1
 40
0.003000
 41
0.003000
  0
VERTEX
  8
EBENE_1
 62
    39
  6
CONTINUOUS
 10
-0.871996
 20
-0.301957
  0
VERTEX
  8
EBENE_1
 62
    39
  6
CONTINUOUS
 10
-0.875613
 20
-0.276856
  0
VERTEX
  8
EBENE_1
 62
    39
  6
CONTINUOUS
 10
-0.882787
 20
-0.255258
  0
VERTEX
  8
EBENE_1
 62
    39
  6
CONTINUOUS
 10
-0.892999
 20
-0.237017
  0
VERTEX
  8
EBENE_1
 62
    39
  6
CONTINUOUS
 10
-0.905733
 20
-0.221986
  0
VERTEX
  8
EBENE_1
 62
    39
  6
CONTINUOUS
 10
-0.920471
 20
-0.210017
  0
VERTEX
  8
EBENE_1
 62
    39
  6
CONTINUOUS
 10
-0.936697
 20
-0.200963
  0
VERTEX
  8
EBENE_1
 62
    39
  6
CONTINUOUS
 10
-0.953892
 20
-0.194678
  0
VERTEX
  8
EBENE_1
 62
    39
  6
CONTINUOUS
 10
-0.971539
 20
-0.191015
  0
VERTEX
  8
EBENE_1
 62
    39
  6
CONTINUOUS
 10
-0.989122
 20
-0.189827
  0
SEQEND
  8
0
  0
POLYLINE
  8
EBENE_1
 62
    39
  6
CONTINUOUS
 66
     1
 40
0.003000
 41
0.003000
  0
VERTEX
  8
EBENE_1
 62
    39
  6
CONTINUOUS
 10
-0.989122
 20
-0.189827
  0
VERTEX
  8
EBENE_1
 62
    39
  6
CONTINUOUS
 10
-1.261228
 20
-0.259106
  0
SEQEND
  8
0
  0
POLYLINE
  8
EBENE_1
 62
    39
  6
CONTINUOUS
 66
     1
 40
0.003000
 41
0.003000
  0
VERTEX
  8
EBENE_1
 62
    39
  6
CONTINUOUS
 10
-1.261228
 20
-0.259106
  0
VERTEX
  8
EBENE_1
 62
    39
  6
CONTINUOUS
 10
-1.287705
 20
-0.262050
  0
VERTEX
  8
EBENE_1
 62
    39
  6
CONTINUOUS
 10
-1.308548
 20
-0.270067
  0
VERTEX
  8
EBENE_1
 62
    39
  6
CONTINUOUS
 10
-1.324943
 20
-0.281931
  0
VERTEX
  8
EBENE_1
 62
    39
  6
CONTINUOUS
 10
-1.338077
 20
-0.296419
  0
VERTEX
  8
EBENE_1
 62
    39
  6
CONTINUOUS
 10
-1.349138
 20
-0.312306
  0
VERTEX
  8
EBENE_1
 62
    39
  6
CONTINUOUS
 10
-1.359311
 20
-0.328369
  0
VERTEX
  8
EBENE_1
 62
    39
  6
CONTINUOUS
 10
-1.369783
 20
-0.343382
  0
SEQEND
  8
0
  0
POLYLINE
  8
EBENE_1
 62
    39
  6
CONTINUOUS
 66
     1
 40
0.003000
 41
0.003000
 70
     1
  0
VERTEX
  8
EBENE_1
 62
    39
  6
CONTINUOUS
 10
-1.363358
 20
-0.331953
  0
VERTEX
  8
EBENE_1
 62
    39
  6
CONTINUOUS
 10
-1.479055
 20
-0.721185
  0
VERTEX
  8
EBENE_1
 62
    39
  6
CONTINUOUS
 10
-1.206236
 20
-0.719756
  0
VERTEX
  8
EBENE_1
 62
    39
  6
CONTINUOUS
 10
-1.196488
 20
-0.718814
  0
VERTEX
  8
EBENE_1
 62
    39
  6
CONTINUOUS
 10
-1.186084
 20
-0.716833
  0
VERTEX
  8
EBENE_1
 62
    39
  6
CONTINUOUS
 10
-1.175087
 20
-0.713832
  0
VERTEX
  8
EBENE_1
 62
    39
  6
CONTINUOUS
 10
-1.163559
 20
-0.709835
  0
VERTEX
  8
EBENE_1
 62
    39
  6
CONTINUOUS
 10
-1.151562
 20
-0.704861
  0
VERTEX
  8
EBENE_1
 62
    39
  6
CONTINUOUS
 10
-1.139158
 20
-0.698932
  0
VERTEX
  8
EBENE_1
 62
    39
  6
CONTINUOUS
 10
-1.126410
 20
-0.692070
  0
VERTEX
  8
EBENE_1
 62
    39
  6
CONTINUOUS
 10
-1.113381
 20
-0.684296
  0
VERTEX
  8
EBENE_1
 62
    39
  6
CONTINUOUS
 10
-1.100131
 20
-0.675630
  0
VERTEX
  8
EBENE_1
 62
    39
  6
CONTINUOUS
 10
-1.086725
 20
-0.666095
  0
VERTEX
  8
EBENE_1
 62
    39
  6
CONTINUOUS
 10
-1.073223
 20
-0.655712
  0
VERTEX
  8
EBENE_1
 62
    39
  6
CONTINUOUS
 10
-1.059689
 20
-0.644501
  0
VERTEX
  8
EBENE_1
 62
    39
  6
CONTINUOUS
 10
-1.046184
 20
-0.632485
  0
VERTEX
  8
EBENE_1
 62
    39
  6
CONTINUOUS
 10
-1.032770
 20
-0.619684
  0
VERTEX
  8
EBENE_1
 62
    39
  6
CONTINUOUS
 10
-1.019511
 20
-0.606120
  0
VERTEX
  8
EBENE_1
 62
    39
  6
CONTINUOUS
 10
-1.006468
 20
-0.591814
  0
VERTEX
  8
EBENE_1
 62
    39
  6
CONTINUOUS
 10
-0.993704
 20
-0.576788
  0
VERTEX
  8
EBENE_1
 62
    39
  6
CONTINUOUS
 10
-0.981281
 20
-0.561062
  0
VERTEX
  8
EBENE_1
 62
    39
  6
CONTINUOUS
 10
-0.969260
 20
-0.544658
  0
VERTEX
  8
EBENE_1
 62
    39
  6
CONTINUOUS
 10
-0.957706
 20
-0.527597
  0
VERTEX
  8
EBENE_1
 62
    39
  6
CONTINUOUS
 10
-0.946679
 20
-0.509900
  0
VERTEX
  8
EBENE_1
 62
    39
  6
CONTINUOUS
 10
-0.936242
 20
-0.491590
  0
VERTEX
  8
EBENE_1
 62
    39
  6
CONTINUOUS
 10
-0.926457
 20
-0.472687
  0
VERTEX
  8
EBENE_1
 62
    39
  6
CONTINUOUS
 10
-0.917387
 20
-0.453211
  0
VERTEX
  8
EBENE_1
 62
    39
  6
CONTINUOUS
 10
-0.909094
 20
-0.433186
  0
VERTEX
  8
EBENE_1
 62
    39
  6
CONTINUOUS
 10
-0.901640
 20
-0.412632
  0
VERTEX
  8
EBENE_1
 62
    39
  6
CONTINUOUS
 10
-0.895088
 20
-0.391570
  0
VERTEX
  8
EBENE_1
 62
    39
  6
CONTINUOUS
 10
-0.889499
 20
-0.370021
  0
VERTEX
  8
EBENE_1
 62
    39
  6
CONTINUOUS
 10
-0.884936
 20
-0.348007
  0
VERTEX
  8
EBENE_1
 62
    39
  6
CONTINUOUS
 10
-0.881462
 20
-0.325550
  0
VERTEX
  8
EBENE_1
 62
    39
  6
CONTINUOUS
 10
-0.879138
 20
-0.302669
  0
VERTEX
  8
EBENE_1
 62
    39
  6
CONTINUOUS
 10
-0.879138
 20
-0.302669
  0
VERTEX
  8
EBENE_1
 62
    39
  6
CONTINUOUS
 10
-0.882699
 20
-0.275092
  0
VERTEX
  8
EBENE_1
 62
    39
  6
CONTINUOUS
 10
-0.889415
 20
-0.251707
  0
VERTEX
  8
EBENE_1
 62
    39
  6
CONTINUOUS
 10
-0.898960
 20
-0.232356
  0
VERTEX
  8
EBENE_1
 62
    39
  6
CONTINUOUS
 10
-0.911008
 20
-0.216879
  0
VERTEX
  8
EBENE_1
 62
    39
  6
CONTINUOUS
 10
-0.925232
 20
-0.205119
  0
VERTEX
  8
EBENE_1
 62
    39
  6
CONTINUOUS
 10
-0.941305
 20
-0.196915
  0
VERTEX
  8
EBENE_1
 62
    39
  6
CONTINUOUS
 10
-0.958902
 20
-0.192110
  0
VERTEX
  8
EBENE_1
 62
    39
  6
CONTINUOUS
 10
-0.977697
 20
-0.190543
  0
VERTEX
  8
EBENE_1
 62
    39
  6
CONTINUOUS
 10
-1.246228
 20
-0.254106
  0
VERTEX
  8
EBENE_1
 62
    39
  6
CONTINUOUS
 10
-1.277262
 20
-0.260726
  0
VERTEX
  8
EBENE_1
 62
    39
  6
CONTINUOUS
 10
-1.300389
 20
-0.268868
  0
VERTEX
  8
EBENE_1
 62
    39
  6
CONTINUOUS
 10
-1.317067
 20
-0.278098
  0
VERTEX
  8
EBENE_1
 62
    39
  6
CONTINUOUS
 10
-1.328755
 20
-0.287980
  0
VERTEX
  8
EBENE_1
 62
    39
  6
CONTINUOUS
 10
-1.336910
 20
-0.298079
  0
VERTEX
  8
EBENE_1
 62
    39
  6
CONTINUOUS
 10
-1.342990
 20
-0.307961
  0
VERTEX
  8
EBENE_1
 62
    39
  6
CONTINUOUS
 10
-1.348452
 20
-0.317191
  0
VERTEX
  8
EBENE_1
 62
    39
  6
CONTINUOUS
 10
-1.354756
 20
-0.325333
  0
SEQEND
  8
0
  0
POLYLINE
  8
EBENE_1
 62
    39
  6
CONTINUOUS
 66
     1
 40
0.003000
 41
0.003000
 70
     1
  0
VERTEX
  8
EBENE_1
 62
    39
  6
CONTINUOUS
 10
-0.407772
 20
-0.155547
  0
VERTEX
  8
EBENE_1
 62
    39
  6
CONTINUOUS
 10
-0.141382
 20
-0.592630
  0
VERTEX
  8
EBENE_1
 62
    39
  6
CONTINUOUS
 10
-0.420630
 20
-0.665480
  0
VERTEX
  8
EBENE_1
 62
    39
  6
CONTINUOUS
 10
-0.430162
 20
-0.667165
  0
VERTEX
  8
EBENE_1
 62
    39
  6
CONTINUOUS
 10
-0.440542
 20
-0.668067
  0
VERTEX
  8
EBENE_1
 62
    39
  6
CONTINUOUS
 10
-0.451712
 20
-0.668189
  0
VERTEX
  8
EBENE_1
 62
    39
  6
CONTINUOUS
 10
-0.463614
 20
-0.667537
  0
VERTEX
  8
EBENE_1
 62
    39
  6
CONTINUOUS
 10
-0.476191
 20
-0.666113
  0
VERTEX
  8
EBENE_1
 62
    39
  6
CONTINUOUS
 10
-0.489384
 20
-0.663922
  0
VERTEX
  8
EBENE_1
 62
    39
  6
CONTINUOUS
 10
-0.503138
 20
-0.660967
  0
VERTEX
  8
EBENE_1
 62
    39
  6
CONTINUOUS
 10
-0.517393
 20
-0.657253
  0
VERTEX
  8
EBENE_1
 62
    39
  6
CONTINUOUS
 10
-0.532092
 20
-0.652784
  0
VERTEX
  8
EBENE_1
 62
    39
  6
CONTINUOUS
 10
-0.547178
 20
-0.647563
  0
VERTEX
  8
EBENE_1
 62
    39
  6
CONTINUOUS
 10
-0.562594
 20
-0.641594
  0
VERTEX
  8
EBENE_1
 62
    39
  6
CONTINUOUS
 10
-0.578281
 20
-0.634881
  0
VERTEX
  8
EBENE_1
 62
    39
  6
CONTINUOUS
 10
-0.594181
 20
-0.627429
  0
VERTEX
  8
EBENE_1
 62
    39
  6
CONTINUOUS
 10
-0.610238
 20
-0.619241
  0
VERTEX
  8
EBENE_1
 62
    39
  6
CONTINUOUS
 10
-0.626394
 20
-0.610321
  0
VERTEX
  8
EBENE_1
 62
    39
  6
CONTINUOUS
 10
-0.642591
 20
-0.600673
  0
VERTEX
  8
EBENE_1
 62
    39
  6
CONTINUOUS
 10
-0.658772
 20
-0.590301
  0
VERTEX
  8
EBENE_1
 62
    39
  6
CONTINUOUS
 10
-0.674878
 20
-0.579209
  0
VERTEX
  8
EBENE_1
 62
    39
  6
CONTINUOUS
 10
-0.690853
 20
-0.567401
  0
VERTEX
  8
EBENE_1
 62
    39
  6
CONTINUOUS
 10
-0.706638
 20
-0.554880
  0
VERTEX
  8
EBENE_1
 62
    39
  6
CONTINUOUS
 10
-0.722177
 20
-0.541652
  0
VERTEX
  8
EBENE_1
 62
    39
  6
CONTINUOUS
 10
-0.737411
 20
-0.527719
  0
VERTEX
  8
EBENE_1
 62
    39
  6
CONTINUOUS
 10
-0.752284
 20
-0.513085
  0
VERTEX
  8
EBENE_1
 62
    39
  6
CONTINUOUS
 10
-0.766736
 20
-0.497755
  0
VERTEX
  8
EBENE_1
 62
    39
  6
CONTINUOUS
 10
-0.780712
 20
-0.481733
  0
VERTEX
  8
EBENE_1
 62
    39
  6
CONTINUOUS
 10
-0.794153
 20
-0.465022
  0
VERTEX
  8
EBENE_1
 62
    39
  6
CONTINUOUS
 10
-0.807001
 20
-0.447626
  0
VERTEX
  8
EBENE_1
 62
    39
  6
CONTINUOUS
 10
-0.819199
 20
-0.429550
  0
VERTEX
  8
EBENE_1
 62
    39
  6
CONTINUOUS
 10
-0.830690
 20
-0.410796
  0
VERTEX
  8
EBENE_1
 62
    39
  6
CONTINUOUS
 10
-0.841416
 20
-0.391370
  0
VERTEX
  8
EBENE_1
 62
    39
  6
CONTINUOUS
 10
-0.851318
 20
-0.371275
  0
VERTEX
  8
EBENE_1
 62
    39
  6
CONTINUOUS
 10
-0.860341
 20
-0.350515
  0
VERTEX
  8
EBENE_1
 62
    39
  6
CONTINUOUS
 10
-0.868425
 20
-0.329094
  0
VERTEX
  8
EBENE_1
 62
    39
  6
CONTINUOUS
 10
-0.868425
 20
-0.329094
  0
VERTEX
  8
EBENE_1
 62
    39
  6
CONTINUOUS
 10
-0.872067
 20
-0.302595
  0
VERTEX
  8
EBENE_1
 62
    39
  6
CONTINUOUS
 10
-0.872224
 20
-0.277970
  0
VERTEX
  8
EBENE_1
 62
    39
  6
CONTINUOUS
 10
-0.869165
 20
-0.255402
  0
VERTEX
  8
EBENE_1
 62
    39
  6
CONTINUOUS
 10
-0.863162
 20
-0.235073
  0
VERTEX
  8
EBENE_1
 62
    39
  6
CONTINUOUS
 10
-0.854484
 20
-0.217167
  0
VERTEX
  8
EBENE_1
 62
    39
  6
CONTINUOUS
 10
-0.843402
 20
-0.201865
  0
VERTEX
  8
EBENE_1
 62
    39
  6
CONTINUOUS
 10
-0.830185
 20
-0.189349
  0
VERTEX
  8
EBENE_1
 62
    39
  6
CONTINUOUS
 10
-0.815106
 20
-0.179802
  0
VERTEX
  8
EBENE_1
 62
    39
  6
CONTINUOUS
 10
-0.798433
 20
-0.173406
  0
VERTEX
  8
EBENE_1
 62
    39
  6
CONTINUOUS
 10
-0.507760
 20
-0.095555
  0
VERTEX
  8
EBENE_1
 62
    39
  6
CONTINUOUS
 10
-0.482245
 20
-0.091683
  0
VERTEX
  8
EBENE_1
 62
    39
  6
CONTINUOUS
 10
-0.463763
 20
-0.094832
  0
VERTEX
  8
EBENE_1
 62
    39
  6
CONTINUOUS
 10
-0.450341
 20
-0.103277
  0
VERTEX
  8
EBENE_1
 62
    39
  6
CONTINUOUS
 10
-0.440005
 20
-0.115296
  0
VERTEX
  8
EBENE_1
 62
    39
  6
CONTINUOUS
 10
-0.430781
 20
-0.129163
  0
VERTEX
  8
EBENE_1
 62
    39
  6
CONTINUOUS
 10
-0.420694
 20
-0.143155
  0
SEQEND
  8
0
  0
POLYLINE
  8
EBENE_1
 62
    39
  6
CONTINUOUS
 66
     1
 40
0.003000
 41
0.003000
 70
     1
  0
VERTEX
  8
EBENE_1
 62
    39
  6
CONTINUOUS
 10
-0.407772
 20
-0.157693
  0
VERTEX
  8
EBENE_1
 62
    39
  6
CONTINUOUS
 10
-0.145665
 20
-0.587630
  0
VERTEX
  8
EBENE_1
 62
    39
  6
CONTINUOUS
 10
-0.420630
 20
-0.659051
  0
VERTEX
  8
EBENE_1
 62
    39
  6
CONTINUOUS
 10
-0.430269
 20
-0.660718
  0
VERTEX
  8
EBENE_1
 62
    39
  6
CONTINUOUS
 10
-0.440800
 20
-0.661568
  0
VERTEX
  8
EBENE_1
 62
    39
  6
CONTINUOUS
 10
-0.452160
 20
-0.661606
  0
VERTEX
  8
EBENE_1
 62
    39
  6
CONTINUOUS
 10
-0.464286
 20
-0.660837
  0
VERTEX
  8
EBENE_1
 62
    39
  6
CONTINUOUS
 10
-0.477115
 20
-0.659265
  0
VERTEX
  8
EBENE_1
 62
    39
  6
CONTINUOUS
 10
-0.490585
 20
-0.656893
  0
VERTEX
  8
EBENE_1
 62
    39
  6
CONTINUOUS
 10
-0.504634
 20
-0.653726
  0
VERTEX
  8
EBENE_1
 62
    39
  6
CONTINUOUS
 10
-0.519198
 20
-0.649768
  0
VERTEX
  8
EBENE_1
 62
    39
  6
CONTINUOUS
 10
-0.534215
 20
-0.645023
  0
VERTEX
  8
EBENE_1
 62
    39
  6
CONTINUOUS
 10
-0.549623
 20
-0.639496
  0
VERTEX
  8
EBENE_1
 62
    39
  6
CONTINUOUS
 10
-0.565358
 20
-0.633190
  0
VERTEX
  8
EBENE_1
 62
    39
  6
CONTINUOUS
 10
-0.581358
 20
-0.626110
  0
VERTEX
  8
EBENE_1
 62
    39
  6
CONTINUOUS
 10
-0.597561
 20
-0.618260
  0
VERTEX
  8
EBENE_1
 62
    39
  6
CONTINUOUS
 10
-0.613904
 20
-0.609645
  0
VERTEX
  8
EBENE_1
 62
    39
  6
CONTINUOUS
 10
-0.630324
 20
-0.600268
  0
VERTEX
  8
EBENE_1
 62
    39
  6
CONTINUOUS
 10
-0.646758
 20
-0.590133
  0
VERTEX
  8
EBENE_1
 62
    39
  6
CONTINUOUS
 10
-0.663144
 20
-0.579245
  0
VERTEX
  8
EBENE_1
 62
    39
  6
CONTINUOUS
 10
-0.679419
 20
-0.567608
  0
VERTEX
  8
EBENE_1
 62
    39
  6
CONTINUOUS
 10
-0.695521
 20
-0.555226
  0
VERTEX
  8
EBENE_1
 62
    39
  6
CONTINUOUS
 10
-0.711387
 20
-0.542104
  0
VERTEX
  8
EBENE_1
 62
    39
  6
CONTINUOUS
 10
-0.726955
 20
-0.528244
  0
VERTEX
  8
EBENE_1
 62
    39
  6
CONTINUOUS
 10
-0.742161
 20
-0.513653
  0
VERTEX
  8
EBENE_1
 62
    39
  6
CONTINUOUS
 10
-0.756943
 20
-0.498333
  0
VERTEX
  8
EBENE_1
 62
    39
  6
CONTINUOUS
 10
-0.771238
 20
-0.482290
  0
VERTEX
  8
EBENE_1
 62
    39
  6
CONTINUOUS
 10
-0.784984
 20
-0.465527
  0
VERTEX
  8
EBENE_1
 62
    39
  6
CONTINUOUS
 10
-0.798118
 20
-0.448048
  0
VERTEX
  8
EBENE_1
 62
    39
  6
CONTINUOUS
 10
-0.810578
 20
-0.429858
  0
VERTEX
  8
EBENE_1
 62
    39
  6
CONTINUOUS
 10
-0.822301
 20
-0.410960
  0
VERTEX
  8
EBENE_1
 62
    39
  6
CONTINUOUS
 10
-0.833224
 20
-0.391360
  0
VERTEX
  8
EBENE_1
 62
    39
  6
CONTINUOUS
 10
-0.843284
 20
-0.371060
  0
VERTEX
  8
EBENE_1
 62
    39
  6
CONTINUOUS
 10
-0.852419
 20
-0.350066
  0
VERTEX
  8
EBENE_1
 62
    39
  6
CONTINUOUS
 10
-0.860567
 20
-0.328382
  0
VERTEX
  8
EBENE_1
 62
    39
  6
CONTINUOUS
 10
-0.864236
 20
-0.302331
  0
VERTEX
  8
EBENE_1
 62
    39
  6
CONTINUOUS
 10
-0.864466
 20
-0.278102
  0
VERTEX
  8
EBENE_1
 62
    39
  6
CONTINUOUS
 10
-0.861521
 20
-0.255878
  0
VERTEX
  8
EBENE_1
 62
    39
  6
CONTINUOUS
 10
-0.855667
 20
-0.235840
  0
VERTEX
  8
EBENE_1
 62
    39
  6
CONTINUOUS
 10
-0.847167
 20
-0.218172
  0
VERTEX
  8
EBENE_1
 62
    39
  6
CONTINUOUS
 10
-0.836287
 20
-0.203054
  0
VERTEX
  8
EBENE_1
 62
    39
  6
CONTINUOUS
 10
-0.823291
 20
-0.190670
  0
VERTEX
  8
EBENE_1
 62
    39
  6
CONTINUOUS
 10
-0.808443
 20
-0.181201
  0
VERTEX
  8
EBENE_1
 62
    39
  6
CONTINUOUS
 10
-0.792008
 20
-0.174831
  0
VERTEX
  8
EBENE_1
 62
    39
  6
CONTINUOUS
 10
-0.506331
 20
-0.098413
  0
VERTEX
  8
EBENE_1
 62
    39
  6
CONTINUOUS
 10
-0.481119
 20
-0.094500
  0
VERTEX
  8
EBENE_1
 62
    39
  6
CONTINUOUS
 10
-0.462929
 20
-0.097546
  0
VERTEX
  8
EBENE_1
 62
    39
  6
CONTINUOUS
 10
-0.449774
 20
-0.105852
  0
VERTEX
  8
EBENE_1
 62
    39
  6
CONTINUOUS
 10
-0.439667
 20
-0.117719
  0
VERTEX
  8
EBENE_1
 62
    39
  6
CONTINUOUS
 10
-0.430622
 20
-0.131448
  0
VERTEX
  8
EBENE_1
 62
    39
  6
CONTINUOUS
 10
-0.420652
 20
-0.145339
  0
SEQEND
  8
0
  0
POLYLINE
  8
EBENE_1
 62
    39
  6
CONTINUOUS
 66
     1
 40
0.003000
 41
0.003000
 70
     1
  0
VERTEX
  8
EBENE_1
 62
    39
  6
CONTINUOUS
 10
-0.641315
 20
-0.176976
  0
VERTEX
  8
EBENE_1
 62
    39
  6
CONTINUOUS
 10
-0.636182
 20
-0.175680
  0
VERTEX
  8
EBENE_1
 62
    39
  6
CONTINUOUS
 10
-0.632637
 20
-0.172319
  0
VERTEX
  8
EBENE_1
 62
    39
  6
CONTINUOUS
 10
-0.631315
 20
-0.167689
  0
VERTEX
  8
EBENE_1
 62
    39
  6
CONTINUOUS
 10
-0.632637
 20
-0.163060
  0
VERTEX
  8
EBENE_1
 62
    39
  6
CONTINUOUS
 10
-0.636182
 20
-0.159701
  0
VERTEX
  8
EBENE_1
 62
    39
  6
CONTINUOUS
 10
-0.641315
 20
-0.158406
  0
VERTEX
  8
EBENE_1
 62
    39
  6
CONTINUOUS
 10
-0.645942
 20
-0.159701
  0
VERTEX
  8
EBENE_1
 62
    39
  6
CONTINUOUS
 10
-0.649302
 20
-0.163060
  0
VERTEX
  8
EBENE_1
 62
    39
  6
CONTINUOUS
 10
-0.650598
 20
-0.167689
  0
VERTEX
  8
EBENE_1
 62
    39
  6
CONTINUOUS
 10
-0.649302
 20
-0.172319
  0
VERTEX
  8
EBENE_1
 62
    39
  6
CONTINUOUS
 10
-0.645942
 20
-0.175680
  0
SEQEND
  8
0
  0
POLYLINE
  8
EBENE_1
 62
    39
  6
CONTINUOUS
 66
     1
 40
0.003000
 41
0.003000
 70
     1
  0
VERTEX
  8
EBENE_1
 62
    39
  6
CONTINUOUS
 10
-0.539185
 20
-0.155547
  0
VERTEX
  8
EBENE_1
 62
    39
  6
CONTINUOUS
 10
-0.534052
 20
-0.154225
  0
VERTEX
  8
EBENE_1
 62
    39
  6
CONTINUOUS
 10
-0.530507
 20
-0.150682
  0
VERTEX
  8
EBENE_1
 62
    39
  6
CONTINUOUS
 10
-0.529185
 20
-0.145551
  0
VERTEX
  8
EBENE_1
 62
    39
  6
CONTINUOUS
 10
-0.530507
 20
-0.140921
  0
VERTEX
  8
EBENE_1
 62
    39
  6
CONTINUOUS
 10
-0.534052
 20
-0.137561
  0
VERTEX
  8
EBENE_1
 62
    39
  6
CONTINUOUS
 10
-0.539185
 20
-0.136264
  0
VERTEX
  8
EBENE_1
 62
    39
  6
CONTINUOUS
 10
-0.543812
 20
-0.137561
  0
VERTEX
  8
EBENE_1
 62
    39
  6
CONTINUOUS
 10
-0.547172
 20
-0.140921
  0
VERTEX
  8
EBENE_1
 62
    39
  6
CONTINUOUS
 10
-0.548469
 20
-0.145551
  0
VERTEX
  8
EBENE_1
 62
    39
  6
CONTINUOUS
 10
-0.547172
 20
-0.150682
  0
VERTEX
  8
EBENE_1
 62
    39
  6
CONTINUOUS
 10
-0.543812
 20
-0.154225
  0
SEQEND
  8
0
  0
POLYLINE
  8
EBENE_1
 62
    39
  6
CONTINUOUS
 66
     1
 40
0.003000
 41
0.003000
 70
     1
  0
VERTEX
  8
EBENE_1
 62
    39
  6
CONTINUOUS
 10
-0.439197
 20
-0.193402
  0
VERTEX
  8
EBENE_1
 62
    39
  6
CONTINUOUS
 10
-0.434568
 20
-0.192105
  0
VERTEX
  8
EBENE_1
 62
    39
  6
CONTINUOUS
 10
-0.431209
 20
-0.188744
  0
VERTEX
  8
EBENE_1
 62
    39
  6
CONTINUOUS
 10
-0.429913
 20
-0.184114
  0
VERTEX
  8
EBENE_1
 62
    39
  6
CONTINUOUS
 10
-0.431209
 20
-0.179485
  0
VERTEX
  8
EBENE_1
 62
    39
  6
CONTINUOUS
 10
-0.434568
 20
-0.176126
  0
VERTEX
  8
EBENE_1
 62
    39
  6
CONTINUOUS
 10
-0.439197
 20
-0.174831
  0
VERTEX
  8
EBENE_1
 62
    39
  6
CONTINUOUS
 10
-0.444012
 20
-0.176126
  0
VERTEX
  8
EBENE_1
 62
    39
  6
CONTINUOUS
 10
-0.447715
 20
-0.179485
  0
VERTEX
  8
EBENE_1
 62
    39
  6
CONTINUOUS
 10
-0.449197
 20
-0.184114
  0
VERTEX
  8
EBENE_1
 62
    39
  6
CONTINUOUS
 10
-0.447715
 20
-0.188744
  0
VERTEX
  8
EBENE_1
 62
    39
  6
CONTINUOUS
 10
-0.444012
 20
-0.192105
  0
SEQEND
  8
0
  0
POLYLINE
  8
EBENE_1
 62
    39
  6
CONTINUOUS
 66
     1
 40
0.003000
 41
0.003000
 70
     1
  0
VERTEX
  8
EBENE_1
 62
    39
  6
CONTINUOUS
 10
-0.122815
 20
-0.081272
  0
VERTEX
  8
EBENE_1
 62
    39
  6
CONTINUOUS
 10
0.143575
 20
-0.518354
  0
VERTEX
  8
EBENE_1
 62
    39
  6
CONTINUOUS
 10
-0.135669
 20
-0.591201
  0
VERTEX
  8
EBENE_1
 62
    39
  6
CONTINUOUS
 10
-0.145202
 20
-0.592825
  0
VERTEX
  8
EBENE_1
 62
    39
  6
CONTINUOUS
 10
-0.155582
 20
-0.593673
  0
VERTEX
  8
EBENE_1
 62
    39
  6
CONTINUOUS
 10
-0.166751
 20
-0.593750
  0
VERTEX
  8
EBENE_1
 62
    39
  6
CONTINUOUS
 10
-0.178653
 20
-0.593058
  0
VERTEX
  8
EBENE_1
 62
    39
  6
CONTINUOUS
 10
-0.191230
 20
-0.591601
  0
VERTEX
  8
EBENE_1
 62
    39
  6
CONTINUOUS
 10
-0.204424
 20
-0.589383
  0
VERTEX
  8
EBENE_1
 62
    39
  6
CONTINUOUS
 10
-0.218177
 20
-0.586407
  0
VERTEX
  8
EBENE_1
 62
    39
  6
CONTINUOUS
 10
-0.232432
 20
-0.582677
  0
VERTEX
  8
EBENE_1
 62
    39
  6
CONTINUOUS
 10
-0.247132
 20
-0.578197
  0
VERTEX
  8
EBENE_1
 62
    39
  6
CONTINUOUS
 10
-0.262218
 20
-0.572970
  0
VERTEX
  8
EBENE_1
 62
    39
  6
CONTINUOUS
 10
-0.277633
 20
-0.566999
  0
VERTEX
  8
EBENE_1
 62
    39
  6
CONTINUOUS
 10
-0.293320
 20
-0.560289
  0
VERTEX
  8
EBENE_1
 62
    39
  6
CONTINUOUS
 10
-0.309221
 20
-0.552843
  0
VERTEX
  8
EBENE_1
 62
    39
  6
CONTINUOUS
 10
-0.325278
 20
-0.544664
  0
VERTEX
  8
EBENE_1
 62
    39
  6
CONTINUOUS
 10
-0.341434
 20
-0.535755
  0
VERTEX
  8
EBENE_1
 62
    39
  6
CONTINUOUS
 10
-0.357630
 20
-0.526122
  0
VERTEX
  8
EBENE_1
 62
    39
  6
CONTINUOUS
 10
-0.373811
 20
-0.515766
  0
VERTEX
  8
EBENE_1
 62
    39
  6
CONTINUOUS
 10
-0.389917
 20
-0.504692
  0
VERTEX
  8
EBENE_1
 62
    39
  6
CONTINUOUS
 10
-0.405892
 20
-0.492904
  0
VERTEX
  8
EBENE_1
 62
    39
  6
CONTINUOUS
 10
-0.421678
 20
-0.480404
  0
VERTEX
  8
EBENE_1
 62
    39
  6
CONTINUOUS
 10
-0.437217
 20
-0.467197
  0
VERTEX
  8
EBENE_1
 62
    39
  6
CONTINUOUS
 10
-0.452451
 20
-0.453285
  0
VERTEX
  8
EBENE_1
 62
    39
  6
CONTINUOUS
 10
-0.467323
 20
-0.438674
  0
VERTEX
  8
EBENE_1
 62
    39
  6
CONTINUOUS
 10
-0.481776
 20
-0.423365
  0
VERTEX
  8
EBENE_1
 62
    39
  6
CONTINUOUS
 10
-0.495751
 20
-0.407363
  0
VERTEX
  8
EBENE_1
 62
    39
  6
CONTINUOUS
 10
-0.509192
 20
-0.390671
  0
VERTEX
  8
EBENE_1
 62
    39
  6
CONTINUOUS
 10
-0.522040
 20
-0.373294
  0
VERTEX
  8
EBENE_1
 62
    39
  6
CONTINUOUS
 10
-0.534239
 20
-0.355233
  0
VERTEX
  8
EBENE_1
 62
    39
  6
CONTINUOUS
 10
-0.545729
 20
-0.336494
  0
VERTEX
  8
EBENE_1
 62
    39
  6
CONTINUOUS
 10
-0.556455
 20
-0.317080
  0
VERTEX
  8
EBENE_1
 62
    39
  6
CONTINUOUS
 10
-0.566358
 20
-0.296993
  0
VERTEX
  8
EBENE_1
 62
    39
  6
CONTINUOUS
 10
-0.575380
 20
-0.276238
  0
VERTEX
  8
EBENE_1
 62
    39
  6
CONTINUOUS
 10
-0.583465
 20
-0.254819
  0
VERTEX
  8
EBENE_1
 62
    39
  6
CONTINUOUS
 10
-0.583465
 20
-0.254819
  0
VERTEX
  8
EBENE_1
 62
    39
  6
CONTINUOUS
 10
-0.587107
 20
-0.228295
  0
VERTEX
  8
EBENE_1
 62
    39
  6
CONTINUOUS
 10
-0.587263
 20
-0.203612
  0
VERTEX
  8
EBENE_1
 62
    39
  6
CONTINUOUS
 10
-0.584205
 20
-0.180968
  0
VERTEX
  8
EBENE_1
 62
    39
  6
CONTINUOUS
 10
-0.578201
 20
-0.160563
  0
VERTEX
  8
EBENE_1
 62
    39
  6
CONTINUOUS
 10
-0.569523
 20
-0.142597
  0
VERTEX
  8
EBENE_1
 62
    39
  6
CONTINUOUS
 10
-0.558441
 20
-0.127271
  0
VERTEX
  8
EBENE_1
 62
    39
  6
CONTINUOUS
 10
-0.545225
 20
-0.114784
  0
VERTEX
  8
EBENE_1
 62
    39
  6
CONTINUOUS
 10
-0.530145
 20
-0.105336
  0
VERTEX
  8
EBENE_1
 62
    39
  6
CONTINUOUS
 10
-0.513472
 20
-0.099126
  0
VERTEX
  8
EBENE_1
 62
    39
  6
CONTINUOUS
 10
-0.222799
 20
-0.021280
  0
VERTEX
  8
EBENE_1
 62
    39
  6
CONTINUOUS
 10
-0.197284
 20
-0.017407
  0
VERTEX
  8
EBENE_1
 62
    39
  6
CONTINUOUS
 10
-0.178803
 20
-0.020556
  0
VERTEX
  8
EBENE_1
 62
    39
  6
CONTINUOUS
 10
-0.165381
 20
-0.029002
  0
VERTEX
  8
EBENE_1
 62
    39
  6
CONTINUOUS
 10
-0.155045
 20
-0.041020
  0
VERTEX
  8
EBENE_1
 62
    39
  6
CONTINUOUS
 10
-0.145821
 20
-0.054887
  0
VERTEX
  8
EBENE_1
 62
    39
  6
CONTINUOUS
 10
-0.135736
 20
-0.068879
  0
SEQEND
  8
0
  0
POLYLINE
  8
EBENE_1
 62
    39
  6
CONTINUOUS
 66
     1
 40
0.003000
 41
0.003000
 70
     1
  0
VERTEX
  8
EBENE_1
 62
    39
  6
CONTINUOUS
 10
-0.122815
 20
-0.083413
  0
VERTEX
  8
EBENE_1
 62
    39
  6
CONTINUOUS
 10
0.139291
 20
-0.512642
  0
VERTEX
  8
EBENE_1
 62
    39
  6
CONTINUOUS
 10
-0.135669
 20
-0.584059
  0
VERTEX
  8
EBENE_1
 62
    39
  6
CONTINUOUS
 10
-0.145309
 20
-0.585790
  0
VERTEX
  8
EBENE_1
 62
    39
  6
CONTINUOUS
 10
-0.155839
 20
-0.586701
  0
VERTEX
  8
EBENE_1
 62
    39
  6
CONTINUOUS
 10
-0.167199
 20
-0.586797
  0
VERTEX
  8
EBENE_1
 62
    39
  6
CONTINUOUS
 10
-0.179325
 20
-0.586080
  0
VERTEX
  8
EBENE_1
 62
    39
  6
CONTINUOUS
 10
-0.192154
 20
-0.584557
  0
VERTEX
  8
EBENE_1
 62
    39
  6
CONTINUOUS
 10
-0.205625
 20
-0.582231
  0
VERTEX
  8
EBENE_1
 62
    39
  6
CONTINUOUS
 10
-0.219673
 20
-0.579107
  0
VERTEX
  8
EBENE_1
 62
    39
  6
CONTINUOUS
 10
-0.234237
 20
-0.575188
  0
VERTEX
  8
EBENE_1
 62
    39
  6
CONTINUOUS
 10
-0.249255
 20
-0.570480
  0
VERTEX
  8
EBENE_1
 62
    39
  6
CONTINUOUS
 10
-0.264662
 20
-0.564985
  0
VERTEX
  8
EBENE_1
 62
    39
  6
CONTINUOUS
 10
-0.280397
 20
-0.558710
  0
VERTEX
  8
EBENE_1
 62
    39
  6
CONTINUOUS
 10
-0.296398
 20
-0.551658
  0
VERTEX
  8
EBENE_1
 62
    39
  6
CONTINUOUS
 10
-0.312601
 20
-0.543833
  0
VERTEX
  8
EBENE_1
 62
    39
  6
CONTINUOUS
 10
-0.328943
 20
-0.535240
  0
VERTEX
  8
EBENE_1
 62
    39
  6
CONTINUOUS
 10
-0.345363
 20
-0.525883
  0
VERTEX
  8
EBENE_1
 62
    39
  6
CONTINUOUS
 10
-0.361797
 20
-0.515766
  0
VERTEX
  8
EBENE_1
 62
    39
  6
CONTINUOUS
 10
-0.378183
 20
-0.504894
  0
VERTEX
  8
EBENE_1
 62
    39
  6
CONTINUOUS
 10
-0.394459
 20
-0.493271
  0
VERTEX
  8
EBENE_1
 62
    39
  6
CONTINUOUS
 10
-0.410561
 20
-0.480901
  0
VERTEX
  8
EBENE_1
 62
    39
  6
CONTINUOUS
 10
-0.426427
 20
-0.467789
  0
VERTEX
  8
EBENE_1
 62
    39
  6
CONTINUOUS
 10
-0.441994
 20
-0.453939
  0
VERTEX
  8
EBENE_1
 62
    39
  6
CONTINUOUS
 10
-0.457200
 20
-0.439355
  0
VERTEX
  8
EBENE_1
 62
    39
  6
CONTINUOUS
 10
-0.471982
 20
-0.424041
  0
VERTEX
  8
EBENE_1
 62
    39
  6
CONTINUOUS
 10
-0.486277
 20
-0.408003
  0
VERTEX
  8
EBENE_1
 62
    39
  6
CONTINUOUS
 10
-0.500023
 20
-0.391243
  0
VERTEX
  8
EBENE_1
 62
    39
  6
CONTINUOUS
 10
-0.513158
 20
-0.373767
  0
VERTEX
  8
EBENE_1
 62
    39
  6
CONTINUOUS
 10
-0.525618
 20
-0.355579
  0
VERTEX
  8
EBENE_1
 62
    39
  6
CONTINUOUS
 10
-0.537340
 20
-0.336683
  0
VERTEX
  8
EBENE_1
 62
    39
  6
CONTINUOUS
 10
-0.548263
 20
-0.317083
  0
VERTEX
  8
EBENE_1
 62
    39
  6
CONTINUOUS
 10
-0.558323
 20
-0.296785
  0
VERTEX
  8
EBENE_1
 62
    39
  6
CONTINUOUS
 10
-0.567459
 20
-0.275791
  0
VERTEX
  8
EBENE_1
 62
    39
  6
CONTINUOUS
 10
-0.575606
 20
-0.254106
  0
VERTEX
  8
EBENE_1
 62
    39
  6
CONTINUOUS
 10
-0.579275
 20
-0.228033
  0
VERTEX
  8
EBENE_1
 62
    39
  6
CONTINUOUS
 10
-0.579505
 20
-0.203746
  0
VERTEX
  8
EBENE_1
 62
    39
  6
CONTINUOUS
 10
-0.576560
 20
-0.181445
  0
VERTEX
  8
EBENE_1
 62
    39
  6
CONTINUOUS
 10
-0.570706
 20
-0.161332
  0
VERTEX
  8
EBENE_1
 62
    39
  6
CONTINUOUS
 10
-0.562206
 20
-0.143604
  0
VERTEX
  8
EBENE_1
 62
    39
  6
CONTINUOUS
 10
-0.551325
 20
-0.128463
  0
VERTEX
  8
EBENE_1
 62
    39
  6
CONTINUOUS
 10
-0.538328
 20
-0.116107
  0
VERTEX
  8
EBENE_1
 62
    39
  6
CONTINUOUS
 10
-0.523480
 20
-0.106738
  0
VERTEX
  8
EBENE_1
 62
    39
  6
CONTINUOUS
 10
-0.507043
 20
-0.100555
  0
VERTEX
  8
EBENE_1
 62
    39
  6
CONTINUOUS
 10
-0.221370
 20
-0.024138
  0
VERTEX
  8
EBENE_1
 62
    39
  6
CONTINUOUS
 10
-0.196159
 20
-0.020225
  0
VERTEX
  8
EBENE_1
 62
    39
  6
CONTINUOUS
 10
-0.177969
 20
-0.023271
  0
VERTEX
  8
EBENE_1
 62
    39
  6
CONTINUOUS
 10
-0.164814
 20
-0.031576
  0
VERTEX
  8
EBENE_1
 62
    39
  6
CONTINUOUS
 10
-0.154707
 20
-0.043443
  0
VERTEX
  8
EBENE_1
 62
    39
  6
CONTINUOUS
 10
-0.145663
 20
-0.057171
  0
VERTEX
  8
EBENE_1
 62
    39
  6
CONTINUOUS
 10
-0.135694
 20
-0.071060
  0
SEQEND
  8
0
  0
POLYLINE
  8
EBENE_1
 62
    39
  6
CONTINUOUS
 66
     1
 40
0.003000
 41
0.003000
 70
     1
  0
VERTEX
  8
EBENE_1
 62
    39
  6
CONTINUOUS
 10
-0.356350
 20
-0.102697
  0
VERTEX
  8
EBENE_1
 62
    39
  6
CONTINUOUS
 10
-0.351220
 20
-0.101401
  0
VERTEX
  8
EBENE_1
 62
    39
  6
CONTINUOUS
 10
-0.347676
 20
-0.098042
  0
VERTEX
  8
EBENE_1
 62
    39
  6
CONTINUOUS
 10
-0.346354
 20
-0.093413
  0
VERTEX
  8
EBENE_1
 62
    39
  6
CONTINUOUS
 10
-0.347676
 20
-0.088282
  0
VERTEX
  8
EBENE_1
 62
    39
  6
CONTINUOUS
 10
-0.351220
 20
-0.084737
  0
VERTEX
  8
EBENE_1
 62
    39
  6
CONTINUOUS
 10
-0.356350
 20
-0.083413
  0
VERTEX
  8
EBENE_1
 62
    39
  6
CONTINUOUS
 10
-0.360980
 20
-0.084737
  0
VERTEX
  8
EBENE_1
 62
    39
  6
CONTINUOUS
 10
-0.364341
 20
-0.088282
  0
VERTEX
  8
EBENE_1
 62
    39
  6
CONTINUOUS
 10
-0.365638
 20
-0.093413
  0
VERTEX
  8
EBENE_1
 62
    39
  6
CONTINUOUS
 10
-0.364341
 20
-0.098042
  0
VERTEX
  8
EBENE_1
 62
    39
  6
CONTINUOUS
 10
-0.360980
 20
-0.101401
  0
SEQEND
  8
0
  0
POLYLINE
  8
EBENE_1
 62
    39
  6
CONTINUOUS
 66
     1
 40
0.003000
 41
0.003000
 70
     1
  0
VERTEX
  8
EBENE_1
 62
    39
  6
CONTINUOUS
 10
-0.254224
 20
-0.081272
  0
VERTEX
  8
EBENE_1
 62
    39
  6
CONTINUOUS
 10
-0.249091
 20
-0.079950
  0
VERTEX
  8
EBENE_1
 62
    39
  6
CONTINUOUS
 10
-0.245547
 20
-0.076406
  0
VERTEX
  8
EBENE_1
 62
    39
  6
CONTINUOUS
 10
-0.244224
 20
-0.071276
  0
VERTEX
  8
EBENE_1
 62
    39
  6
CONTINUOUS
 10
-0.245547
 20
-0.066646
  0
VERTEX
  8
EBENE_1
 62
    39
  6
CONTINUOUS
 10
-0.249091
 20
-0.063285
  0
VERTEX
  8
EBENE_1
 62
    39
  6
CONTINUOUS
 10
-0.254224
 20
-0.061988
  0
VERTEX
  8
EBENE_1
 62
    39
  6
CONTINUOUS
 10
-0.258853
 20
-0.063285
  0
VERTEX
  8
EBENE_1
 62
    39
  6
CONTINUOUS
 10
-0.262212
 20
-0.066646
  0
VERTEX
  8
EBENE_1
 62
    39
  6
CONTINUOUS
 10
-0.263508
 20
-0.071276
  0
VERTEX
  8
EBENE_1
 62
    39
  6
CONTINUOUS
 10
-0.262212
 20
-0.076406
  0
VERTEX
  8
EBENE_1
 62
    39
  6
CONTINUOUS
 10
-0.258853
 20
-0.079950
  0
SEQEND
  8
0
  0
POLYLINE
  8
EBENE_1
 62
    39
  6
CONTINUOUS
 66
     1
 40
0.003000
 41
0.003000
 70
     1
  0
VERTEX
  8
EBENE_1
 62
    39
  6
CONTINUOUS
 10
-0.154236
 20
-0.119126
  0
VERTEX
  8
EBENE_1
 62
    39
  6
CONTINUOUS
 10
-0.149609
 20
-0.117829
  0
VERTEX
  8
EBENE_1
 62
    39
  6
CONTINUOUS
 10
-0.146249
 20
-0.114469
  0
VERTEX
  8
EBENE_1
 62
    39
  6
CONTINUOUS
 10
-0.144953
 20
-0.109839
  0
VERTEX
  8
EBENE_1
 62
    39
  6
CONTINUOUS
 10
-0.146249
 20
-0.104708
  0
VERTEX
  8
EBENE_1
 62
    39
  6
CONTINUOUS
 10
-0.149609
 20
-0.101165
  0
VERTEX
  8
EBENE_1
 62
    39
  6
CONTINUOUS
 10
-0.154236
 20
-0.099843
  0
VERTEX
  8
EBENE_1
 62
    39
  6
CONTINUOUS
 10
-0.158865
 20
-0.101165
  0
VERTEX
  8
EBENE_1
 62
    39
  6
CONTINUOUS
 10
-0.162224
 20
-0.104708
  0
VERTEX
  8
EBENE_1
 62
    39
  6
CONTINUOUS
 10
-0.163520
 20
-0.109839
  0
VERTEX
  8
EBENE_1
 62
    39
  6
CONTINUOUS
 10
-0.162224
 20
-0.114469
  0
VERTEX
  8
EBENE_1
 62
    39
  6
CONTINUOUS
 10
-0.158865
 20
-0.117829
  0
SEQEND
  8
0
  0
POLYLINE
  8
EBENE_1
 62
    39
  6
CONTINUOUS
 66
     1
 40
0.003000
 41
0.003000
 70
     1
  0
VERTEX
  8
EBENE_1
 62
    39
  6
CONTINUOUS
 10
0.162146
 20
-0.006996
  0
VERTEX
  8
EBENE_1
 62
    39
  6
CONTINUOUS
 10
0.428535
 20
-0.444079
  0
VERTEX
  8
EBENE_1
 62
    39
  6
CONTINUOUS
 10
0.149287
 20
-0.516213
  0
VERTEX
  8
EBENE_1
 62
    39
  6
CONTINUOUS
 10
0.139755
 20
-0.517899
  0
VERTEX
  8
EBENE_1
 62
    39
  6
CONTINUOUS
 10
0.129375
 20
-0.518807
  0
VERTEX
  8
EBENE_1
 62
    39
  6
CONTINUOUS
 10
0.118206
 20
-0.518939
  0
VERTEX
  8
EBENE_1
 62
    39
  6
CONTINUOUS
 10
0.106304
 20
-0.518298
  0
VERTEX
  8
EBENE_1
 62
    39
  6
CONTINUOUS
 10
0.093727
 20
-0.516890
  0
VERTEX
  8
EBENE_1
 62
    39
  6
CONTINUOUS
 10
0.080534
 20
-0.514717
  0
VERTEX
  8
EBENE_1
 62
    39
  6
CONTINUOUS
 10
0.066781
 20
-0.511783
  0
VERTEX
  8
EBENE_1
 62
    39
  6
CONTINUOUS
 10
0.052526
 20
-0.508092
  0
VERTEX
  8
EBENE_1
 62
    39
  6
CONTINUOUS
 10
0.037826
 20
-0.503647
  0
VERTEX
  8
EBENE_1
 62
    39
  6
CONTINUOUS
 10
0.022740
 20
-0.498453
  0
VERTEX
  8
EBENE_1
 62
    39
  6
CONTINUOUS
 10
0.007325
 20
-0.492513
  0
VERTEX
  8
EBENE_1
 62
    39
  6
CONTINUOUS
 10
-0.008361
 20
-0.485830
  0
VERTEX
  8
EBENE_1
 62
    39
  6
CONTINUOUS
 10
-0.024262
 20
-0.478408
  0
VERTEX
  8
EBENE_1
 62
    39
  6
CONTINUOUS
 10
-0.040318
 20
-0.470252
  0
VERTEX
  8
EBENE_1
 62
    39
  6
CONTINUOUS
 10
-0.056474
 20
-0.461364
  0
VERTEX
  8
EBENE_1
 62
    39
  6
CONTINUOUS
 10
-0.072670
 20
-0.451749
  0
VERTEX
  8
EBENE_1
 62
    39
  6
CONTINUOUS
 10
-0.088851
 20
-0.441409
  0
VERTEX
  8
EBENE_1
 62
    39
  6
CONTINUOUS
 10
-0.104957
 20
-0.430350
  0
VERTEX
  8
EBENE_1
 62
    39
  6
CONTINUOUS
 10
-0.120931
 20
-0.418574
  0
VERTEX
  8
EBENE_1
 62
    39
  6
CONTINUOUS
 10
-0.136717
 20
-0.406085
  0
VERTEX
  8
EBENE_1
 62
    39
  6
CONTINUOUS
 10
-0.152255
 20
-0.392887
  0
VERTEX
  8
EBENE_1
 62
    39
  6
CONTINUOUS
 10
-0.167490
 20
-0.378983
  0
VERTEX
  8
EBENE_1
 62
    39
  6
CONTINUOUS
 10
-0.182362
 20
-0.364378
  0
VERTEX
  8
EBENE_1
 62
    39
  6
CONTINUOUS
 10
-0.196814
 20
-0.349075
  0
VERTEX
  8
EBENE_1
 62
    39
  6
CONTINUOUS
 10
-0.210790
 20
-0.333077
  0
VERTEX
  8
EBENE_1
 62
    39
  6
CONTINUOUS
 10
-0.224230
 20
-0.316389
  0
VERTEX
  8
EBENE_1
 62
    39
  6
CONTINUOUS
 10
-0.237079
 20
-0.299014
  0
VERTEX
  8
EBENE_1
 62
    39
  6
CONTINUOUS
 10
-0.249277
 20
-0.280955
  0
VERTEX
  8
EBENE_1
 62
    39
  6
CONTINUOUS
 10
-0.260768
 20
-0.262217
  0
VERTEX
  8
EBENE_1
 62
    39
  6
CONTINUOUS
 10
-0.271493
 20
-0.242803
  0
VERTEX
  8
EBENE_1
 62
    39
  6
CONTINUOUS
 10
-0.281396
 20
-0.222717
  0
VERTEX
  8
EBENE_1
 62
    39
  6
CONTINUOUS
 10
-0.290419
 20
-0.201963
  0
VERTEX
  8
EBENE_1
 62
    39
  6
CONTINUOUS
 10
-0.298504
 20
-0.180543
  0
VERTEX
  8
EBENE_1
 62
    39
  6
CONTINUOUS
 10
-0.298504
 20
-0.180543
  0
VERTEX
  8
EBENE_1
 62
    39
  6
CONTINUOUS
 10
-0.302146
 20
-0.154020
  0
VERTEX
  8
EBENE_1
 62
    39
  6
CONTINUOUS
 10
-0.302303
 20
-0.129336
  0
VERTEX
  8
EBENE_1
 62
    39
  6
CONTINUOUS
 10
-0.299244
 20
-0.106692
  0
VERTEX
  8
EBENE_1
 62
    39
  6
CONTINUOUS
 10
-0.293241
 20
-0.086287
  0
VERTEX
  8
EBENE_1
 62
    39
  6
CONTINUOUS
 10
-0.284563
 20
-0.068322
  0
VERTEX
  8
EBENE_1
 62
    39
  6
CONTINUOUS
 10
-0.273480
 20
-0.052996
  0
VERTEX
  8
EBENE_1
 62
    39
  6
CONTINUOUS
 10
-0.260264
 20
-0.040508
  0
VERTEX
  8
EBENE_1
 62
    39
  6
CONTINUOUS
 10
-0.245185
 20
-0.031060
  0
VERTEX
  8
EBENE_1
 62
    39
  6
CONTINUOUS
 10
-0.228512
 20
-0.024850
  0
VERTEX
  8
EBENE_1
 62
    39
  6
CONTINUOUS
 10
0.062157
 20
0.052992
  0
VERTEX
  8
EBENE_1
 62
    39
  6
CONTINUOUS
 10
0.087672
 20
0.056902
  0
VERTEX
  8
EBENE_1
 62
    39
  6
CONTINUOUS
 10
0.106154
 20
0.053841
  0
VERTEX
  8
EBENE_1
 62
    39
  6
CONTINUOUS
 10
0.119576
 20
0.045496
  0
VERTEX
  8
EBENE_1
 62
    39
  6
CONTINUOUS
 10
0.129912
 20
0.033553
  0
VERTEX
  8
EBENE_1
 62
    39
  6
CONTINUOUS
 10
0.139137
 20
0.019699
  0
VERTEX
  8
EBENE_1
 62
    39
  6
CONTINUOUS
 10
0.149223
 20
0.005620
  0
SEQEND
  8
0
  0
POLYLINE
  8
EBENE_1
 62
    39
  6
CONTINUOUS
 66
     1
 40
0.003000
 41
0.003000
 70
     1
  0
VERTEX
  8
EBENE_1
 62
    39
  6
CONTINUOUS
 10
0.162146
 20
-0.008425
  0
VERTEX
  8
EBENE_1
 62
    39
  6
CONTINUOUS
 10
0.424252
 20
-0.438366
  0
VERTEX
  8
EBENE_1
 62
    39
  6
CONTINUOUS
 10
0.150004
 20
-0.509787
  0
VERTEX
  8
EBENE_1
 62
    39
  6
CONTINUOUS
 10
0.140299
 20
-0.511518
  0
VERTEX
  8
EBENE_1
 62
    39
  6
CONTINUOUS
 10
0.129708
 20
-0.512429
  0
VERTEX
  8
EBENE_1
 62
    39
  6
CONTINUOUS
 10
0.118291
 20
-0.512524
  0
VERTEX
  8
EBENE_1
 62
    39
  6
CONTINUOUS
 10
0.106112
 20
-0.511808
  0
VERTEX
  8
EBENE_1
 62
    39
  6
CONTINUOUS
 10
0.093233
 20
-0.510284
  0
VERTEX
  8
EBENE_1
 62
    39
  6
CONTINUOUS
 10
0.079717
 20
-0.507958
  0
VERTEX
  8
EBENE_1
 62
    39
  6
CONTINUOUS
 10
0.065626
 20
-0.504833
  0
VERTEX
  8
EBENE_1
 62
    39
  6
CONTINUOUS
 10
0.051022
 20
-0.500914
  0
VERTEX
  8
EBENE_1
 62
    39
  6
CONTINUOUS
 10
0.035969
 20
-0.496205
  0
VERTEX
  8
EBENE_1
 62
    39
  6
CONTINUOUS
 10
0.020528
 20
-0.490711
  0
VERTEX
  8
EBENE_1
 62
    39
  6
CONTINUOUS
 10
0.004763
 20
-0.484436
  0
VERTEX
  8
EBENE_1
 62
    39
  6
CONTINUOUS
 10
-0.011265
 20
-0.477383
  0
VERTEX
  8
EBENE_1
 62
    39
  6
CONTINUOUS
 10
-0.027493
 20
-0.469558
  0
VERTEX
  8
EBENE_1
 62
    39
  6
CONTINUOUS
 10
-0.043857
 20
-0.460965
  0
VERTEX
  8
EBENE_1
 62
    39
  6
CONTINUOUS
 10
-0.060297
 20
-0.451608
  0
VERTEX
  8
EBENE_1
 62
    39
  6
CONTINUOUS
 10
-0.076749
 20
-0.441491
  0
VERTEX
  8
EBENE_1
 62
    39
  6
CONTINUOUS
 10
-0.093151
 20
-0.430619
  0
VERTEX
  8
EBENE_1
 62
    39
  6
CONTINUOUS
 10
-0.109440
 20
-0.418996
  0
VERTEX
  8
EBENE_1
 62
    39
  6
CONTINUOUS
 10
-0.125554
 20
-0.406626
  0
VERTEX
  8
EBENE_1
 62
    39
  6
CONTINUOUS
 10
-0.141430
 20
-0.393514
  0
VERTEX
  8
EBENE_1
 62
    39
  6
CONTINUOUS
 10
-0.157005
 20
-0.379663
  0
VERTEX
  8
EBENE_1
 62
    39
  6
CONTINUOUS
 10
-0.172218
 20
-0.365079
  0
VERTEX
  8
EBENE_1
 62
    39
  6
CONTINUOUS
 10
-0.187006
 20
-0.349766
  0
VERTEX
  8
EBENE_1
 62
    39
  6
CONTINUOUS
 10
-0.201306
 20
-0.333727
  0
VERTEX
  8
EBENE_1
 62
    39
  6
CONTINUOUS
 10
-0.215056
 20
-0.316968
  0
VERTEX
  8
EBENE_1
 62
    39
  6
CONTINUOUS
 10
-0.228193
 20
-0.299492
  0
VERTEX
  8
EBENE_1
 62
    39
  6
CONTINUOUS
 10
-0.240654
 20
-0.281303
  0
VERTEX
  8
EBENE_1
 62
    39
  6
CONTINUOUS
 10
-0.252378
 20
-0.262407
  0
VERTEX
  8
EBENE_1
 62
    39
  6
CONTINUOUS
 10
-0.263302
 20
-0.242808
  0
VERTEX
  8
EBENE_1
 62
    39
  6
CONTINUOUS
 10
-0.273363
 20
-0.222509
  0
VERTEX
  8
EBENE_1
 62
    39
  6
CONTINUOUS
 10
-0.282498
 20
-0.201515
  0
VERTEX
  8
EBENE_1
 62
    39
  6
CONTINUOUS
 10
-0.290646
 20
-0.179831
  0
VERTEX
  8
EBENE_1
 62
    39
  6
CONTINUOUS
 10
-0.294314
 20
-0.153568
  0
VERTEX
  8
EBENE_1
 62
    39
  6
CONTINUOUS
 10
-0.294544
 20
-0.129181
  0
VERTEX
  8
EBENE_1
 62
    39
  6
CONTINUOUS
 10
-0.291600
 20
-0.106851
  0
VERTEX
  8
EBENE_1
 62
    39
  6
CONTINUOUS
 10
-0.285745
 20
-0.086761
  0
VERTEX
  8
EBENE_1
 62
    39
  6
CONTINUOUS
 10
-0.277246
 20
-0.069093
  0
VERTEX
  8
EBENE_1
 62
    39
  6
CONTINUOUS
 10
-0.266365
 20
-0.054028
  0
VERTEX
  8
EBENE_1
 62
    39
  6
CONTINUOUS
 10
-0.253368
 20
-0.041749
  0
VERTEX
  8
EBENE_1
 62
    39
  6
CONTINUOUS
 10
-0.238519
 20
-0.032439
  0
VERTEX
  8
EBENE_1
 62
    39
  6
CONTINUOUS
 10
-0.222083
 20
-0.026280
  0
VERTEX
  8
EBENE_1
 62
    39
  6
CONTINUOUS
 10
0.063587
 20
0.050134
  0
VERTEX
  8
EBENE_1
 62
    39
  6
CONTINUOUS
 10
0.088798
 20
0.054048
  0
VERTEX
  8
EBENE_1
 62
    39
  6
CONTINUOUS
 10
0.106988
 20
0.051016
  0
VERTEX
  8
EBENE_1
 62
    39
  6
CONTINUOUS
 10
0.120143
 20
0.042750
  0
VERTEX
  8
EBENE_1
 62
    39
  6
CONTINUOUS
 10
0.130250
 20
0.030961
  0
VERTEX
  8
EBENE_1
 62
    39
  6
CONTINUOUS
 10
0.139295
 20
0.017362
  0
VERTEX
  8
EBENE_1
 62
    39
  6
CONTINUOUS
 10
0.149265
 20
0.003662
  0
SEQEND
  8
0
  0
POLYLINE
  8
EBENE_1
 62
    39
  6
CONTINUOUS
 66
     1
 40
0.003000
 41
0.003000
 70
     1
  0
VERTEX
  8
EBENE_1
 62
    39
  6
CONTINUOUS
 10
-0.071390
 20
-0.028421
  0
VERTEX
  8
EBENE_1
 62
    39
  6
CONTINUOUS
 10
-0.066259
 20
-0.027126
  0
VERTEX
  8
EBENE_1
 62
    39
  6
CONTINUOUS
 10
-0.062716
 20
-0.023767
  0
VERTEX
  8
EBENE_1
 62
    39
  6
CONTINUOUS
 10
-0.061394
 20
-0.019138
  0
VERTEX
  8
EBENE_1
 62
    39
  6
CONTINUOUS
 10
-0.062716
 20
-0.014006
  0
VERTEX
  8
EBENE_1
 62
    39
  6
CONTINUOUS
 10
-0.066259
 20
-0.010461
  0
VERTEX
  8
EBENE_1
 62
    39
  6
CONTINUOUS
 10
-0.071390
 20
-0.009138
  0
VERTEX
  8
EBENE_1
 62
    39
  6
CONTINUOUS
 10
-0.076020
 20
-0.010461
  0
VERTEX
  8
EBENE_1
 62
    39
  6
CONTINUOUS
 10
-0.079380
 20
-0.014006
  0
VERTEX
  8
EBENE_1
 62
    39
  6
CONTINUOUS
 10
-0.080677
 20
-0.019138
  0
VERTEX
  8
EBENE_1
 62
    39
  6
CONTINUOUS
 10
-0.079380
 20
-0.023767
  0
VERTEX
  8
EBENE_1
 62
    39
  6
CONTINUOUS
 10
-0.076020
 20
-0.027126
  0
SEQEND
  8
0
  0
POLYLINE
  8
EBENE_1
 62
    39
  6
CONTINUOUS
 66
     1
 40
0.003000
 41
0.003000
 70
     1
  0
VERTEX
  8
EBENE_1
 62
    39
  6
CONTINUOUS
 10
0.030732
 20
-0.006283
  0
VERTEX
  8
EBENE_1
 62
    39
  6
CONTINUOUS
 10
0.035864
 20
-0.004988
  0
VERTEX
  8
EBENE_1
 62
    39
  6
CONTINUOUS
 10
0.039409
 20
-0.001629
  0
VERTEX
  8
EBENE_1
 62
    39
  6
CONTINUOUS
 10
0.040732
 20
0.003000
  0
VERTEX
  8
EBENE_1
 62
    39
  6
CONTINUOUS
 10
0.039409
 20
0.007626
  0
VERTEX
  8
EBENE_1
 62
    39
  6
CONTINUOUS
 10
0.035864
 20
0.010984
  0
VERTEX
  8
EBENE_1
 62
    39
  6
CONTINUOUS
 10
0.030732
 20
0.012280
  0
VERTEX
  8
EBENE_1
 62
    39
  6
CONTINUOUS
 10
0.026103
 20
0.010984
  0
VERTEX
  8
EBENE_1
 62
    39
  6
CONTINUOUS
 10
0.022745
 20
0.007626
  0
VERTEX
  8
EBENE_1
 62
    39
  6
CONTINUOUS
 10
0.021449
 20
0.003000
  0
VERTEX
  8
EBENE_1
 62
    39
  6
CONTINUOUS
 10
0.022745
 20
-0.001629
  0
VERTEX
  8
EBENE_1
 62
    39
  6
CONTINUOUS
 10
0.026103
 20
-0.004988
  0
SEQEND
  8
0
  0
POLYLINE
  8
EBENE_1
 62
    39
  6
CONTINUOUS
 66
     1
 40
0.003000
 41
0.003000
 70
     1
  0
VERTEX
  8
EBENE_1
 62
    39
  6
CONTINUOUS
 10
0.130720
 20
-0.044850
  0
VERTEX
  8
EBENE_1
 62
    39
  6
CONTINUOUS
 10
0.135350
 20
-0.043554
  0
VERTEX
  8
EBENE_1
 62
    39
  6
CONTINUOUS
 10
0.138708
 20
-0.040193
  0
VERTEX
  8
EBENE_1
 62
    39
  6
CONTINUOUS
 10
0.140004
 20
-0.035563
  0
VERTEX
  8
EBENE_1
 62
    39
  6
CONTINUOUS
 10
0.138708
 20
-0.030432
  0
VERTEX
  8
EBENE_1
 62
    39
  6
CONTINUOUS
 10
0.135350
 20
-0.026889
  0
VERTEX
  8
EBENE_1
 62
    39
  6
CONTINUOUS
 10
0.130720
 20
-0.025567
  0
VERTEX
  8
EBENE_1
 62
    39
  6
CONTINUOUS
 10
0.126091
 20
-0.026889
  0
VERTEX
  8
EBENE_1
 62
    39
  6
CONTINUOUS
 10
0.122733
 20
-0.030432
  0
VERTEX
  8
EBENE_1
 62
    39
  6
CONTINUOUS
 10
0.121437
 20
-0.035563
  0
VERTEX
  8
EBENE_1
 62
    39
  6
CONTINUOUS
 10
0.122733
 20
-0.040193
  0
VERTEX
  8
EBENE_1
 62
    39
  6
CONTINUOUS
 10
0.126091
 20
-0.043554
  0
SEQEND
  8
0
  0
POLYLINE
  8
EBENE_1
 62
    39
  6
CONTINUOUS
 66
     1
 40
0.003000
 41
0.003000
  0
VERTEX
  8
EBENE_1
 62
    39
  6
CONTINUOUS
 10
1.035594
 20
-0.580488
  0
VERTEX
  8
EBENE_1
 62
    39
  6
CONTINUOUS
 10
1.031391
 20
-0.583160
  0
VERTEX
  8
EBENE_1
 62
    39
  6
CONTINUOUS
 10
1.029090
 20
-0.587577
  0
VERTEX
  8
EBENE_1
 62
    39
  6
CONTINUOUS
 10
1.029169
 20
-0.592630
  0
SEQEND
  8
0
  0
POLYLINE
  8
EBENE_1
 62
    39
  6
CONTINUOUS
 66
     1
 40
0.003000
 41
0.003000
  0
VERTEX
  8
EBENE_1
 62
    39
  6
CONTINUOUS
 10
1.029169
 20
-0.592630
  0
VERTEX
  8
EBENE_1
 62
    39
  6
CONTINUOUS
 10
1.031655
 20
-0.596837
  0
VERTEX
  8
EBENE_1
 62
    39
  6
CONTINUOUS
 10
1.035728
 20
-0.599139
  0
VERTEX
  8
EBENE_1
 62
    39
  6
CONTINUOUS
 10
1.040594
 20
-0.599059
  0
SEQEND
  8
0
  0
POLYLINE
  8
EBENE_1
 62
    39
  6
CONTINUOUS
 66
     1
 40
0.003000
 41
0.003000
  0
VERTEX
  8
EBENE_1
 62
    39
  6
CONTINUOUS
 10
1.040594
 20
-0.599059
  0
VERTEX
  8
EBENE_1
 62
    39
  6
CONTINUOUS
 10
1.044828
 20
-0.596572
  0
VERTEX
  8
EBENE_1
 62
    39
  6
CONTINUOUS
 10
1.047314
 20
-0.592498
  0
VERTEX
  8
EBENE_1
 62
    39
  6
CONTINUOUS
 10
1.047736
 20
-0.587630
  0
SEQEND
  8
0
  0
POLYLINE
  8
EBENE_1
 62
    39
  6
CONTINUOUS
 66
     1
 40
0.003000
 41
0.003000
  0
VERTEX
  8
EBENE_1
 62
    39
  6
CONTINUOUS
 10
1.047736
 20
-0.587630
  0
VERTEX
  8
EBENE_1
 62
    39
  6
CONTINUOUS
 10
1.045066
 20
-0.583241
  0
VERTEX
  8
EBENE_1
 62
    39
  6
CONTINUOUS
 10
1.040648
 20
-0.580596
  0
VERTEX
  8
EBENE_1
 62
    39
  6
CONTINUOUS
 10
1.035594
 20
-0.580488
  0
SEQEND
  8
0
  0
POLYLINE
  8
EBENE_1
 62
    39
  6
CONTINUOUS
 66
     1
 40
0.003000
 41
0.003000
  0
VERTEX
  8
EBENE_1
 62
    39
  6
CONTINUOUS
 10
0.930610
 20
-0.652622
  0
VERTEX
  8
EBENE_1
 62
    39
  6
CONTINUOUS
 10
0.926404
 20
-0.655294
  0
VERTEX
  8
EBENE_1
 62
    39
  6
CONTINUOUS
 10
0.924102
 20
-0.659711
  0
VERTEX
  8
EBENE_1
 62
    39
  6
CONTINUOUS
 10
0.924181
 20
-0.664764
  0
SEQEND
  8
0
  0
POLYLINE
  8
EBENE_1
 62
    39
  6
CONTINUOUS
 66
     1
 40
0.003000
 41
0.003000
  0
VERTEX
  8
EBENE_1
 62
    39
  6
CONTINUOUS
 10
0.924181
 20
-0.664764
  0
VERTEX
  8
EBENE_1
 62
    39
  6
CONTINUOUS
 10
0.926668
 20
-0.668970
  0
VERTEX
  8
EBENE_1
 62
    39
  6
CONTINUOUS
 10
0.930742
 20
-0.671272
  0
VERTEX
  8
EBENE_1
 62
    39
  6
CONTINUOUS
 10
0.935610
 20
-0.671193
  0
SEQEND
  8
0
  0
POLYLINE
  8
EBENE_1
 62
    39
  6
CONTINUOUS
 66
     1
 40
0.003000
 41
0.003000
  0
VERTEX
  8
EBENE_1
 62
    39
  6
CONTINUOUS
 10
0.935610
 20
-0.671193
  0
VERTEX
  8
EBENE_1
 62
    39
  6
CONTINUOUS
 10
0.940002
 20
-0.668706
  0
VERTEX
  8
EBENE_1
 62
    39
  6
CONTINUOUS
 10
0.942647
 20
-0.664632
  0
VERTEX
  8
EBENE_1
 62
    39
  6
CONTINUOUS
 10
0.942752
 20
-0.659764
  0
SEQEND
  8
0
  0
POLYLINE
  8
EBENE_1
 62
    39
  6
CONTINUOUS
 66
     1
 40
0.003000
 41
0.003000
  0
VERTEX
  8
EBENE_1
 62
    39
  6
CONTINUOUS
 10
0.942752
 20
-0.659764
  0
VERTEX
  8
EBENE_1
 62
    39
  6
CONTINUOUS
 10
0.940080
 20
-0.655372
  0
VERTEX
  8
EBENE_1
 62
    39
  6
CONTINUOUS
 10
0.935663
 20
-0.652727
  0
VERTEX
  8
EBENE_1
 62
    39
  6
CONTINUOUS
 10
0.930610
 20
-0.652622
  0
SEQEND
  8
0
  0
POLYLINE
  8
EBENE_1
 62
    39
  6
CONTINUOUS
 66
     1
 40
0.003000
 41
0.003000
  0
VERTEX
  8
EBENE_1
 62
    39
  6
CONTINUOUS
 10
0.879189
 20
-0.611913
  0
VERTEX
  8
EBENE_1
 62
    39
  6
CONTINUOUS
 10
0.874481
 20
-0.614084
  0
VERTEX
  8
EBENE_1
 62
    39
  6
CONTINUOUS
 10
0.871994
 20
-0.618316
  0
VERTEX
  8
EBENE_1
 62
    39
  6
CONTINUOUS
 10
0.872047
 20
-0.623343
  0
SEQEND
  8
0
  0
POLYLINE
  8
EBENE_1
 62
    39
  6
CONTINUOUS
 66
     1
 40
0.003000
 41
0.003000
  0
VERTEX
  8
EBENE_1
 62
    39
  6
CONTINUOUS
 10
0.872047
 20
-0.623343
  0
VERTEX
  8
EBENE_1
 62
    39
  6
CONTINUOUS
 10
0.874561
 20
-0.627546
  0
VERTEX
  8
EBENE_1
 62
    39
  6
CONTINUOUS
 10
0.878820
 20
-0.629847
  0
VERTEX
  8
EBENE_1
 62
    39
  6
CONTINUOUS
 10
0.884189
 20
-0.629768
  0
SEQEND
  8
0
  0
POLYLINE
  8
EBENE_1
 62
    39
  6
CONTINUOUS
 66
     1
 40
0.003000
 41
0.003000
  0
VERTEX
  8
EBENE_1
 62
    39
  6
CONTINUOUS
 10
0.884189
 20
-0.629768
  0
VERTEX
  8
EBENE_1
 62
    39
  6
CONTINUOUS
 10
0.888393
 20
-0.627600
  0
VERTEX
  8
EBENE_1
 62
    39
  6
CONTINUOUS
 10
0.890694
 20
-0.623368
  0
VERTEX
  8
EBENE_1
 62
    39
  6
CONTINUOUS
 10
0.890614
 20
-0.618343
  0
SEQEND
  8
0
  0
POLYLINE
  8
EBENE_1
 62
    39
  6
CONTINUOUS
 66
     1
 40
0.003000
 41
0.003000
  0
VERTEX
  8
EBENE_1
 62
    39
  6
CONTINUOUS
 10
0.890614
 20
-0.618343
  0
VERTEX
  8
EBENE_1
 62
    39
  6
CONTINUOUS
 10
0.888128
 20
-0.614136
  0
VERTEX
  8
EBENE_1
 62
    39
  6
CONTINUOUS
 10
0.884056
 20
-0.611834
  0
VERTEX
  8
EBENE_1
 62
    39
  6
CONTINUOUS
 10
0.879189
 20
-0.611913
  0
SEQEND
  8
0
  0
POLYLINE
  8
EBENE_1
 62
    39
  6
CONTINUOUS
 66
     1
 40
0.003000
 41
0.003000
 70
     1
  0
VERTEX
  8
EBENE_1
 62
    39
  6
CONTINUOUS
 10
1.071303
 20
-0.706185
  0
VERTEX
  8
EBENE_1
 62
    39
  6
CONTINUOUS
 10
0.869189
 20
-0.705472
  0
VERTEX
  8
EBENE_1
 62
    39
  6
CONTINUOUS
 10
0.850023
 20
-0.708541
  0
VERTEX
  8
EBENE_1
 62
    39
  6
CONTINUOUS
 10
0.832508
 20
-0.708540
  0
VERTEX
  8
EBENE_1
 62
    39
  6
CONTINUOUS
 10
0.816629
 20
-0.705583
  0
VERTEX
  8
EBENE_1
 62
    39
  6
CONTINUOUS
 10
0.802373
 20
-0.699785
  0
VERTEX
  8
EBENE_1
 62
    39
  6
CONTINUOUS
 10
0.789723
 20
-0.691258
  0
VERTEX
  8
EBENE_1
 62
    39
  6
CONTINUOUS
 10
0.778666
 20
-0.680118
  0
VERTEX
  8
EBENE_1
 62
    39
  6
CONTINUOUS
 10
0.769185
 20
-0.666478
  0
VERTEX
  8
EBENE_1
 62
    39
  6
CONTINUOUS
 10
0.761267
 20
-0.650453
  0
VERTEX
  8
EBENE_1
 62
    39
  6
CONTINUOUS
 10
0.754897
 20
-0.632156
  0
VERTEX
  8
EBENE_1
 62
    39
  6
CONTINUOUS
 10
0.750059
 20
-0.611701
  0
VERTEX
  8
EBENE_1
 62
    39
  6
CONTINUOUS
 10
0.746739
 20
-0.589203
  0
VERTEX
  8
EBENE_1
 62
    39
  6
CONTINUOUS
 10
0.744921
 20
-0.564776
  0
VERTEX
  8
EBENE_1
 62
    39
  6
CONTINUOUS
 10
0.744921
 20
-0.074130
  0
VERTEX
  8
EBENE_1
 62
    39
  6
CONTINUOUS
 10
0.752359
 20
-0.054449
  0
VERTEX
  8
EBENE_1
 62
    39
  6
CONTINUOUS
 10
0.760812
 20
-0.035886
  0
VERTEX
  8
EBENE_1
 62
    39
  6
CONTINUOUS
 10
0.770233
 20
-0.018388
  0
VERTEX
  8
EBENE_1
 62
    39
  6
CONTINUOUS
 10
0.780573
 20
-0.001904
  0
VERTEX
  8
EBENE_1
 62
    39
  6
CONTINUOUS
 10
0.791786
 20
0.013617
  0
VERTEX
  8
EBENE_1
 62
    39
  6
CONTINUOUS
 10
0.803824
 20
0.028227
  0
VERTEX
  8
EBENE_1
 62
    39
  6
CONTINUOUS
 10
0.816639
 20
0.041978
  0
VERTEX
  8
EBENE_1
 62
    39
  6
CONTINUOUS
 10
0.830185
 20
0.054920
  0
VERTEX
  8
EBENE_1
 62
    39
  6
CONTINUOUS
 10
0.844413
 20
0.067106
  0
VERTEX
  8
EBENE_1
 62
    39
  6
CONTINUOUS
 10
0.859275
 20
0.078587
  0
VERTEX
  8
EBENE_1
 62
    39
  6
CONTINUOUS
 10
0.874726
 20
0.089414
  0
VERTEX
  8
EBENE_1
 62
    39
  6
CONTINUOUS
 10
0.890716
 20
0.099640
  0
VERTEX
  8
EBENE_1
 62
    39
  6
CONTINUOUS
 10
0.907199
 20
0.109314
  0
VERTEX
  8
EBENE_1
 62
    39
  6
CONTINUOUS
 10
0.924128
 20
0.118490
  0
VERTEX
  8
EBENE_1
 62
    39
  6
CONTINUOUS
 10
0.941453
 20
0.127219
  0
VERTEX
  8
EBENE_1
 62
    39
  6
CONTINUOUS
 10
0.959129
 20
0.135551
  0
VERTEX
  8
EBENE_1
 62
    39
  6
CONTINUOUS
 10
0.977108
 20
0.143539
  0
VERTEX
  8
EBENE_1
 62
    39
  6
CONTINUOUS
 10
0.995342
 20
0.151234
  0
VERTEX
  8
EBENE_1
 62
    39
  6
CONTINUOUS
 10
1.013783
 20
0.158687
  0
VERTEX
  8
EBENE_1
 62
    39
  6
CONTINUOUS
 10
1.032384
 20
0.165951
  0
VERTEX
  8
EBENE_1
 62
    39
  6
CONTINUOUS
 10
1.051099
 20
0.173076
  0
VERTEX
  8
EBENE_1
 62
    39
  6
CONTINUOUS
 10
1.069878
 20
0.180114
  0
SEQEND
  8
0
  0
POLYLINE
  8
EBENE_1
 62
    39
  6
CONTINUOUS
 66
     1
 40
0.003000
 41
0.003000
 70
     1
  0
VERTEX
  8
EBENE_1
 62
    39
  6
CONTINUOUS
 10
1.067020
 20
-0.699760
  0
VERTEX
  8
EBENE_1
 62
    39
  6
CONTINUOUS
 10
0.869906
 20
-0.699760
  0
VERTEX
  8
EBENE_1
 62
    39
  6
CONTINUOUS
 10
0.851259
 20
-0.702693
  0
VERTEX
  8
EBENE_1
 62
    39
  6
CONTINUOUS
 10
0.834232
 20
-0.702636
  0
VERTEX
  8
EBENE_1
 62
    39
  6
CONTINUOUS
 10
0.818807
 20
-0.699693
  0
VERTEX
  8
EBENE_1
 62
    39
  6
CONTINUOUS
 10
0.804967
 20
-0.693967
  0
VERTEX
  8
EBENE_1
 62
    39
  6
CONTINUOUS
 10
0.792694
 20
-0.685562
  0
VERTEX
  8
EBENE_1
 62
    39
  6
CONTINUOUS
 10
0.781970
 20
-0.674584
  0
VERTEX
  8
EBENE_1
 62
    39
  6
CONTINUOUS
 10
0.772780
 20
-0.661136
  0
VERTEX
  8
EBENE_1
 62
    39
  6
CONTINUOUS
 10
0.765104
 20
-0.645322
  0
VERTEX
  8
EBENE_1
 62
    39
  6
CONTINUOUS
 10
0.758926
 20
-0.627247
  0
VERTEX
  8
EBENE_1
 62
    39
  6
CONTINUOUS
 10
0.754228
 20
-0.607014
  0
VERTEX
  8
EBENE_1
 62
    39
  6
CONTINUOUS
 10
0.750994
 20
-0.584727
  0
VERTEX
  8
EBENE_1
 62
    39
  6
CONTINUOUS
 10
0.749205
 20
-0.560492
  0
VERTEX
  8
EBENE_1
 62
    39
  6
CONTINUOUS
 10
0.749205
 20
-0.076988
  0
VERTEX
  8
EBENE_1
 62
    39
  6
CONTINUOUS
 10
0.756435
 20
-0.057502
  0
VERTEX
  8
EBENE_1
 62
    39
  6
CONTINUOUS
 10
0.764655
 20
-0.039133
  0
VERTEX
  8
EBENE_1
 62
    39
  6
CONTINUOUS
 10
0.773818
 20
-0.021827
  0
VERTEX
  8
EBENE_1
 62
    39
  6
CONTINUOUS
 10
0.783878
 20
-0.005533
  0
VERTEX
  8
EBENE_1
 62
    39
  6
CONTINUOUS
 10
0.794788
 20
0.009802
  0
VERTEX
  8
EBENE_1
 62
    39
  6
CONTINUOUS
 10
0.806504
 20
0.024230
  0
VERTEX
  8
EBENE_1
 62
    39
  6
CONTINUOUS
 10
0.818977
 20
0.037802
  0
VERTEX
  8
EBENE_1
 62
    39
  6
CONTINUOUS
 10
0.832162
 20
0.050573
  0
VERTEX
  8
EBENE_1
 62
    39
  6
CONTINUOUS
 10
0.846013
 20
0.062593
  0
VERTEX
  8
EBENE_1
 62
    39
  6
CONTINUOUS
 10
0.860484
 20
0.073916
  0
VERTEX
  8
EBENE_1
 62
    39
  6
CONTINUOUS
 10
0.875527
 20
0.084593
  0
VERTEX
  8
EBENE_1
 62
    39
  6
CONTINUOUS
 10
0.891097
 20
0.094677
  0
VERTEX
  8
EBENE_1
 62
    39
  6
CONTINUOUS
 10
0.907148
 20
0.104220
  0
VERTEX
  8
EBENE_1
 62
    39
  6
CONTINUOUS
 10
0.923633
 20
0.113275
  0
VERTEX
  8
EBENE_1
 62
    39
  6
CONTINUOUS
 10
0.940506
 20
0.121893
  0
VERTEX
  8
EBENE_1
 62
    39
  6
CONTINUOUS
 10
0.957720
 20
0.130127
  0
VERTEX
  8
EBENE_1
 62
    39
  6
CONTINUOUS
 10
0.975230
 20
0.138030
  0
VERTEX
  8
EBENE_1
 62
    39
  6
CONTINUOUS
 10
0.992989
 20
0.145654
  0
VERTEX
  8
EBENE_1
 62
    39
  6
CONTINUOUS
 10
1.010951
 20
0.153050
  0
VERTEX
  8
EBENE_1
 62
    39
  6
CONTINUOUS
 10
1.029069
 20
0.160272
  0
VERTEX
  8
EBENE_1
 62
    39
  6
CONTINUOUS
 10
1.047298
 20
0.167372
  0
VERTEX
  8
EBENE_1
 62
    39
  6
CONTINUOUS
 10
1.065591
 20
0.174402
  0
SEQEND
  8
0
  0
POLYLINE
  8
EBENE_1
 62
    39
  6
CONTINUOUS
 66
     1
 40
0.003000
 41
0.003000
 70
     1
  0
VERTEX
  8
EBENE_1
 62
    39
  6
CONTINUOUS
 10
0.446390
 20
0.067276
  0
VERTEX
  8
EBENE_1
 62
    39
  6
CONTINUOUS
 10
0.712783
 20
-0.369803
  0
VERTEX
  8
EBENE_1
 62
    39
  6
CONTINUOUS
 10
0.433535
 20
-0.441937
  0
VERTEX
  8
EBENE_1
 62
    39
  6
CONTINUOUS
 10
0.424066
 20
-0.443624
  0
VERTEX
  8
EBENE_1
 62
    39
  6
CONTINUOUS
 10
0.413745
 20
-0.444531
  0
VERTEX
  8
EBENE_1
 62
    39
  6
CONTINUOUS
 10
0.402631
 20
-0.444663
  0
VERTEX
  8
EBENE_1
 62
    39
  6
CONTINUOUS
 10
0.390781
 20
-0.444023
  0
VERTEX
  8
EBENE_1
 62
    39
  6
CONTINUOUS
 10
0.378252
 20
-0.442614
  0
VERTEX
  8
EBENE_1
 62
    39
  6
CONTINUOUS
 10
0.365104
 20
-0.440441
  0
VERTEX
  8
EBENE_1
 62
    39
  6
CONTINUOUS
 10
0.351392
 20
-0.437507
  0
VERTEX
  8
EBENE_1
 62
    39
  6
CONTINUOUS
 10
0.337176
 20
-0.433816
  0
VERTEX
  8
EBENE_1
 62
    39
  6
CONTINUOUS
 10
0.322512
 20
-0.429371
  0
VERTEX
  8
EBENE_1
 62
    39
  6
CONTINUOUS
 10
0.307459
 20
-0.424177
  0
VERTEX
  8
EBENE_1
 62
    39
  6
CONTINUOUS
 10
0.292074
 20
-0.418236
  0
VERTEX
  8
EBENE_1
 62
    39
  6
CONTINUOUS
 10
0.276415
 20
-0.411553
  0
VERTEX
  8
EBENE_1
 62
    39
  6
CONTINUOUS
 10
0.260539
 20
-0.404132
  0
VERTEX
  8
EBENE_1
 62
    39
  6
CONTINUOUS
 10
0.244505
 20
-0.395975
  0
VERTEX
  8
EBENE_1
 62
    39
  6
CONTINUOUS
 10
0.228370
 20
-0.387087
  0
VERTEX
  8
EBENE_1
 62
    39
  6
CONTINUOUS
 10
0.212191
 20
-0.377472
  0
VERTEX
  8
EBENE_1
 62
    39
  6
CONTINUOUS
 10
0.196027
 20
-0.367132
  0
VERTEX
  8
EBENE_1
 62
    39
  6
CONTINUOUS
 10
0.179935
 20
-0.356073
  0
VERTEX
  8
EBENE_1
 62
    39
  6
CONTINUOUS
 10
0.163973
 20
-0.344297
  0
VERTEX
  8
EBENE_1
 62
    39
  6
CONTINUOUS
 10
0.148199
 20
-0.331808
  0
VERTEX
  8
EBENE_1
 62
    39
  6
CONTINUOUS
 10
0.132669
 20
-0.318610
  0
VERTEX
  8
EBENE_1
 62
    39
  6
CONTINUOUS
 10
0.117443
 20
-0.304706
  0
VERTEX
  8
EBENE_1
 62
    39
  6
CONTINUOUS
 10
0.102577
 20
-0.290101
  0
VERTEX
  8
EBENE_1
 62
    39
  6
CONTINUOUS
 10
0.088130
 20
-0.274798
  0
VERTEX
  8
EBENE_1
 62
    39
  6
CONTINUOUS
 10
0.074159
 20
-0.258800
  0
VERTEX
  8
EBENE_1
 62
    39
  6
CONTINUOUS
 10
0.060722
 20
-0.242112
  0
VERTEX
  8
EBENE_1
 62
    39
  6
CONTINUOUS
 10
0.047876
 20
-0.224737
  0
VERTEX
  8
EBENE_1
 62
    39
  6
CONTINUOUS
 10
0.035680
 20
-0.206678
  0
VERTEX
  8
EBENE_1
 62
    39
  6
CONTINUOUS
 10
0.024190
 20
-0.187941
  0
VERTEX
  8
EBENE_1
 62
    39
  6
CONTINUOUS
 10
0.013466
 20
-0.168527
  0
VERTEX
  8
EBENE_1
 62
    39
  6
CONTINUOUS
 10
0.003563
 20
-0.148441
  0
VERTEX
  8
EBENE_1
 62
    39
  6
CONTINUOUS
 10
-0.005459
 20
-0.127687
  0
VERTEX
  8
EBENE_1
 62
    39
  6
CONTINUOUS
 10
-0.013543
 20
-0.106268
  0
VERTEX
  8
EBENE_1
 62
    39
  6
CONTINUOUS
 10
-0.013543
 20
-0.106268
  0
VERTEX
  8
EBENE_1
 62
    39
  6
CONTINUOUS
 10
-0.017185
 20
-0.079744
  0
VERTEX
  8
EBENE_1
 62
    39
  6
CONTINUOUS
 10
-0.017342
 20
-0.055061
  0
VERTEX
  8
EBENE_1
 62
    39
  6
CONTINUOUS
 10
-0.014284
 20
-0.032417
  0
VERTEX
  8
EBENE_1
 62
    39
  6
CONTINUOUS
 10
-0.008280
 20
-0.012013
  0
VERTEX
  8
EBENE_1
 62
    39
  6
CONTINUOUS
 10
0.000397
 20
0.005951
  0
VERTEX
  8
EBENE_1
 62
    39
  6
CONTINUOUS
 10
0.011479
 20
0.021277
  0
VERTEX
  8
EBENE_1
 62
    39
  6
CONTINUOUS
 10
0.024695
 20
0.033764
  0
VERTEX
  8
EBENE_1
 62
    39
  6
CONTINUOUS
 10
0.039773
 20
0.043212
  0
VERTEX
  8
EBENE_1
 62
    39
  6
CONTINUOUS
 10
0.056445
 20
0.049421
  0
VERTEX
  8
EBENE_1
 62
    39
  6
CONTINUOUS
 10
0.347118
 20
0.127268
  0
VERTEX
  8
EBENE_1
 62
    39
  6
CONTINUOUS
 10
0.372631
 20
0.131177
  0
VERTEX
  8
EBENE_1
 62
    39
  6
CONTINUOUS
 10
0.391098
 20
0.128116
  0
VERTEX
  8
EBENE_1
 62
    39
  6
CONTINUOUS
 10
0.404480
 20
0.119771
  0
VERTEX
  8
EBENE_1
 62
    39
  6
CONTINUOUS
 10
0.414739
 20
0.107828
  0
VERTEX
  8
EBENE_1
 62
    39
  6
CONTINUOUS
 10
0.423836
 20
0.093973
  0
VERTEX
  8
EBENE_1
 62
    39
  6
CONTINUOUS
 10
0.433733
 20
0.079894
  0
SEQEND
  8
0
  0
POLYLINE
  8
EBENE_1
 62
    39
  6
CONTINUOUS
 66
     1
 40
0.003000
 41
0.003000
 70
     1
  0
VERTEX
  8
EBENE_1
 62
    39
  6
CONTINUOUS
 10
0.446390
 20
0.065846
  0
VERTEX
  8
EBENE_1
 62
    39
  6
CONTINUOUS
 10
0.708496
 20
-0.364091
  0
VERTEX
  8
EBENE_1
 62
    39
  6
CONTINUOUS
 10
0.434248
 20
-0.435508
  0
VERTEX
  8
EBENE_1
 62
    39
  6
CONTINUOUS
 10
0.424611
 20
-0.437239
  0
VERTEX
  8
EBENE_1
 62
    39
  6
CONTINUOUS
 10
0.414086
 20
-0.438150
  0
VERTEX
  8
EBENE_1
 62
    39
  6
CONTINUOUS
 10
0.402735
 20
-0.438245
  0
VERTEX
  8
EBENE_1
 62
    39
  6
CONTINUOUS
 10
0.390622
 20
-0.437529
  0
VERTEX
  8
EBENE_1
 62
    39
  6
CONTINUOUS
 10
0.377807
 20
-0.436006
  0
VERTEX
  8
EBENE_1
 62
    39
  6
CONTINUOUS
 10
0.364354
 20
-0.433680
  0
VERTEX
  8
EBENE_1
 62
    39
  6
CONTINUOUS
 10
0.350324
 20
-0.430556
  0
VERTEX
  8
EBENE_1
 62
    39
  6
CONTINUOUS
 10
0.335780
 20
-0.426637
  0
VERTEX
  8
EBENE_1
 62
    39
  6
CONTINUOUS
 10
0.320784
 20
-0.421928
  0
VERTEX
  8
EBENE_1
 62
    39
  6
CONTINUOUS
 10
0.305399
 20
-0.416434
  0
VERTEX
  8
EBENE_1
 62
    39
  6
CONTINUOUS
 10
0.289686
 20
-0.410159
  0
VERTEX
  8
EBENE_1
 62
    39
  6
CONTINUOUS
 10
0.273708
 20
-0.403107
  0
VERTEX
  8
EBENE_1
 62
    39
  6
CONTINUOUS
 10
0.257526
 20
-0.395282
  0
VERTEX
  8
EBENE_1
 62
    39
  6
CONTINUOUS
 10
0.241205
 20
-0.386689
  0
VERTEX
  8
EBENE_1
 62
    39
  6
CONTINUOUS
 10
0.224804
 20
-0.377332
  0
VERTEX
  8
EBENE_1
 62
    39
  6
CONTINUOUS
 10
0.208388
 20
-0.367215
  0
VERTEX
  8
EBENE_1
 62
    39
  6
CONTINUOUS
 10
0.192017
 20
-0.356343
  0
VERTEX
  8
EBENE_1
 62
    39
  6
CONTINUOUS
 10
0.175755
 20
-0.344720
  0
VERTEX
  8
EBENE_1
 62
    39
  6
CONTINUOUS
 10
0.159664
 20
-0.332350
  0
VERTEX
  8
EBENE_1
 62
    39
  6
CONTINUOUS
 10
0.143805
 20
-0.319238
  0
VERTEX
  8
EBENE_1
 62
    39
  6
CONTINUOUS
 10
0.128241
 20
-0.305388
  0
VERTEX
  8
EBENE_1
 62
    39
  6
CONTINUOUS
 10
0.113034
 20
-0.290804
  0
VERTEX
  8
EBENE_1
 62
    39
  6
CONTINUOUS
 10
0.098247
 20
-0.275490
  0
VERTEX
  8
EBENE_1
 62
    39
  6
CONTINUOUS
 10
0.083942
 20
-0.259451
  0
VERTEX
  8
EBENE_1
 62
    39
  6
CONTINUOUS
 10
0.070181
 20
-0.242692
  0
VERTEX
  8
EBENE_1
 62
    39
  6
CONTINUOUS
 10
0.057026
 20
-0.225216
  0
VERTEX
  8
EBENE_1
 62
    39
  6
CONTINUOUS
 10
0.044540
 20
-0.207028
  0
VERTEX
  8
EBENE_1
 62
    39
  6
CONTINUOUS
 10
0.032784
 20
-0.188132
  0
VERTEX
  8
EBENE_1
 62
    39
  6
CONTINUOUS
 10
0.021822
 20
-0.168532
  0
VERTEX
  8
EBENE_1
 62
    39
  6
CONTINUOUS
 10
0.011715
 20
-0.148233
  0
VERTEX
  8
EBENE_1
 62
    39
  6
CONTINUOUS
 10
0.002525
 20
-0.127240
  0
VERTEX
  8
EBENE_1
 62
    39
  6
CONTINUOUS
 10
-0.005685
 20
-0.105555
  0
VERTEX
  8
EBENE_1
 62
    39
  6
CONTINUOUS
 10
-0.009353
 20
-0.079293
  0
VERTEX
  8
EBENE_1
 62
    39
  6
CONTINUOUS
 10
-0.009582
 20
-0.054906
  0
VERTEX
  8
EBENE_1
 62
    39
  6
CONTINUOUS
 10
-0.006638
 20
-0.032577
  0
VERTEX
  8
EBENE_1
 62
    39
  6
CONTINUOUS
 10
-0.000784
 20
-0.012487
  0
VERTEX
  8
EBENE_1
 62
    39
  6
CONTINUOUS
 10
0.007715
 20
0.005181
  0
VERTEX
  8
EBENE_1
 62
    39
  6
CONTINUOUS
 10
0.018594
 20
0.020245
  0
VERTEX
  8
EBENE_1
 62
    39
  6
CONTINUOUS
 10
0.031590
 20
0.032523
  0
VERTEX
  8
EBENE_1
 62
    39
  6
CONTINUOUS
 10
0.046436
 20
0.041833
  0
VERTEX
  8
EBENE_1
 62
    39
  6
CONTINUOUS
 10
0.062870
 20
0.047992
  0
VERTEX
  8
EBENE_1
 62
    39
  6
CONTINUOUS
 10
0.348547
 20
0.124409
  0
VERTEX
  8
EBENE_1
 62
    39
  6
CONTINUOUS
 10
0.373757
 20
0.128325
  0
VERTEX
  8
EBENE_1
 62
    39
  6
CONTINUOUS
 10
0.391932
 20
0.125293
  0
VERTEX
  8
EBENE_1
 62
    39
  6
CONTINUOUS
 10
0.405048
 20
0.117027
  0
VERTEX
  8
EBENE_1
 62
    39
  6
CONTINUOUS
 10
0.415077
 20
0.105237
  0
VERTEX
  8
EBENE_1
 62
    39
  6
CONTINUOUS
 10
0.423995
 20
0.091636
  0
VERTEX
  8
EBENE_1
 62
    39
  6
CONTINUOUS
 10
0.433774
 20
0.077936
  0
SEQEND
  8
0
  0
POLYLINE
  8
EBENE_1
 62
    39
  6
CONTINUOUS
 66
     1
 40
0.003000
 41
0.003000
 70
     1
  0
VERTEX
  8
EBENE_1
 62
    39
  6
CONTINUOUS
 10
0.213567
 20
0.045850
  0
VERTEX
  8
EBENE_1
 62
    39
  6
CONTINUOUS
 10
0.218697
 20
0.047146
  0
VERTEX
  8
EBENE_1
 62
    39
  6
CONTINUOUS
 10
0.222241
 20
0.050505
  0
VERTEX
  8
EBENE_1
 62
    39
  6
CONTINUOUS
 10
0.223563
 20
0.055134
  0
VERTEX
  8
EBENE_1
 62
    39
  6
CONTINUOUS
 10
0.222241
 20
0.060264
  0
VERTEX
  8
EBENE_1
 62
    39
  6
CONTINUOUS
 10
0.218697
 20
0.063808
  0
VERTEX
  8
EBENE_1
 62
    39
  6
CONTINUOUS
 10
0.213567
 20
0.065130
  0
VERTEX
  8
EBENE_1
 62
    39
  6
CONTINUOUS
 10
0.208937
 20
0.063808
  0
VERTEX
  8
EBENE_1
 62
    39
  6
CONTINUOUS
 10
0.205576
 20
0.060264
  0
VERTEX
  8
EBENE_1
 62
    39
  6
CONTINUOUS
 10
0.204280
 20
0.055134
  0
VERTEX
  8
EBENE_1
 62
    39
  6
CONTINUOUS
 10
0.205576
 20
0.050505
  0
VERTEX
  8
EBENE_1
 62
    39
  6
CONTINUOUS
 10
0.208937
 20
0.047146
  0
SEQEND
  8
0
  0
POLYLINE
  8
EBENE_1
 62
    39
  6
CONTINUOUS
 66
     1
 40
0.003000
 41
0.003000
 70
     1
  0
VERTEX
  8
EBENE_1
 62
    39
  6
CONTINUOUS
 10
0.315697
 20
0.067988
  0
VERTEX
  8
EBENE_1
 62
    39
  6
CONTINUOUS
 10
0.320827
 20
0.069285
  0
VERTEX
  8
EBENE_1
 62
    39
  6
CONTINUOUS
 10
0.324371
 20
0.072644
  0
VERTEX
  8
EBENE_1
 62
    39
  6
CONTINUOUS
 10
0.325693
 20
0.077272
  0
VERTEX
  8
EBENE_1
 62
    39
  6
CONTINUOUS
 10
0.324371
 20
0.081902
  0
VERTEX
  8
EBENE_1
 62
    39
  6
CONTINUOUS
 10
0.320827
 20
0.085262
  0
VERTEX
  8
EBENE_1
 62
    39
  6
CONTINUOUS
 10
0.315697
 20
0.086559
  0
VERTEX
  8
EBENE_1
 62
    39
  6
CONTINUOUS
 10
0.311067
 20
0.085262
  0
VERTEX
  8
EBENE_1
 62
    39
  6
CONTINUOUS
 10
0.307706
 20
0.081902
  0
VERTEX
  8
EBENE_1
 62
    39
  6
CONTINUOUS
 10
0.306409
 20
0.077272
  0
VERTEX
  8
EBENE_1
 62
    39
  6
CONTINUOUS
 10
0.307706
 20
0.072644
  0
VERTEX
  8
EBENE_1
 62
    39
  6
CONTINUOUS
 10
0.311067
 20
0.069285
  0
SEQEND
  8
0
  0
POLYLINE
  8
EBENE_1
 62
    39
  6
CONTINUOUS
 66
     1
 40
0.003000
 41
0.003000
 70
     1
  0
VERTEX
  8
EBENE_1
 62
    39
  6
CONTINUOUS
 10
0.415681
 20
0.029421
  0
VERTEX
  8
EBENE_1
 62
    39
  6
CONTINUOUS
 10
0.420310
 20
0.030718
  0
VERTEX
  8
EBENE_1
 62
    39
  6
CONTINUOUS
 10
0.423669
 20
0.034077
  0
VERTEX
  8
EBENE_1
 62
    39
  6
CONTINUOUS
 10
0.424965
 20
0.038705
  0
VERTEX
  8
EBENE_1
 62
    39
  6
CONTINUOUS
 10
0.423669
 20
0.043838
  0
VERTEX
  8
EBENE_1
 62
    39
  6
CONTINUOUS
 10
0.420310
 20
0.047382
  0
VERTEX
  8
EBENE_1
 62
    39
  6
CONTINUOUS
 10
0.415681
 20
0.048705
  0
VERTEX
  8
EBENE_1
 62
    39
  6
CONTINUOUS
 10
0.411052
 20
0.047382
  0
VERTEX
  8
EBENE_1
 62
    39
  6
CONTINUOUS
 10
0.407693
 20
0.043838
  0
VERTEX
  8
EBENE_1
 62
    39
  6
CONTINUOUS
 10
0.406398
 20
0.038705
  0
VERTEX
  8
EBENE_1
 62
    39
  6
CONTINUOUS
 10
0.407693
 20
0.034077
  0
VERTEX
  8
EBENE_1
 62
    39
  6
CONTINUOUS
 10
0.411052
 20
0.030718
  0
SEQEND
  8
0
  0
POLYLINE
  8
EBENE_1
 62
    39
  6
CONTINUOUS
 66
     1
 40
0.003000
 41
0.003000
 70
     1
  0
VERTEX
  8
EBENE_1
 62
    39
  6
CONTINUOUS
 10
0.733492
 20
0.136551
  0
VERTEX
  8
EBENE_1
 62
    39
  6
CONTINUOUS
 10
1.000602
 20
-0.300528
  0
VERTEX
  8
EBENE_1
 62
    39
  6
CONTINUOUS
 10
0.721354
 20
-0.372661
  0
VERTEX
  8
EBENE_1
 62
    39
  6
CONTINUOUS
 10
0.711822
 20
-0.374346
  0
VERTEX
  8
EBENE_1
 62
    39
  6
CONTINUOUS
 10
0.701442
 20
-0.375248
  0
VERTEX
  8
EBENE_1
 62
    39
  6
CONTINUOUS
 10
0.690272
 20
-0.375371
  0
VERTEX
  8
EBENE_1
 62
    39
  6
CONTINUOUS
 10
0.678370
 20
-0.374719
  0
VERTEX
  8
EBENE_1
 62
    39
  6
CONTINUOUS
 10
0.665795
 20
-0.373297
  0
VERTEX
  8
EBENE_1
 62
    39
  6
CONTINUOUS
 10
0.652603
 20
-0.371108
  0
VERTEX
  8
EBENE_1
 62
    39
  6
CONTINUOUS
 10
0.638852
 20
-0.368156
  0
VERTEX
  8
EBENE_1
 62
    39
  6
CONTINUOUS
 10
0.624600
 20
-0.364445
  0
VERTEX
  8
EBENE_1
 62
    39
  6
CONTINUOUS
 10
0.609905
 20
-0.359980
  0
VERTEX
  8
EBENE_1
 62
    39
  6
CONTINUOUS
 10
0.594824
 20
-0.354764
  0
VERTEX
  8
EBENE_1
 62
    39
  6
CONTINUOUS
 10
0.579415
 20
-0.348802
  0
VERTEX
  8
EBENE_1
 62
    39
  6
CONTINUOUS
 10
0.563736
 20
-0.342098
  0
VERTEX
  8
EBENE_1
 62
    39
  6
CONTINUOUS
 10
0.547845
 20
-0.334655
  0
VERTEX
  8
EBENE_1
 62
    39
  6
CONTINUOUS
 10
0.531799
 20
-0.326478
  0
VERTEX
  8
EBENE_1
 62
    39
  6
CONTINUOUS
 10
0.515655
 20
-0.317571
  0
VERTEX
  8
EBENE_1
 62
    39
  6
CONTINUOUS
 10
0.499473
 20
-0.307937
  0
VERTEX
  8
EBENE_1
 62
    39
  6
CONTINUOUS
 10
0.483309
 20
-0.297582
  0
VERTEX
  8
EBENE_1
 62
    39
  6
CONTINUOUS
 10
0.467221
 20
-0.286508
  0
VERTEX
  8
EBENE_1
 62
    39
  6
CONTINUOUS
 10
0.451266
 20
-0.274720
  0
VERTEX
  8
EBENE_1
 62
    39
  6
CONTINUOUS
 10
0.435503
 20
-0.262223
  0
VERTEX
  8
EBENE_1
 62
    39
  6
CONTINUOUS
 10
0.419990
 20
-0.249019
  0
VERTEX
  8
EBENE_1
 62
    39
  6
CONTINUOUS
 10
0.404783
 20
-0.235114
  0
VERTEX
  8
EBENE_1
 62
    39
  6
CONTINUOUS
 10
0.389941
 20
-0.220511
  0
VERTEX
  8
EBENE_1
 62
    39
  6
CONTINUOUS
 10
0.375521
 20
-0.205214
  0
VERTEX
  8
EBENE_1
 62
    39
  6
CONTINUOUS
 10
0.361582
 20
-0.189227
  0
VERTEX
  8
EBENE_1
 62
    39
  6
CONTINUOUS
 10
0.348180
 20
-0.172555
  0
VERTEX
  8
EBENE_1
 62
    39
  6
CONTINUOUS
 10
0.335373
 20
-0.155201
  0
VERTEX
  8
EBENE_1
 62
    39
  6
CONTINUOUS
 10
0.323220
 20
-0.137170
  0
VERTEX
  8
EBENE_1
 62
    39
  6
CONTINUOUS
 10
0.311778
 20
-0.118465
  0
VERTEX
  8
EBENE_1
 62
    39
  6
CONTINUOUS
 10
0.301104
 20
-0.099091
  0
VERTEX
  8
EBENE_1
 62
    39
  6
CONTINUOUS
 10
0.291257
 20
-0.079051
  0
VERTEX
  8
EBENE_1
 62
    39
  6
CONTINUOUS
 10
0.282293
 20
-0.058350
  0
VERTEX
  8
EBENE_1
 62
    39
  6
CONTINUOUS
 10
0.274272
 20
-0.036992
  0
VERTEX
  8
EBENE_1
 62
    39
  6
CONTINUOUS
 10
0.274272
 20
-0.036992
  0
VERTEX
  8
EBENE_1
 62
    39
  6
CONTINUOUS
 10
0.270606
 20
-0.010469
  0
VERTEX
  8
EBENE_1
 62
    39
  6
CONTINUOUS
 10
0.270391
 20
0.014221
  0
VERTEX
  8
EBENE_1
 62
    39
  6
CONTINUOUS
 10
0.273373
 20
0.036883
  0
VERTEX
  8
EBENE_1
 62
    39
  6
CONTINUOUS
 10
0.279300
 20
0.057323
  0
VERTEX
  8
EBENE_1
 62
    39
  6
CONTINUOUS
 10
0.287920
 20
0.075348
  0
VERTEX
  8
EBENE_1
 62
    39
  6
CONTINUOUS
 10
0.298979
 20
0.090763
  0
VERTEX
  8
EBENE_1
 62
    39
  6
CONTINUOUS
 10
0.312224
 20
0.103374
  0
VERTEX
  8
EBENE_1
 62
    39
  6
CONTINUOUS
 10
0.327403
 20
0.112988
  0
VERTEX
  8
EBENE_1
 62
    39
  6
CONTINUOUS
 10
0.344264
 20
0.119409
  0
VERTEX
  8
EBENE_1
 62
    39
  6
CONTINUOUS
 10
0.633508
 20
0.196543
  0
VERTEX
  8
EBENE_1
 62
    39
  6
CONTINUOUS
 10
0.659023
 20
0.200679
  0
VERTEX
  8
EBENE_1
 62
    39
  6
CONTINUOUS
 10
0.677504
 20
0.197705
  0
VERTEX
  8
EBENE_1
 62
    39
  6
CONTINUOUS
 10
0.690926
 20
0.189347
  0
VERTEX
  8
EBENE_1
 62
    39
  6
CONTINUOUS
 10
0.701262
 20
0.177329
  0
VERTEX
  8
EBENE_1
 62
    39
  6
CONTINUOUS
 10
0.710486
 20
0.163374
  0
VERTEX
  8
EBENE_1
 62
    39
  6
CONTINUOUS
 10
0.720571
 20
0.149207
  0
SEQEND
  8
0
  0
POLYLINE
  8
EBENE_1
 62
    39
  6
CONTINUOUS
 66
     1
 40
0.003000
 41
0.003000
 70
     1
  0
VERTEX
  8
EBENE_1
 62
    39
  6
CONTINUOUS
 10
0.733492
 20
0.135122
  0
VERTEX
  8
EBENE_1
 62
    39
  6
CONTINUOUS
 10
0.996315
 20
-0.294815
  0
VERTEX
  8
EBENE_1
 62
    39
  6
CONTINUOUS
 10
0.721354
 20
-0.366232
  0
VERTEX
  8
EBENE_1
 62
    39
  6
CONTINUOUS
 10
0.711654
 20
-0.367901
  0
VERTEX
  8
EBENE_1
 62
    39
  6
CONTINUOUS
 10
0.701074
 20
-0.368757
  0
VERTEX
  8
EBENE_1
 62
    39
  6
CONTINUOUS
 10
0.689676
 20
-0.368805
  0
VERTEX
  8
EBENE_1
 62
    39
  6
CONTINUOUS
 10
0.677522
 20
-0.368049
  0
VERTEX
  8
EBENE_1
 62
    39
  6
CONTINUOUS
 10
0.664674
 20
-0.366493
  0
VERTEX
  8
EBENE_1
 62
    39
  6
CONTINUOUS
 10
0.651194
 20
-0.364140
  0
VERTEX
  8
EBENE_1
 62
    39
  6
CONTINUOUS
 10
0.637143
 20
-0.360995
  0
VERTEX
  8
EBENE_1
 62
    39
  6
CONTINUOUS
 10
0.622583
 20
-0.357061
  0
VERTEX
  8
EBENE_1
 62
    39
  6
CONTINUOUS
 10
0.607577
 20
-0.352342
  0
VERTEX
  8
EBENE_1
 62
    39
  6
CONTINUOUS
 10
0.592187
 20
-0.346843
  0
VERTEX
  8
EBENE_1
 62
    39
  6
CONTINUOUS
 10
0.576473
 20
-0.340567
  0
VERTEX
  8
EBENE_1
 62
    39
  6
CONTINUOUS
 10
0.560498
 20
-0.333518
  0
VERTEX
  8
EBENE_1
 62
    39
  6
CONTINUOUS
 10
0.544323
 20
-0.325700
  0
VERTEX
  8
EBENE_1
 62
    39
  6
CONTINUOUS
 10
0.528011
 20
-0.317117
  0
VERTEX
  8
EBENE_1
 62
    39
  6
CONTINUOUS
 10
0.511624
 20
-0.307773
  0
VERTEX
  8
EBENE_1
 62
    39
  6
CONTINUOUS
 10
0.495223
 20
-0.297672
  0
VERTEX
  8
EBENE_1
 62
    39
  6
CONTINUOUS
 10
0.478870
 20
-0.286818
  0
VERTEX
  8
EBENE_1
 62
    39
  6
CONTINUOUS
 10
0.462627
 20
-0.275214
  0
VERTEX
  8
EBENE_1
 62
    39
  6
CONTINUOUS
 10
0.446556
 20
-0.262865
  0
VERTEX
  8
EBENE_1
 62
    39
  6
CONTINUOUS
 10
0.430718
 20
-0.249774
  0
VERTEX
  8
EBENE_1
 62
    39
  6
CONTINUOUS
 10
0.415177
 20
-0.235946
  0
VERTEX
  8
EBENE_1
 62
    39
  6
CONTINUOUS
 10
0.399992
 20
-0.221384
  0
VERTEX
  8
EBENE_1
 62
    39
  6
CONTINUOUS
 10
0.385227
 20
-0.206093
  0
VERTEX
  8
EBENE_1
 62
    39
  6
CONTINUOUS
 10
0.370943
 20
-0.190076
  0
VERTEX
  8
EBENE_1
 62
    39
  6
CONTINUOUS
 10
0.357202
 20
-0.173336
  0
VERTEX
  8
EBENE_1
 62
    39
  6
CONTINUOUS
 10
0.344065
 20
-0.155879
  0
VERTEX
  8
EBENE_1
 62
    39
  6
CONTINUOUS
 10
0.331596
 20
-0.137708
  0
VERTEX
  8
EBENE_1
 62
    39
  6
CONTINUOUS
 10
0.319855
 20
-0.118827
  0
VERTEX
  8
EBENE_1
 62
    39
  6
CONTINUOUS
 10
0.308904
 20
-0.099240
  0
VERTEX
  8
EBENE_1
 62
    39
  6
CONTINUOUS
 10
0.298806
 20
-0.078950
  0
VERTEX
  8
EBENE_1
 62
    39
  6
CONTINUOUS
 10
0.289622
 20
-0.057962
  0
VERTEX
  8
EBENE_1
 62
    39
  6
CONTINUOUS
 10
0.281413
 20
-0.036280
  0
VERTEX
  8
EBENE_1
 62
    39
  6
CONTINUOUS
 10
0.277934
 20
-0.010018
  0
VERTEX
  8
EBENE_1
 62
    39
  6
CONTINUOUS
 10
0.277812
 20
0.014368
  0
VERTEX
  8
EBENE_1
 62
    39
  6
CONTINUOUS
 10
0.280805
 20
0.036697
  0
VERTEX
  8
EBENE_1
 62
    39
  6
CONTINUOUS
 10
0.286672
 20
0.056787
  0
VERTEX
  8
EBENE_1
 62
    39
  6
CONTINUOUS
 10
0.295173
 20
0.074455
  0
VERTEX
  8
EBENE_1
 62
    39
  6
CONTINUOUS
 10
0.306066
 20
0.089520
  0
VERTEX
  8
EBENE_1
 62
    39
  6
CONTINUOUS
 10
0.319111
 20
0.101798
  0
VERTEX
  8
EBENE_1
 62
    39
  6
CONTINUOUS
 10
0.334065
 20
0.111108
  0
VERTEX
  8
EBENE_1
 62
    39
  6
CONTINUOUS
 10
0.350689
 20
0.117268
  0
VERTEX
  8
EBENE_1
 62
    39
  6
CONTINUOUS
 10
0.635650
 20
0.193685
  0
VERTEX
  8
EBENE_1
 62
    39
  6
CONTINUOUS
 10
0.660635
 20
0.197638
  0
VERTEX
  8
EBENE_1
 62
    39
  6
CONTINUOUS
 10
0.678723
 20
0.194694
  0
VERTEX
  8
EBENE_1
 62
    39
  6
CONTINUOUS
 10
0.691851
 20
0.186528
  0
VERTEX
  8
EBENE_1
 62
    39
  6
CONTINUOUS
 10
0.701955
 20
0.174814
  0
VERTEX
  8
EBENE_1
 62
    39
  6
CONTINUOUS
 10
0.710973
 20
0.161225
  0
VERTEX
  8
EBENE_1
 62
    39
  6
CONTINUOUS
 10
0.720839
 20
0.147437
  0
SEQEND
  8
0
  0
POLYLINE
  8
EBENE_1
 62
    39
  6
CONTINUOUS
 66
     1
 40
0.003000
 41
0.003000
 70
     1
  0
VERTEX
  8
EBENE_1
 62
    39
  6
CONTINUOUS
 10
0.500669
 20
0.115126
  0
VERTEX
  8
EBENE_1
 62
    39
  6
CONTINUOUS
 10
0.505298
 20
0.116422
  0
VERTEX
  8
EBENE_1
 62
    39
  6
CONTINUOUS
 10
0.508657
 20
0.119780
  0
VERTEX
  8
EBENE_1
 62
    39
  6
CONTINUOUS
 10
0.509953
 20
0.124409
  0
VERTEX
  8
EBENE_1
 62
    39
  6
CONTINUOUS
 10
0.508657
 20
0.129541
  0
VERTEX
  8
EBENE_1
 62
    39
  6
CONTINUOUS
 10
0.505298
 20
0.133086
  0
VERTEX
  8
EBENE_1
 62
    39
  6
CONTINUOUS
 10
0.500669
 20
0.134409
  0
VERTEX
  8
EBENE_1
 62
    39
  6
CONTINUOUS
 10
0.495538
 20
0.133086
  0
VERTEX
  8
EBENE_1
 62
    39
  6
CONTINUOUS
 10
0.491992
 20
0.129541
  0
VERTEX
  8
EBENE_1
 62
    39
  6
CONTINUOUS
 10
0.490669
 20
0.124409
  0
VERTEX
  8
EBENE_1
 62
    39
  6
CONTINUOUS
 10
0.491992
 20
0.119780
  0
VERTEX
  8
EBENE_1
 62
    39
  6
CONTINUOUS
 10
0.495538
 20
0.116422
  0
SEQEND
  8
0
  0
POLYLINE
  8
EBENE_1
 62
    39
  6
CONTINUOUS
 66
     1
 40
0.003000
 41
0.003000
 70
     1
  0
VERTEX
  8
EBENE_1
 62
    39
  6
CONTINUOUS
 10
0.602799
 20
0.137264
  0
VERTEX
  8
EBENE_1
 62
    39
  6
CONTINUOUS
 10
0.607428
 20
0.138561
  0
VERTEX
  8
EBENE_1
 62
    39
  6
CONTINUOUS
 10
0.610787
 20
0.141921
  0
VERTEX
  8
EBENE_1
 62
    39
  6
CONTINUOUS
 10
0.612083
 20
0.146551
  0
VERTEX
  8
EBENE_1
 62
    39
  6
CONTINUOUS
 10
0.610787
 20
0.151682
  0
VERTEX
  8
EBENE_1
 62
    39
  6
CONTINUOUS
 10
0.607428
 20
0.155225
  0
VERTEX
  8
EBENE_1
 62
    39
  6
CONTINUOUS
 10
0.602799
 20
0.156547
  0
VERTEX
  8
EBENE_1
 62
    39
  6
CONTINUOUS
 10
0.597666
 20
0.155225
  0
VERTEX
  8
EBENE_1
 62
    39
  6
CONTINUOUS
 10
0.594121
 20
0.151682
  0
VERTEX
  8
EBENE_1
 62
    39
  6
CONTINUOUS
 10
0.592799
 20
0.146551
  0
VERTEX
  8
EBENE_1
 62
    39
  6
CONTINUOUS
 10
0.594121
 20
0.141921
  0
VERTEX
  8
EBENE_1
 62
    39
  6
CONTINUOUS
 10
0.597666
 20
0.138561
  0
SEQEND
  8
0
  0
POLYLINE
  8
EBENE_1
 62
    39
  6
CONTINUOUS
 66
     1
 40
0.003000
 41
0.003000
 70
     1
  0
VERTEX
  8
EBENE_1
 62
    39
  6
CONTINUOUS
 10
0.702783
 20
0.098697
  0
VERTEX
  8
EBENE_1
 62
    39
  6
CONTINUOUS
 10
0.707413
 20
0.099994
  0
VERTEX
  8
EBENE_1
 62
    39
  6
CONTINUOUS
 10
0.710771
 20
0.103354
  0
VERTEX
  8
EBENE_1
 62
    39
  6
CONTINUOUS
 10
0.712067
 20
0.107984
  0
VERTEX
  8
EBENE_1
 62
    39
  6
CONTINUOUS
 10
0.710771
 20
0.113115
  0
VERTEX
  8
EBENE_1
 62
    39
  6
CONTINUOUS
 10
0.707413
 20
0.116658
  0
VERTEX
  8
EBENE_1
 62
    39
  6
CONTINUOUS
 10
0.702783
 20
0.117980
  0
VERTEX
  8
EBENE_1
 62
    39
  6
CONTINUOUS
 10
0.697653
 20
0.116658
  0
VERTEX
  8
EBENE_1
 62
    39
  6
CONTINUOUS
 10
0.694110
 20
0.113115
  0
VERTEX
  8
EBENE_1
 62
    39
  6
CONTINUOUS
 10
0.692787
 20
0.107984
  0
VERTEX
  8
EBENE_1
 62
    39
  6
CONTINUOUS
 10
0.694110
 20
0.103354
  0
VERTEX
  8
EBENE_1
 62
    39
  6
CONTINUOUS
 10
0.697653
 20
0.099994
  0
SEQEND
  8
0
  0
POLYLINE
  8
EBENE_1
 62
    39
  6
CONTINUOUS
 66
     1
 40
0.003000
 41
0.003000
 70
     1
  0
VERTEX
  8
EBENE_1
 62
    39
  6
CONTINUOUS
 10
-0.848429
 20
0.152976
  0
VERTEX
  8
EBENE_1
 62
    39
  6
CONTINUOUS
 10
-0.582035
 20
-0.284102
  0
VERTEX
  8
EBENE_1
 62
    39
  6
CONTINUOUS
 10
-0.861283
 20
-0.356949
  0
VERTEX
  8
EBENE_1
 62
    39
  6
CONTINUOUS
 10
-0.870816
 20
-0.358634
  0
VERTEX
  8
EBENE_1
 62
    39
  6
CONTINUOUS
 10
-0.881196
 20
-0.359536
  0
VERTEX
  8
EBENE_1
 62
    39
  6
CONTINUOUS
 10
-0.892365
 20
-0.359659
  0
VERTEX
  8
EBENE_1
 62
    39
  6
CONTINUOUS
 10
-0.904267
 20
-0.359007
  0
VERTEX
  8
EBENE_1
 62
    39
  6
CONTINUOUS
 10
-0.916844
 20
-0.357584
  0
VERTEX
  8
EBENE_1
 62
    39
  6
CONTINUOUS
 10
-0.930038
 20
-0.355395
  0
VERTEX
  8
EBENE_1
 62
    39
  6
CONTINUOUS
 10
-0.943791
 20
-0.352443
  0
VERTEX
  8
EBENE_1
 62
    39
  6
CONTINUOUS
 10
-0.958046
 20
-0.348732
  0
VERTEX
  8
EBENE_1
 62
    39
  6
CONTINUOUS
 10
-0.972746
 20
-0.344267
  0
VERTEX
  8
EBENE_1
 62
    39
  6
CONTINUOUS
 10
-0.987832
 20
-0.339052
  0
VERTEX
  8
EBENE_1
 62
    39
  6
CONTINUOUS
 10
-1.003247
 20
-0.333090
  0
VERTEX
  8
EBENE_1
 62
    39
  6
CONTINUOUS
 10
-1.018934
 20
-0.326385
  0
VERTEX
  8
EBENE_1
 62
    39
  6
CONTINUOUS
 10
-1.034835
 20
-0.318942
  0
VERTEX
  8
EBENE_1
 62
    39
  6
CONTINUOUS
 10
-1.050892
 20
-0.310765
  0
VERTEX
  8
EBENE_1
 62
    39
  6
CONTINUOUS
 10
-1.067048
 20
-0.301858
  0
VERTEX
  8
EBENE_1
 62
    39
  6
CONTINUOUS
 10
-1.083245
 20
-0.292225
  0
VERTEX
  8
EBENE_1
 62
    39
  6
CONTINUOUS
 10
-1.099425
 20
-0.281869
  0
VERTEX
  8
EBENE_1
 62
    39
  6
CONTINUOUS
 10
-1.115532
 20
-0.270795
  0
VERTEX
  8
EBENE_1
 62
    39
  6
CONTINUOUS
 10
-1.131506
 20
-0.259008
  0
VERTEX
  8
EBENE_1
 62
    39
  6
CONTINUOUS
 10
-1.147292
 20
-0.246510
  0
VERTEX
  8
EBENE_1
 62
    39
  6
CONTINUOUS
 10
-1.162831
 20
-0.233307
  0
VERTEX
  8
EBENE_1
 62
    39
  6
CONTINUOUS
 10
-1.178065
 20
-0.219401
  0
VERTEX
  8
EBENE_1
 62
    39
  6
CONTINUOUS
 10
-1.192937
 20
-0.204798
  0
VERTEX
  8
EBENE_1
 62
    39
  6
CONTINUOUS
 10
-1.207390
 20
-0.189501
  0
VERTEX
  8
EBENE_1
 62
    39
  6
CONTINUOUS
 10
-1.221366
 20
-0.173514
  0
VERTEX
  8
EBENE_1
 62
    39
  6
CONTINUOUS
 10
-1.234806
 20
-0.156842
  0
VERTEX
  8
EBENE_1
 62
    39
  6
CONTINUOUS
 10
-1.247655
 20
-0.139488
  0
VERTEX
  8
EBENE_1
 62
    39
  6
CONTINUOUS
 10
-1.259853
 20
-0.121457
  0
VERTEX
  8
EBENE_1
 62
    39
  6
CONTINUOUS
 10
-1.271344
 20
-0.102752
  0
VERTEX
  8
EBENE_1
 62
    39
  6
CONTINUOUS
 10
-1.282069
 20
-0.083378
  0
VERTEX
  8
EBENE_1
 62
    39
  6
CONTINUOUS
 10
-1.291972
 20
-0.063339
  0
VERTEX
  8
EBENE_1
 62
    39
  6
CONTINUOUS
 10
-1.300994
 20
-0.042638
  0
VERTEX
  8
EBENE_1
 62
    39
  6
CONTINUOUS
 10
-1.309079
 20
-0.021280
  0
VERTEX
  8
EBENE_1
 62
    39
  6
CONTINUOUS
 10
-1.309079
 20
-0.021280
  0
VERTEX
  8
EBENE_1
 62
    39
  6
CONTINUOUS
 10
-1.312721
 20
0.005431
  0
VERTEX
  8
EBENE_1
 62
    39
  6
CONTINUOUS
 10
-1.312878
 20
0.030221
  0
VERTEX
  8
EBENE_1
 62
    39
  6
CONTINUOUS
 10
-1.309819
 20
0.052912
  0
VERTEX
  8
EBENE_1
 62
    39
  6
CONTINUOUS
 10
-1.303815
 20
0.073329
  0
VERTEX
  8
EBENE_1
 62
    39
  6
CONTINUOUS
 10
-1.295137
 20
0.091295
  0
VERTEX
  8
EBENE_1
 62
    39
  6
CONTINUOUS
 10
-1.284055
 20
0.106634
  0
VERTEX
  8
EBENE_1
 62
    39
  6
CONTINUOUS
 10
-1.270839
 20
0.119169
  0
VERTEX
  8
EBENE_1
 62
    39
  6
CONTINUOUS
 10
-1.255759
 20
0.128724
  0
VERTEX
  8
EBENE_1
 62
    39
  6
CONTINUOUS
 10
-1.239087
 20
0.135122
  0
VERTEX
  8
EBENE_1
 62
    39
  6
CONTINUOUS
 10
-0.948413
 20
0.212969
  0
VERTEX
  8
EBENE_1
 62
    39
  6
CONTINUOUS
 10
-0.922898
 20
0.216842
  0
VERTEX
  8
EBENE_1
 62
    39
  6
CONTINUOUS
 10
-0.904417
 20
0.213694
  0
VERTEX
  8
EBENE_1
 62
    39
  6
CONTINUOUS
 10
-0.890995
 20
0.205248
  0
VERTEX
  8
EBENE_1
 62
    39
  6
CONTINUOUS
 10
-0.880659
 20
0.193229
  0
VERTEX
  8
EBENE_1
 62
    39
  6
CONTINUOUS
 10
-0.871436
 20
0.179361
  0
VERTEX
  8
EBENE_1
 62
    39
  6
CONTINUOUS
 10
-0.861350
 20
0.165369
  0
SEQEND
  8
0
  0
POLYLINE
  8
EBENE_1
 62
    39
  6
CONTINUOUS
 66
     1
 40
0.003000
 41
0.003000
  0
VERTEX
  8
EBENE_1
 62
    39
  6
CONTINUOUS
 10
1.199146
 20
-0.580488
  0
VERTEX
  8
EBENE_1
 62
    39
  6
CONTINUOUS
 10
1.194939
 20
-0.583160
  0
VERTEX
  8
EBENE_1
 62
    39
  6
CONTINUOUS
 10
1.192637
 20
-0.587577
  0
VERTEX
  8
EBENE_1
 62
    39
  6
CONTINUOUS
 10
1.192717
 20
-0.592630
  0
SEQEND
  8
0
  0
POLYLINE
  8
EBENE_1
 62
    39
  6
CONTINUOUS
 66
     1
 40
0.003000
 41
0.003000
  0
VERTEX
  8
EBENE_1
 62
    39
  6
CONTINUOUS
 10
1.192717
 20
-0.592630
  0
VERTEX
  8
EBENE_1
 62
    39
  6
CONTINUOUS
 10
1.195204
 20
-0.596837
  0
VERTEX
  8
EBENE_1
 62
    39
  6
CONTINUOUS
 10
1.199278
 20
-0.599139
  0
VERTEX
  8
EBENE_1
 62
    39
  6
CONTINUOUS
 10
1.204146
 20
-0.599059
  0
SEQEND
  8
0
  0
POLYLINE
  8
EBENE_1
 62
    39
  6
CONTINUOUS
 66
     1
 40
0.003000
 41
0.003000
  0
VERTEX
  8
EBENE_1
 62
    39
  6
CONTINUOUS
 10
1.204146
 20
-0.599059
  0
VERTEX
  8
EBENE_1
 62
    39
  6
CONTINUOUS
 10
1.208378
 20
-0.596572
  0
VERTEX
  8
EBENE_1
 62
    39
  6
CONTINUOUS
 10
1.210864
 20
-0.592498
  0
VERTEX
  8
EBENE_1
 62
    39
  6
CONTINUOUS
 10
1.211287
 20
-0.587630
  0
SEQEND
  8
0
  0
POLYLINE
  8
EBENE_1
 62
    39
  6
CONTINUOUS
 66
     1
 40
0.003000
 41
0.003000
  0
VERTEX
  8
EBENE_1
 62
    39
  6
CONTINUOUS
 10
1.211287
 20
-0.587630
  0
VERTEX
  8
EBENE_1
 62
    39
  6
CONTINUOUS
 10
1.208615
 20
-0.583241
  0
VERTEX
  8
EBENE_1
 62
    39
  6
CONTINUOUS
 10
1.204198
 20
-0.580596
  0
VERTEX
  8
EBENE_1
 62
    39
  6
CONTINUOUS
 10
1.199146
 20
-0.580488
  0
SEQEND
  8
0
  0
POLYLINE
  8
EBENE_1
 62
    39
  6
CONTINUOUS
 66
     1
 40
0.003000
 41
0.003000
  0
VERTEX
  8
EBENE_1
 62
    39
  6
CONTINUOUS
 10
1.094157
 20
-0.652622
  0
VERTEX
  8
EBENE_1
 62
    39
  6
CONTINUOUS
 10
1.089952
 20
-0.655294
  0
VERTEX
  8
EBENE_1
 62
    39
  6
CONTINUOUS
 10
1.087652
 20
-0.659711
  0
VERTEX
  8
EBENE_1
 62
    39
  6
CONTINUOUS
 10
1.087732
 20
-0.664764
  0
SEQEND
  8
0
  0
POLYLINE
  8
EBENE_1
 62
    39
  6
CONTINUOUS
 66
     1
 40
0.003000
 41
0.003000
  0
VERTEX
  8
EBENE_1
 62
    39
  6
CONTINUOUS
 10
1.087732
 20
-0.664764
  0
VERTEX
  8
EBENE_1
 62
    39
  6
CONTINUOUS
 10
1.090217
 20
-0.668970
  0
VERTEX
  8
EBENE_1
 62
    39
  6
CONTINUOUS
 10
1.094290
 20
-0.671272
  0
VERTEX
  8
EBENE_1
 62
    39
  6
CONTINUOUS
 10
1.099157
 20
-0.671193
  0
SEQEND
  8
0
  0
POLYLINE
  8
EBENE_1
 62
    39
  6
CONTINUOUS
 66
     1
 40
0.003000
 41
0.003000
  0
VERTEX
  8
EBENE_1
 62
    39
  6
CONTINUOUS
 10
1.099157
 20
-0.671193
  0
VERTEX
  8
EBENE_1
 62
    39
  6
CONTINUOUS
 10
1.103549
 20
-0.668706
  0
VERTEX
  8
EBENE_1
 62
    39
  6
CONTINUOUS
 10
1.106194
 20
-0.664632
  0
VERTEX
  8
EBENE_1
 62
    39
  6
CONTINUOUS
 10
1.106299
 20
-0.659764
  0
SEQEND
  8
0
  0
POLYLINE
  8
EBENE_1
 62
    39
  6
CONTINUOUS
 66
     1
 40
0.003000
 41
0.003000
  0
VERTEX
  8
EBENE_1
 62
    39
  6
CONTINUOUS
 10
1.106299
 20
-0.659764
  0
VERTEX
  8
EBENE_1
 62
    39
  6
CONTINUOUS
 10
1.103627
 20
-0.655372
  0
VERTEX
  8
EBENE_1
 62
    39
  6
CONTINUOUS
 10
1.099210
 20
-0.652727
  0
VERTEX
  8
EBENE_1
 62
    39
  6
CONTINUOUS
 10
1.094157
 20
-0.652622
  0
SEQEND
  8
0
  0
POLYLINE
  8
EBENE_1
 62
    39
  6
CONTINUOUS
 66
     1
 40
0.003000
 41
0.003000
  0
VERTEX
  8
EBENE_1
 62
    39
  6
CONTINUOUS
 10
1.042740
 20
-0.611913
  0
VERTEX
  8
EBENE_1
 62
    39
  6
CONTINUOUS
 10
1.038030
 20
-0.614084
  0
VERTEX
  8
EBENE_1
 62
    39
  6
CONTINUOUS
 10
1.035543
 20
-0.618316
  0
VERTEX
  8
EBENE_1
 62
    39
  6
CONTINUOUS
 10
1.035594
 20
-0.623343
  0
SEQEND
  8
0
  0
POLYLINE
  8
EBENE_1
 62
    39
  6
CONTINUOUS
 66
     1
 40
0.003000
 41
0.003000
  0
VERTEX
  8
EBENE_1
 62
    39
  6
CONTINUOUS
 10
1.035594
 20
-0.623343
  0
VERTEX
  8
EBENE_1
 62
    39
  6
CONTINUOUS
 10
1.038108
 20
-0.627546
  0
VERTEX
  8
EBENE_1
 62
    39
  6
CONTINUOUS
 10
1.042367
 20
-0.629847
  0
VERTEX
  8
EBENE_1
 62
    39
  6
CONTINUOUS
 10
1.047736
 20
-0.629768
  0
SEQEND
  8
0
  0
POLYLINE
  8
EBENE_1
 62
    39
  6
CONTINUOUS
 66
     1
 40
0.003000
 41
0.003000
  0
VERTEX
  8
EBENE_1
 62
    39
  6
CONTINUOUS
 10
1.047736
 20
-0.629768
  0
VERTEX
  8
EBENE_1
 62
    39
  6
CONTINUOUS
 10
1.051942
 20
-0.627600
  0
VERTEX
  8
EBENE_1
 62
    39
  6
CONTINUOUS
 10
1.054243
 20
-0.623368
  0
VERTEX
  8
EBENE_1
 62
    39
  6
CONTINUOUS
 10
1.054165
 20
-0.618343
  0
SEQEND
  8
0
  0
POLYLINE
  8
EBENE_1
 62
    39
  6
CONTINUOUS
 66
     1
 40
0.003000
 41
0.003000
  0
VERTEX
  8
EBENE_1
 62
    39
  6
CONTINUOUS
 10
1.054165
 20
-0.618343
  0
VERTEX
  8
EBENE_1
 62
    39
  6
CONTINUOUS
 10
1.051678
 20
-0.614136
  0
VERTEX
  8
EBENE_1
 62
    39
  6
CONTINUOUS
 10
1.047605
 20
-0.611834
  0
VERTEX
  8
EBENE_1
 62
    39
  6
CONTINUOUS
 10
1.042740
 20
-0.611913
  0
SEQEND
  8
0
  0
POLYLINE
  8
EBENE_1
 62
    39
  6
CONTINUOUS
 66
     1
 40
0.003000
 41
0.003000
 70
     1
  0
VERTEX
  8
EBENE_1
 62
    39
  6
CONTINUOUS
 10
1.234854
 20
-0.706185
  0
VERTEX
  8
EBENE_1
 62
    39
  6
CONTINUOUS
 10
1.032740
 20
-0.705472
  0
VERTEX
  8
EBENE_1
 62
    39
  6
CONTINUOUS
 10
1.013573
 20
-0.708541
  0
VERTEX
  8
EBENE_1
 62
    39
  6
CONTINUOUS
 10
0.996058
 20
-0.708540
  0
VERTEX
  8
EBENE_1
 62
    39
  6
CONTINUOUS
 10
0.980179
 20
-0.705583
  0
VERTEX
  8
EBENE_1
 62
    39
  6
CONTINUOUS
 10
0.965922
 20
-0.699785
  0
VERTEX
  8
EBENE_1
 62
    39
  6
CONTINUOUS
 10
0.953273
 20
-0.691258
  0
VERTEX
  8
EBENE_1
 62
    39
  6
CONTINUOUS
 10
0.942215
 20
-0.680118
  0
VERTEX
  8
EBENE_1
 62
    39
  6
CONTINUOUS
 10
0.932735
 20
-0.666478
  0
VERTEX
  8
EBENE_1
 62
    39
  6
CONTINUOUS
 10
0.924817
 20
-0.650453
  0
VERTEX
  8
EBENE_1
 62
    39
  6
CONTINUOUS
 10
0.918446
 20
-0.632156
  0
VERTEX
  8
EBENE_1
 62
    39
  6
CONTINUOUS
 10
0.913607
 20
-0.611701
  0
VERTEX
  8
EBENE_1
 62
    39
  6
CONTINUOUS
 10
0.910287
 20
-0.589203
  0
VERTEX
  8
EBENE_1
 62
    39
  6
CONTINUOUS
 10
0.908469
 20
-0.564776
  0
VERTEX
  8
EBENE_1
 62
    39
  6
CONTINUOUS
 10
0.908469
 20
-0.074130
  0
VERTEX
  8
EBENE_1
 62
    39
  6
CONTINUOUS
 10
0.915907
 20
-0.054449
  0
VERTEX
  8
EBENE_1
 62
    39
  6
CONTINUOUS
 10
0.924360
 20
-0.035886
  0
VERTEX
  8
EBENE_1
 62
    39
  6
CONTINUOUS
 10
0.933780
 20
-0.018388
  0
VERTEX
  8
EBENE_1
 62
    39
  6
CONTINUOUS
 10
0.944121
 20
-0.001904
  0
VERTEX
  8
EBENE_1
 62
    39
  6
CONTINUOUS
 10
0.955333
 20
0.013617
  0
VERTEX
  8
EBENE_1
 62
    39
  6
CONTINUOUS
 10
0.967371
 20
0.028227
  0
VERTEX
  8
EBENE_1
 62
    39
  6
CONTINUOUS
 10
0.980187
 20
0.041978
  0
VERTEX
  8
EBENE_1
 62
    39
  6
CONTINUOUS
 10
0.993732
 20
0.054920
  0
VERTEX
  8
EBENE_1
 62
    39
  6
CONTINUOUS
 10
1.007960
 20
0.067106
  0
VERTEX
  8
EBENE_1
 62
    39
  6
CONTINUOUS
 10
1.022823
 20
0.078587
  0
VERTEX
  8
EBENE_1
 62
    39
  6
CONTINUOUS
 10
1.038273
 20
0.089414
  0
VERTEX
  8
EBENE_1
 62
    39
  6
CONTINUOUS
 10
1.054264
 20
0.099640
  0
VERTEX
  8
EBENE_1
 62
    39
  6
CONTINUOUS
 10
1.070747
 20
0.109314
  0
VERTEX
  8
EBENE_1
 62
    39
  6
CONTINUOUS
 10
1.087675
 20
0.118490
  0
VERTEX
  8
EBENE_1
 62
    39
  6
CONTINUOUS
 10
1.105001
 20
0.127219
  0
VERTEX
  8
EBENE_1
 62
    39
  6
CONTINUOUS
 10
1.122677
 20
0.135551
  0
VERTEX
  8
EBENE_1
 62
    39
  6
CONTINUOUS
 10
1.140655
 20
0.143539
  0
VERTEX
  8
EBENE_1
 62
    39
  6
CONTINUOUS
 10
1.158889
 20
0.151234
  0
VERTEX
  8
EBENE_1
 62
    39
  6
CONTINUOUS
 10
1.177330
 20
0.158687
  0
VERTEX
  8
EBENE_1
 62
    39
  6
CONTINUOUS
 10
1.195932
 20
0.165951
  0
VERTEX
  8
EBENE_1
 62
    39
  6
CONTINUOUS
 10
1.214646
 20
0.173076
  0
VERTEX
  8
EBENE_1
 62
    39
  6
CONTINUOUS
 10
1.233425
 20
0.180114
  0
SEQEND
  8
0
  0
POLYLINE
  8
EBENE_1
 62
    39
  6
CONTINUOUS
 66
     1
 40
0.003000
 41
0.003000
 70
     1
  0
VERTEX
  8
EBENE_1
 62
    39
  6
CONTINUOUS
 10
1.230567
 20
-0.699760
  0
VERTEX
  8
EBENE_1
 62
    39
  6
CONTINUOUS
 10
1.033453
 20
-0.699760
  0
VERTEX
  8
EBENE_1
 62
    39
  6
CONTINUOUS
 10
1.014807
 20
-0.702693
  0
VERTEX
  8
EBENE_1
 62
    39
  6
CONTINUOUS
 10
0.997780
 20
-0.702636
  0
VERTEX
  8
EBENE_1
 62
    39
  6
CONTINUOUS
 10
0.982355
 20
-0.699693
  0
VERTEX
  8
EBENE_1
 62
    39
  6
CONTINUOUS
 10
0.968514
 20
-0.693967
  0
VERTEX
  8
EBENE_1
 62
    39
  6
CONTINUOUS
 10
0.956241
 20
-0.685562
  0
VERTEX
  8
EBENE_1
 62
    39
  6
CONTINUOUS
 10
0.945518
 20
-0.674584
  0
VERTEX
  8
EBENE_1
 62
    39
  6
CONTINUOUS
 10
0.936328
 20
-0.661136
  0
VERTEX
  8
EBENE_1
 62
    39
  6
CONTINUOUS
 10
0.928652
 20
-0.645322
  0
VERTEX
  8
EBENE_1
 62
    39
  6
CONTINUOUS
 10
0.922475
 20
-0.627247
  0
VERTEX
  8
EBENE_1
 62
    39
  6
CONTINUOUS
 10
0.917778
 20
-0.607014
  0
VERTEX
  8
EBENE_1
 62
    39
  6
CONTINUOUS
 10
0.914544
 20
-0.584727
  0
VERTEX
  8
EBENE_1
 62
    39
  6
CONTINUOUS
 10
0.912756
 20
-0.560492
  0
VERTEX
  8
EBENE_1
 62
    39
  6
CONTINUOUS
 10
0.912756
 20
-0.076988
  0
VERTEX
  8
EBENE_1
 62
    39
  6
CONTINUOUS
 10
0.919986
 20
-0.057502
  0
VERTEX
  8
EBENE_1
 62
    39
  6
CONTINUOUS
 10
0.928206
 20
-0.039133
  0
VERTEX
  8
EBENE_1
 62
    39
  6
CONTINUOUS
 10
0.937369
 20
-0.021827
  0
VERTEX
  8
EBENE_1
 62
    39
  6
CONTINUOUS
 10
0.947429
 20
-0.005533
  0
VERTEX
  8
EBENE_1
 62
    39
  6
CONTINUOUS
 10
0.958340
 20
0.009802
  0
VERTEX
  8
EBENE_1
 62
    39
  6
CONTINUOUS
 10
0.970055
 20
0.024230
  0
VERTEX
  8
EBENE_1
 62
    39
  6
CONTINUOUS
 10
0.982528
 20
0.037802
  0
VERTEX
  8
EBENE_1
 62
    39
  6
CONTINUOUS
 10
0.995714
 20
0.050573
  0
VERTEX
  8
EBENE_1
 62
    39
  6
CONTINUOUS
 10
1.009565
 20
0.062593
  0
VERTEX
  8
EBENE_1
 62
    39
  6
CONTINUOUS
 10
1.024035
 20
0.073916
  0
VERTEX
  8
EBENE_1
 62
    39
  6
CONTINUOUS
 10
1.039078
 20
0.084593
  0
VERTEX
  8
EBENE_1
 62
    39
  6
CONTINUOUS
 10
1.054648
 20
0.094677
  0
VERTEX
  8
EBENE_1
 62
    39
  6
CONTINUOUS
 10
1.070699
 20
0.104220
  0
VERTEX
  8
EBENE_1
 62
    39
  6
CONTINUOUS
 10
1.087184
 20
0.113275
  0
VERTEX
  8
EBENE_1
 62
    39
  6
CONTINUOUS
 10
1.104057
 20
0.121893
  0
VERTEX
  8
EBENE_1
 62
    39
  6
CONTINUOUS
 10
1.121271
 20
0.130127
  0
VERTEX
  8
EBENE_1
 62
    39
  6
CONTINUOUS
 10
1.138781
 20
0.138030
  0
VERTEX
  8
EBENE_1
 62
    39
  6
CONTINUOUS
 10
1.156540
 20
0.145654
  0
VERTEX
  8
EBENE_1
 62
    39
  6
CONTINUOUS
 10
1.174502
 20
0.153050
  0
VERTEX
  8
EBENE_1
 62
    39
  6
CONTINUOUS
 10
1.192620
 20
0.160272
  0
VERTEX
  8
EBENE_1
 62
    39
  6
CONTINUOUS
 10
1.210849
 20
0.167372
  0
VERTEX
  8
EBENE_1
 62
    39
  6
CONTINUOUS
 10
1.229142
 20
0.174402
  0
SEQEND
  8
0
  0
POLYLINE
  8
EBENE_1
 62
    39
  6
CONTINUOUS
 66
     1
 40
0.003000
 41
0.003000
  0
VERTEX
  8
EBENE_1
 62
    39
  6
CONTINUOUS
 10
0.944894
 20
-0.196256
  0
VERTEX
  8
EBENE_1
 62
    39
  6
CONTINUOUS
 10
0.940502
 20
-0.198743
  0
VERTEX
  8
EBENE_1
 62
    39
  6
CONTINUOUS
 10
0.937857
 20
-0.202817
  0
VERTEX
  8
EBENE_1
 62
    39
  6
CONTINUOUS
 10
0.937752
 20
-0.207685
  0
SEQEND
  8
0
  0
POLYLINE
  8
EBENE_1
 62
    39
  6
CONTINUOUS
 66
     1
 40
0.003000
 41
0.003000
  0
VERTEX
  8
EBENE_1
 62
    39
  6
CONTINUOUS
 10
0.937752
 20
-0.207685
  0
VERTEX
  8
EBENE_1
 62
    39
  6
CONTINUOUS
 10
0.940424
 20
-0.212392
  0
VERTEX
  8
EBENE_1
 62
    39
  6
CONTINUOUS
 10
0.944841
 20
-0.214878
  0
VERTEX
  8
EBENE_1
 62
    39
  6
CONTINUOUS
 10
0.949894
 20
-0.214827
  0
SEQEND
  8
0
  0
POLYLINE
  8
EBENE_1
 62
    39
  6
CONTINUOUS
 66
     1
 40
0.003000
 41
0.003000
  0
VERTEX
  8
EBENE_1
 62
    39
  6
CONTINUOUS
 10
0.949894
 20
-0.214827
  0
VERTEX
  8
EBENE_1
 62
    39
  6
CONTINUOUS
 10
0.954099
 20
-0.212313
  0
VERTEX
  8
EBENE_1
 62
    39
  6
CONTINUOUS
 10
0.956401
 20
-0.208054
  0
VERTEX
  8
EBENE_1
 62
    39
  6
CONTINUOUS
 10
0.956323
 20
-0.202685
  0
SEQEND
  8
0
  0
POLYLINE
  8
EBENE_1
 62
    39
  6
CONTINUOUS
 66
     1
 40
0.003000
 41
0.003000
  0
VERTEX
  8
EBENE_1
 62
    39
  6
CONTINUOUS
 10
0.956323
 20
-0.202685
  0
VERTEX
  8
EBENE_1
 62
    39
  6
CONTINUOUS
 10
0.953836
 20
-0.198478
  0
VERTEX
  8
EBENE_1
 62
    39
  6
CONTINUOUS
 10
0.949761
 20
-0.196176
  0
VERTEX
  8
EBENE_1
 62
    39
  6
CONTINUOUS
 10
0.944894
 20
-0.196256
  0
SEQEND
  8
0
  0
POLYLINE
  8
EBENE_1
 62
    39
  6
CONTINUOUS
 66
     1
 40
0.003000
 41
0.003000
  0
VERTEX
  8
EBENE_1
 62
    39
  6
CONTINUOUS
 10
0.839909
 20
-0.268390
  0
VERTEX
  8
EBENE_1
 62
    39
  6
CONTINUOUS
 10
0.835518
 20
-0.270877
  0
VERTEX
  8
EBENE_1
 62
    39
  6
CONTINUOUS
 10
0.832873
 20
-0.274951
  0
VERTEX
  8
EBENE_1
 62
    39
  6
CONTINUOUS
 10
0.832768
 20
-0.279819
  0
SEQEND
  8
0
  0
POLYLINE
  8
EBENE_1
 62
    39
  6
CONTINUOUS
 66
     1
 40
0.003000
 41
0.003000
  0
VERTEX
  8
EBENE_1
 62
    39
  6
CONTINUOUS
 10
0.832768
 20
-0.279819
  0
VERTEX
  8
EBENE_1
 62
    39
  6
CONTINUOUS
 10
0.835440
 20
-0.284526
  0
VERTEX
  8
EBENE_1
 62
    39
  6
CONTINUOUS
 10
0.839857
 20
-0.287012
  0
VERTEX
  8
EBENE_1
 62
    39
  6
CONTINUOUS
 10
0.844909
 20
-0.286961
  0
SEQEND
  8
0
  0
POLYLINE
  8
EBENE_1
 62
    39
  6
CONTINUOUS
 66
     1
 40
0.003000
 41
0.003000
  0
VERTEX
  8
EBENE_1
 62
    39
  6
CONTINUOUS
 10
0.844909
 20
-0.286961
  0
VERTEX
  8
EBENE_1
 62
    39
  6
CONTINUOUS
 10
0.849113
 20
-0.284447
  0
VERTEX
  8
EBENE_1
 62
    39
  6
CONTINUOUS
 10
0.851414
 20
-0.280188
  0
VERTEX
  8
EBENE_1
 62
    39
  6
CONTINUOUS
 10
0.851335
 20
-0.274819
  0
SEQEND
  8
0
  0
POLYLINE
  8
EBENE_1
 62
    39
  6
CONTINUOUS
 66
     1
 40
0.003000
 41
0.003000
  0
VERTEX
  8
EBENE_1
 62
    39
  6
CONTINUOUS
 10
0.851335
 20
-0.274819
  0
VERTEX
  8
EBENE_1
 62
    39
  6
CONTINUOUS
 10
0.848848
 20
-0.270612
  0
VERTEX
  8
EBENE_1
 62
    39
  6
CONTINUOUS
 10
0.844776
 20
-0.268310
  0
VERTEX
  8
EBENE_1
 62
    39
  6
CONTINUOUS
 10
0.839909
 20
-0.268390
  0
SEQEND
  8
0
  0
POLYLINE
  8
EBENE_1
 62
    39
  6
CONTINUOUS
 66
     1
 40
0.003000
 41
0.003000
  0
VERTEX
  8
EBENE_1
 62
    39
  6
CONTINUOUS
 10
0.787772
 20
-0.226969
  0
VERTEX
  8
EBENE_1
 62
    39
  6
CONTINUOUS
 10
0.783566
 20
-0.229479
  0
VERTEX
  8
EBENE_1
 62
    39
  6
CONTINUOUS
 10
0.781266
 20
-0.233737
  0
VERTEX
  8
EBENE_1
 62
    39
  6
CONTINUOUS
 10
0.781346
 20
-0.239106
  0
SEQEND
  8
0
  0
POLYLINE
  8
EBENE_1
 62
    39
  6
CONTINUOUS
 66
     1
 40
0.003000
 41
0.003000
  0
VERTEX
  8
EBENE_1
 62
    39
  6
CONTINUOUS
 10
0.781346
 20
-0.239106
  0
VERTEX
  8
EBENE_1
 62
    39
  6
CONTINUOUS
 10
0.783831
 20
-0.243313
  0
VERTEX
  8
EBENE_1
 62
    39
  6
CONTINUOUS
 10
0.787904
 20
-0.245615
  0
VERTEX
  8
EBENE_1
 62
    39
  6
CONTINUOUS
 10
0.792772
 20
-0.245535
  0
SEQEND
  8
0
  0
POLYLINE
  8
EBENE_1
 62
    39
  6
CONTINUOUS
 66
     1
 40
0.003000
 41
0.003000
  0
VERTEX
  8
EBENE_1
 62
    39
  6
CONTINUOUS
 10
0.792772
 20
-0.245535
  0
VERTEX
  8
EBENE_1
 62
    39
  6
CONTINUOUS
 10
0.797163
 20
-0.243048
  0
VERTEX
  8
EBENE_1
 62
    39
  6
CONTINUOUS
 10
0.799808
 20
-0.238975
  0
VERTEX
  8
EBENE_1
 62
    39
  6
CONTINUOUS
 10
0.799913
 20
-0.234110
  0
SEQEND
  8
0
  0
POLYLINE
  8
EBENE_1
 62
    39
  6
CONTINUOUS
 66
     1
 40
0.003000
 41
0.003000
  0
VERTEX
  8
EBENE_1
 62
    39
  6
CONTINUOUS
 10
0.799913
 20
-0.234110
  0
VERTEX
  8
EBENE_1
 62
    39
  6
CONTINUOUS
 10
0.797241
 20
-0.229719
  0
VERTEX
  8
EBENE_1
 62
    39
  6
CONTINUOUS
 10
0.792824
 20
-0.227074
  0
VERTEX
  8
EBENE_1
 62
    39
  6
CONTINUOUS
 10
0.787772
 20
-0.226969
  0
SEQEND
  8
0
  0
POLYLINE
  8
EBENE_1
 62
    39
  6
CONTINUOUS
 66
     1
 40
0.003000
 41
0.003000
 70
     1
  0
VERTEX
  8
EBENE_1
 62
    39
  6
CONTINUOUS
 10
1.059878
 20
-0.281244
  0
VERTEX
  8
EBENE_1
 62
    39
  6
CONTINUOUS
 10
0.866335
 20
-0.332665
  0
VERTEX
  8
EBENE_1
 62
    39
  6
CONTINUOUS
 10
0.847167
 20
-0.335735
  0
VERTEX
  8
EBENE_1
 62
    39
  6
CONTINUOUS
 10
0.829652
 20
-0.335734
  0
VERTEX
  8
EBENE_1
 62
    39
  6
CONTINUOUS
 10
0.813773
 20
-0.332778
  0
VERTEX
  8
EBENE_1
 62
    39
  6
CONTINUOUS
 10
0.799517
 20
-0.326979
  0
VERTEX
  8
EBENE_1
 62
    39
  6
CONTINUOUS
 10
0.786867
 20
-0.318453
  0
VERTEX
  8
EBENE_1
 62
    39
  6
CONTINUOUS
 10
0.775810
 20
-0.307313
  0
VERTEX
  8
EBENE_1
 62
    39
  6
CONTINUOUS
 10
0.766329
 20
-0.293673
  0
VERTEX
  8
EBENE_1
 62
    39
  6
CONTINUOUS
 10
0.758411
 20
-0.277648
  0
VERTEX
  8
EBENE_1
 62
    39
  6
CONTINUOUS
 10
0.752040
 20
-0.259351
  0
VERTEX
  8
EBENE_1
 62
    39
  6
CONTINUOUS
 10
0.747202
 20
-0.238897
  0
VERTEX
  8
EBENE_1
 62
    39
  6
CONTINUOUS
 10
0.743881
 20
-0.216399
  0
VERTEX
  8
EBENE_1
 62
    39
  6
CONTINUOUS
 10
0.742063
 20
-0.191972
  0
VERTEX
  8
EBENE_1
 62
    39
  6
CONTINUOUS
 10
0.742063
 20
0.297957
  0
VERTEX
  8
EBENE_1
 62
    39
  6
CONTINUOUS
 10
0.749497
 20
0.317727
  0
VERTEX
  8
EBENE_1
 62
    39
  6
CONTINUOUS
 10
0.757938
 20
0.336363
  0
VERTEX
  8
EBENE_1
 62
    39
  6
CONTINUOUS
 10
0.767340
 20
0.353920
  0
VERTEX
  8
EBENE_1
 62
    39
  6
CONTINUOUS
 10
0.777657
 20
0.370449
  0
VERTEX
  8
EBENE_1
 62
    39
  6
CONTINUOUS
 10
0.788843
 20
0.386005
  0
VERTEX
  8
EBENE_1
 62
    39
  6
CONTINUOUS
 10
0.800850
 20
0.400640
  0
VERTEX
  8
EBENE_1
 62
    39
  6
CONTINUOUS
 10
0.813633
 20
0.414407
  0
VERTEX
  8
EBENE_1
 62
    39
  6
CONTINUOUS
 10
0.827147
 20
0.427360
  0
VERTEX
  8
EBENE_1
 62
    39
  6
CONTINUOUS
 10
0.841343
 20
0.439552
  0
VERTEX
  8
EBENE_1
 62
    39
  6
CONTINUOUS
 10
0.856176
 20
0.451035
  0
VERTEX
  8
EBENE_1
 62
    39
  6
CONTINUOUS
 10
0.871600
 20
0.461863
  0
VERTEX
  8
EBENE_1
 62
    39
  6
CONTINUOUS
 10
0.887569
 20
0.472089
  0
VERTEX
  8
EBENE_1
 62
    39
  6
CONTINUOUS
 10
0.904036
 20
0.481766
  0
VERTEX
  8
EBENE_1
 62
    39
  6
CONTINUOUS
 10
0.920955
 20
0.490947
  0
VERTEX
  8
EBENE_1
 62
    39
  6
CONTINUOUS
 10
0.938279
 20
0.499685
  0
VERTEX
  8
EBENE_1
 62
    39
  6
CONTINUOUS
 10
0.955963
 20
0.508034
  0
VERTEX
  8
EBENE_1
 62
    39
  6
CONTINUOUS
 10
0.973959
 20
0.516047
  0
VERTEX
  8
EBENE_1
 62
    39
  6
CONTINUOUS
 10
0.992223
 20
0.523776
  0
VERTEX
  8
EBENE_1
 62
    39
  6
CONTINUOUS
 10
1.010707
 20
0.531275
  0
VERTEX
  8
EBENE_1
 62
    39
  6
CONTINUOUS
 10
1.029365
 20
0.538597
  0
VERTEX
  8
EBENE_1
 62
    39
  6
CONTINUOUS
 10
1.048152
 20
0.545794
  0
VERTEX
  8
EBENE_1
 62
    39
  6
CONTINUOUS
 10
1.067020
 20
0.552921
  0
SEQEND
  8
0
  0
POLYLINE
  8
EBENE_1
 62
    39
  6
CONTINUOUS
 66
     1
 40
0.003000
 41
0.003000
 70
     1
  0
VERTEX
  8
EBENE_1
 62
    39
  6
CONTINUOUS
 10
1.054878
 20
-0.276244
  0
VERTEX
  8
EBENE_1
 62
    39
  6
CONTINUOUS
 10
0.867047
 20
-0.326953
  0
VERTEX
  8
EBENE_1
 62
    39
  6
CONTINUOUS
 10
0.848565
 20
-0.330036
  0
VERTEX
  8
EBENE_1
 62
    39
  6
CONTINUOUS
 10
0.831675
 20
-0.330080
  0
VERTEX
  8
EBENE_1
 62
    39
  6
CONTINUOUS
 10
0.816362
 20
-0.327197
  0
VERTEX
  8
EBENE_1
 62
    39
  6
CONTINUOUS
 10
0.802611
 20
-0.321503
  0
VERTEX
  8
EBENE_1
 62
    39
  6
CONTINUOUS
 10
0.790408
 20
-0.313110
  0
VERTEX
  8
EBENE_1
 62
    39
  6
CONTINUOUS
 10
0.779738
 20
-0.302134
  0
VERTEX
  8
EBENE_1
 62
    39
  6
CONTINUOUS
 10
0.770585
 20
-0.288688
  0
VERTEX
  8
EBENE_1
 62
    39
  6
CONTINUOUS
 10
0.762935
 20
-0.272886
  0
VERTEX
  8
EBENE_1
 62
    39
  6
CONTINUOUS
 10
0.756772
 20
-0.254842
  0
VERTEX
  8
EBENE_1
 62
    39
  6
CONTINUOUS
 10
0.752083
 20
-0.234671
  0
VERTEX
  8
EBENE_1
 62
    39
  6
CONTINUOUS
 10
0.748851
 20
-0.212486
  0
VERTEX
  8
EBENE_1
 62
    39
  6
CONTINUOUS
 10
0.747063
 20
-0.188402
  0
VERTEX
  8
EBENE_1
 62
    39
  6
CONTINUOUS
 10
0.747063
 20
0.295815
  0
VERTEX
  8
EBENE_1
 62
    39
  6
CONTINUOUS
 10
0.754196
 20
0.315213
  0
VERTEX
  8
EBENE_1
 62
    39
  6
CONTINUOUS
 10
0.762319
 20
0.333510
  0
VERTEX
  8
EBENE_1
 62
    39
  6
CONTINUOUS
 10
0.771386
 20
0.350758
  0
VERTEX
  8
EBENE_1
 62
    39
  6
CONTINUOUS
 10
0.781351
 20
0.367008
  0
VERTEX
  8
EBENE_1
 62
    39
  6
CONTINUOUS
 10
0.792169
 20
0.382309
  0
VERTEX
  8
EBENE_1
 62
    39
  6
CONTINUOUS
 10
0.803793
 20
0.396712
  0
VERTEX
  8
EBENE_1
 62
    39
  6
CONTINUOUS
 10
0.816177
 20
0.410269
  0
VERTEX
  8
EBENE_1
 62
    39
  6
CONTINUOUS
 10
0.829276
 20
0.423030
  0
VERTEX
  8
EBENE_1
 62
    39
  6
CONTINUOUS
 10
0.843044
 20
0.435045
  0
VERTEX
  8
EBENE_1
 62
    39
  6
CONTINUOUS
 10
0.857435
 20
0.446366
  0
VERTEX
  8
EBENE_1
 62
    39
  6
CONTINUOUS
 10
0.872404
 20
0.457043
  0
VERTEX
  8
EBENE_1
 62
    39
  6
CONTINUOUS
 10
0.887903
 20
0.467126
  0
VERTEX
  8
EBENE_1
 62
    39
  6
CONTINUOUS
 10
0.903887
 20
0.476668
  0
VERTEX
  8
EBENE_1
 62
    39
  6
CONTINUOUS
 10
0.920311
 20
0.485717
  0
VERTEX
  8
EBENE_1
 62
    39
  6
CONTINUOUS
 10
0.937129
 20
0.494325
  0
VERTEX
  8
EBENE_1
 62
    39
  6
CONTINUOUS
 10
0.954294
 20
0.502543
  0
VERTEX
  8
EBENE_1
 62
    39
  6
CONTINUOUS
 10
0.971762
 20
0.510421
  0
VERTEX
  8
EBENE_1
 62
    39
  6
CONTINUOUS
 10
0.989485
 20
0.518011
  0
VERTEX
  8
EBENE_1
 62
    39
  6
CONTINUOUS
 10
1.007418
 20
0.525362
  0
VERTEX
  8
EBENE_1
 62
    39
  6
CONTINUOUS
 10
1.025516
 20
0.532525
  0
VERTEX
  8
EBENE_1
 62
    39
  6
CONTINUOUS
 10
1.043731
 20
0.539552
  0
VERTEX
  8
EBENE_1
 62
    39
  6
CONTINUOUS
 10
1.062020
 20
0.546492
  0
SEQEND
  8
0
  0
POLYLINE
  8
EBENE_1
 62
    39
  6
CONTINUOUS
 66
     1
 40
0.003000
 41
0.003000
 70
     1
  0
VERTEX
  8
EBENE_1
 62
    39
  6
CONTINUOUS
 10
-0.848429
 20
0.150835
  0
VERTEX
  8
EBENE_1
 62
    39
  6
CONTINUOUS
 10
-0.586319
 20
-0.279102
  0
VERTEX
  8
EBENE_1
 62
    39
  6
CONTINUOUS
 10
-0.860567
 20
-0.350520
  0
VERTEX
  8
EBENE_1
 62
    39
  6
CONTINUOUS
 10
-0.870269
 20
-0.352186
  0
VERTEX
  8
EBENE_1
 62
    39
  6
CONTINUOUS
 10
-0.880855
 20
-0.353036
  0
VERTEX
  8
EBENE_1
 62
    39
  6
CONTINUOUS
 10
-0.892263
 20
-0.353075
  0
VERTEX
  8
EBENE_1
 62
    39
  6
CONTINUOUS
 10
-0.904430
 20
-0.352306
  0
VERTEX
  8
EBENE_1
 62
    39
  6
CONTINUOUS
 10
-0.917294
 20
-0.350733
  0
VERTEX
  8
EBENE_1
 62
    39
  6
CONTINUOUS
 10
-0.930793
 20
-0.348361
  0
VERTEX
  8
EBENE_1
 62
    39
  6
CONTINUOUS
 10
-0.944866
 20
-0.345194
  0
VERTEX
  8
EBENE_1
 62
    39
  6
CONTINUOUS
 10
-0.959449
 20
-0.341236
  0
VERTEX
  8
EBENE_1
 62
    39
  6
CONTINUOUS
 10
-0.974481
 20
-0.336491
  0
VERTEX
  8
EBENE_1
 62
    39
  6
CONTINUOUS
 10
-0.989900
 20
-0.330964
  0
VERTEX
  8
EBENE_1
 62
    39
  6
CONTINUOUS
 10
-1.005643
 20
-0.324659
  0
VERTEX
  8
EBENE_1
 62
    39
  6
CONTINUOUS
 10
-1.021649
 20
-0.317579
  0
VERTEX
  8
EBENE_1
 62
    39
  6
CONTINUOUS
 10
-1.037855
 20
-0.309729
  0
VERTEX
  8
EBENE_1
 62
    39
  6
CONTINUOUS
 10
-1.054200
 20
-0.301113
  0
VERTEX
  8
EBENE_1
 62
    39
  6
CONTINUOUS
 10
-1.070620
 20
-0.291736
  0
VERTEX
  8
EBENE_1
 62
    39
  6
CONTINUOUS
 10
-1.087055
 20
-0.281601
  0
VERTEX
  8
EBENE_1
 62
    39
  6
CONTINUOUS
 10
-1.103441
 20
-0.270713
  0
VERTEX
  8
EBENE_1
 62
    39
  6
CONTINUOUS
 10
-1.119717
 20
-0.259076
  0
VERTEX
  8
EBENE_1
 62
    39
  6
CONTINUOUS
 10
-1.135821
 20
-0.246695
  0
VERTEX
  8
EBENE_1
 62
    39
  6
CONTINUOUS
 10
-1.151690
 20
-0.233572
  0
VERTEX
  8
EBENE_1
 62
    39
  6
CONTINUOUS
 10
-1.167263
 20
-0.219713
  0
VERTEX
  8
EBENE_1
 62
    39
  6
CONTINUOUS
 10
-1.182476
 20
-0.205122
  0
VERTEX
  8
EBENE_1
 62
    39
  6
CONTINUOUS
 10
-1.197270
 20
-0.189802
  0
VERTEX
  8
EBENE_1
 62
    39
  6
CONTINUOUS
 10
-1.211580
 20
-0.173758
  0
VERTEX
  8
EBENE_1
 62
    39
  6
CONTINUOUS
 10
-1.225345
 20
-0.156995
  0
VERTEX
  8
EBENE_1
 62
    39
  6
CONTINUOUS
 10
-1.238503
 20
-0.139516
  0
VERTEX
  8
EBENE_1
 62
    39
  6
CONTINUOUS
 10
-1.250991
 20
-0.121326
  0
VERTEX
  8
EBENE_1
 62
    39
  6
CONTINUOUS
 10
-1.262748
 20
-0.102429
  0
VERTEX
  8
EBENE_1
 62
    39
  6
CONTINUOUS
 10
-1.273712
 20
-0.082828
  0
VERTEX
  8
EBENE_1
 62
    39
  6
CONTINUOUS
 10
-1.283820
 20
-0.062529
  0
VERTEX
  8
EBENE_1
 62
    39
  6
CONTINUOUS
 10
-1.293010
 20
-0.041535
  0
VERTEX
  8
EBENE_1
 62
    39
  6
CONTINUOUS
 10
-1.301220
 20
-0.019850
  0
VERTEX
  8
EBENE_1
 62
    39
  6
CONTINUOUS
 10
-1.304889
 20
0.006198
  0
VERTEX
  8
EBENE_1
 62
    39
  6
CONTINUOUS
 10
-1.305119
 20
0.030425
  0
VERTEX
  8
EBENE_1
 62
    39
  6
CONTINUOUS
 10
-1.302175
 20
0.052648
  0
VERTEX
  8
EBENE_1
 62
    39
  6
CONTINUOUS
 10
-1.296320
 20
0.072685
  0
VERTEX
  8
EBENE_1
 62
    39
  6
CONTINUOUS
 10
-1.287821
 20
0.090353
  0
VERTEX
  8
EBENE_1
 62
    39
  6
CONTINUOUS
 10
-1.276941
 20
0.105470
  0
VERTEX
  8
EBENE_1
 62
    39
  6
CONTINUOUS
 10
-1.263944
 20
0.117854
  0
VERTEX
  8
EBENE_1
 62
    39
  6
CONTINUOUS
 10
-1.249096
 20
0.127322
  0
VERTEX
  8
EBENE_1
 62
    39
  6
CONTINUOUS
 10
-1.232661
 20
0.133693
  0
VERTEX
  8
EBENE_1
 62
    39
  6
CONTINUOUS
 10
-0.946984
 20
0.210110
  0
VERTEX
  8
EBENE_1
 62
    39
  6
CONTINUOUS
 10
-0.921736
 20
0.213798
  0
VERTEX
  8
EBENE_1
 62
    39
  6
CONTINUOUS
 10
-0.903458
 20
0.210664
  0
VERTEX
  8
EBENE_1
 62
    39
  6
CONTINUOUS
 10
-0.890203
 20
0.202371
  0
VERTEX
  8
EBENE_1
 62
    39
  6
CONTINUOUS
 10
-0.880022
 20
0.190580
  0
VERTEX
  8
EBENE_1
 62
    39
  6
CONTINUOUS
 10
-0.870965
 20
0.176952
  0
VERTEX
  8
EBENE_1
 62
    39
  6
CONTINUOUS
 10
-0.861084
 20
0.163150
  0
SEQEND
  8
0
  0
POLYLINE
  8
EBENE_1
 62
    39
  6
CONTINUOUS
 66
     1
 40
0.003000
 41
0.003000
 70
     1
  0
VERTEX
  8
EBENE_1
 62
    39
  6
CONTINUOUS
 10
-1.081965
 20
0.130839
  0
VERTEX
  8
EBENE_1
 62
    39
  6
CONTINUOUS
 10
-1.076834
 20
0.132161
  0
VERTEX
  8
EBENE_1
 62
    39
  6
CONTINUOUS
 10
-1.073291
 20
0.135704
  0
VERTEX
  8
EBENE_1
 62
    39
  6
CONTINUOUS
 10
-1.071969
 20
0.140835
  0
VERTEX
  8
EBENE_1
 62
    39
  6
CONTINUOUS
 10
-1.073291
 20
0.145465
  0
VERTEX
  8
EBENE_1
 62
    39
  6
CONTINUOUS
 10
-1.076834
 20
0.148825
  0
VERTEX
  8
EBENE_1
 62
    39
  6
CONTINUOUS
 10
-1.081965
 20
0.150122
  0
VERTEX
  8
EBENE_1
 62
    39
  6
CONTINUOUS
 10
-1.086595
 20
0.148825
  0
VERTEX
  8
EBENE_1
 62
    39
  6
CONTINUOUS
 10
-1.089955
 20
0.145465
  0
VERTEX
  8
EBENE_1
 62
    39
  6
CONTINUOUS
 10
-1.091252
 20
0.140835
  0
VERTEX
  8
EBENE_1
 62
    39
  6
CONTINUOUS
 10
-1.089955
 20
0.135704
  0
VERTEX
  8
EBENE_1
 62
    39
  6
CONTINUOUS
 10
-1.086595
 20
0.132161
  0
SEQEND
  8
0
  0
POLYLINE
  8
EBENE_1
 62
    39
  6
CONTINUOUS
 66
     1
 40
0.003000
 41
0.003000
 70
     1
  0
VERTEX
  8
EBENE_1
 62
    39
  6
CONTINUOUS
 10
-0.979839
 20
0.152976
  0
VERTEX
  8
EBENE_1
 62
    39
  6
CONTINUOUS
 10
-0.974707
 20
0.154300
  0
VERTEX
  8
EBENE_1
 62
    39
  6
CONTINUOUS
 10
-0.971162
 20
0.157845
  0
VERTEX
  8
EBENE_1
 62
    39
  6
CONTINUOUS
 10
-0.969839
 20
0.162976
  0
VERTEX
  8
EBENE_1
 62
    39
  6
CONTINUOUS
 10
-0.971162
 20
0.167605
  0
VERTEX
  8
EBENE_1
 62
    39
  6
CONTINUOUS
 10
-0.974707
 20
0.170964
  0
VERTEX
  8
EBENE_1
 62
    39
  6
CONTINUOUS
 10
-0.979839
 20
0.172260
  0
VERTEX
  8
EBENE_1
 62
    39
  6
CONTINUOUS
 10
-0.984468
 20
0.170964
  0
VERTEX
  8
EBENE_1
 62
    39
  6
CONTINUOUS
 10
-0.987826
 20
0.167605
  0
VERTEX
  8
EBENE_1
 62
    39
  6
CONTINUOUS
 10
-0.989122
 20
0.162976
  0
VERTEX
  8
EBENE_1
 62
    39
  6
CONTINUOUS
 10
-0.987826
 20
0.157845
  0
VERTEX
  8
EBENE_1
 62
    39
  6
CONTINUOUS
 10
-0.984468
 20
0.154300
  0
SEQEND
  8
0
  0
POLYLINE
  8
EBENE_1
 62
    39
  6
CONTINUOUS
 66
     1
 40
0.003000
 41
0.003000
 70
     1
  0
VERTEX
  8
EBENE_1
 62
    39
  6
CONTINUOUS
 10
-0.879850
 20
0.114409
  0
VERTEX
  8
EBENE_1
 62
    39
  6
CONTINUOUS
 10
-0.874719
 20
0.115733
  0
VERTEX
  8
EBENE_1
 62
    39
  6
CONTINUOUS
 10
-0.871174
 20
0.119278
  0
VERTEX
  8
EBENE_1
 62
    39
  6
CONTINUOUS
 10
-0.869850
 20
0.124409
  0
VERTEX
  8
EBENE_1
 62
    39
  6
CONTINUOUS
 10
-0.871174
 20
0.129038
  0
VERTEX
  8
EBENE_1
 62
    39
  6
CONTINUOUS
 10
-0.874719
 20
0.132397
  0
VERTEX
  8
EBENE_1
 62
    39
  6
CONTINUOUS
 10
-0.879850
 20
0.133693
  0
VERTEX
  8
EBENE_1
 62
    39
  6
CONTINUOUS
 10
-0.884479
 20
0.132397
  0
VERTEX
  8
EBENE_1
 62
    39
  6
CONTINUOUS
 10
-0.887838
 20
0.129038
  0
VERTEX
  8
EBENE_1
 62
    39
  6
CONTINUOUS
 10
-0.889134
 20
0.124409
  0
VERTEX
  8
EBENE_1
 62
    39
  6
CONTINUOUS
 10
-0.887838
 20
0.119278
  0
VERTEX
  8
EBENE_1
 62
    39
  6
CONTINUOUS
 10
-0.884479
 20
0.115733
  0
SEQEND
  8
0
  0
POLYLINE
  8
EBENE_1
 62
    39
  6
CONTINUOUS
 66
     1
 40
0.003000
 41
0.003000
 70
     1
  0
VERTEX
  8
EBENE_1
 62
    39
  6
CONTINUOUS
 10
-0.563465
 20
0.227252
  0
VERTEX
  8
EBENE_1
 62
    39
  6
CONTINUOUS
 10
-0.297075
 20
-0.209827
  0
VERTEX
  8
EBENE_1
 62
    39
  6
CONTINUOUS
 10
-0.576323
 20
-0.282673
  0
VERTEX
  8
EBENE_1
 62
    39
  6
CONTINUOUS
 10
-0.585855
 20
-0.284358
  0
VERTEX
  8
EBENE_1
 62
    39
  6
CONTINUOUS
 10
-0.596235
 20
-0.285260
  0
VERTEX
  8
EBENE_1
 62
    39
  6
CONTINUOUS
 10
-0.607405
 20
-0.285383
  0
VERTEX
  8
EBENE_1
 62
    39
  6
CONTINUOUS
 10
-0.619307
 20
-0.284731
  0
VERTEX
  8
EBENE_1
 62
    39
  6
CONTINUOUS
 10
-0.631884
 20
-0.283309
  0
VERTEX
  8
EBENE_1
 62
    39
  6
CONTINUOUS
 10
-0.645077
 20
-0.281119
  0
VERTEX
  8
EBENE_1
 62
    39
  6
CONTINUOUS
 10
-0.658831
 20
-0.278167
  0
VERTEX
  8
EBENE_1
 62
    39
  6
CONTINUOUS
 10
-0.673086
 20
-0.274457
  0
VERTEX
  8
EBENE_1
 62
    39
  6
CONTINUOUS
 10
-0.687785
 20
-0.269992
  0
VERTEX
  8
EBENE_1
 62
    39
  6
CONTINUOUS
 10
-0.702871
 20
-0.264776
  0
VERTEX
  8
EBENE_1
 62
    39
  6
CONTINUOUS
 10
-0.718287
 20
-0.258814
  0
VERTEX
  8
EBENE_1
 62
    39
  6
CONTINUOUS
 10
-0.733973
 20
-0.252110
  0
VERTEX
  8
EBENE_1
 62
    39
  6
CONTINUOUS
 10
-0.749874
 20
-0.244667
  0
VERTEX
  8
EBENE_1
 62
    39
  6
CONTINUOUS
 10
-0.765931
 20
-0.236490
  0
VERTEX
  8
EBENE_1
 62
    39
  6
CONTINUOUS
 10
-0.782087
 20
-0.227583
  0
VERTEX
  8
EBENE_1
 62
    39
  6
CONTINUOUS
 10
-0.798284
 20
-0.217949
  0
VERTEX
  8
EBENE_1
 62
    39
  6
CONTINUOUS
 10
-0.814465
 20
-0.207594
  0
VERTEX
  8
EBENE_1
 62
    39
  6
CONTINUOUS
 10
-0.830571
 20
-0.196520
  0
VERTEX
  8
EBENE_1
 62
    39
  6
CONTINUOUS
 10
-0.846546
 20
-0.184733
  0
VERTEX
  8
EBENE_1
 62
    39
  6
CONTINUOUS
 10
-0.862331
 20
-0.172235
  0
VERTEX
  8
EBENE_1
 62
    39
  6
CONTINUOUS
 10
-0.877870
 20
-0.159032
  0
VERTEX
  8
EBENE_1
 62
    39
  6
CONTINUOUS
 10
-0.893104
 20
-0.145127
  0
VERTEX
  8
EBENE_1
 62
    39
  6
CONTINUOUS
 10
-0.907977
 20
-0.130524
  0
VERTEX
  8
EBENE_1
 62
    39
  6
CONTINUOUS
 10
-0.922429
 20
-0.115227
  0
VERTEX
  8
EBENE_1
 62
    39
  6
CONTINUOUS
 10
-0.936405
 20
-0.099241
  0
VERTEX
  8
EBENE_1
 62
    39
  6
CONTINUOUS
 10
-0.949846
 20
-0.082569
  0
VERTEX
  8
EBENE_1
 62
    39
  6
CONTINUOUS
 10
-0.962694
 20
-0.065215
  0
VERTEX
  8
EBENE_1
 62
    39
  6
CONTINUOUS
 10
-0.974892
 20
-0.047184
  0
VERTEX
  8
EBENE_1
 62
    39
  6
CONTINUOUS
 10
-0.986383
 20
-0.028479
  0
VERTEX
  8
EBENE_1
 62
    39
  6
CONTINUOUS
 10
-0.997108
 20
-0.009105
  0
VERTEX
  8
EBENE_1
 62
    39
  6
CONTINUOUS
 10
-1.007011
 20
0.010934
  0
VERTEX
  8
EBENE_1
 62
    39
  6
CONTINUOUS
 10
-1.016034
 20
0.031634
  0
VERTEX
  8
EBENE_1
 62
    39
  6
CONTINUOUS
 10
-1.024118
 20
0.052992
  0
VERTEX
  8
EBENE_1
 62
    39
  6
CONTINUOUS
 10
-1.024118
 20
0.052992
  0
VERTEX
  8
EBENE_1
 62
    39
  6
CONTINUOUS
 10
-1.027760
 20
0.079704
  0
VERTEX
  8
EBENE_1
 62
    39
  6
CONTINUOUS
 10
-1.027917
 20
0.104494
  0
VERTEX
  8
EBENE_1
 62
    39
  6
CONTINUOUS
 10
-1.024858
 20
0.127186
  0
VERTEX
  8
EBENE_1
 62
    39
  6
CONTINUOUS
 10
-1.018855
 20
0.147604
  0
VERTEX
  8
EBENE_1
 62
    39
  6
CONTINUOUS
 10
-1.010177
 20
0.165570
  0
VERTEX
  8
EBENE_1
 62
    39
  6
CONTINUOUS
 10
-0.999094
 20
0.180909
  0
VERTEX
  8
EBENE_1
 62
    39
  6
CONTINUOUS
 10
-0.985878
 20
0.193444
  0
VERTEX
  8
EBENE_1
 62
    39
  6
CONTINUOUS
 10
-0.970799
 20
0.202999
  0
VERTEX
  8
EBENE_1
 62
    39
  6
CONTINUOUS
 10
-0.954126
 20
0.209398
  0
VERTEX
  8
EBENE_1
 62
    39
  6
CONTINUOUS
 10
-0.663453
 20
0.287244
  0
VERTEX
  8
EBENE_1
 62
    39
  6
CONTINUOUS
 10
-0.637938
 20
0.291118
  0
VERTEX
  8
EBENE_1
 62
    39
  6
CONTINUOUS
 10
-0.619456
 20
0.287970
  0
VERTEX
  8
EBENE_1
 62
    39
  6
CONTINUOUS
 10
-0.606034
 20
0.279525
  0
VERTEX
  8
EBENE_1
 62
    39
  6
CONTINUOUS
 10
-0.595698
 20
0.267506
  0
VERTEX
  8
EBENE_1
 62
    39
  6
CONTINUOUS
 10
-0.586474
 20
0.253639
  0
VERTEX
  8
EBENE_1
 62
    39
  6
CONTINUOUS
 10
-0.576387
 20
0.239646
  0
SEQEND
  8
0
  0
POLYLINE
  8
EBENE_1
 62
    39
  6
CONTINUOUS
 66
     1
 40
0.003000
 41
0.003000
 70
     1
  0
VERTEX
  8
EBENE_1
 62
    39
  6
CONTINUOUS
 10
-0.563465
 20
0.225110
  0
VERTEX
  8
EBENE_1
 62
    39
  6
CONTINUOUS
 10
-0.301358
 20
-0.204827
  0
VERTEX
  8
EBENE_1
 62
    39
  6
CONTINUOUS
 10
-0.575606
 20
-0.276244
  0
VERTEX
  8
EBENE_1
 62
    39
  6
CONTINUOUS
 10
-0.585309
 20
-0.277910
  0
VERTEX
  8
EBENE_1
 62
    39
  6
CONTINUOUS
 10
-0.595895
 20
-0.278761
  0
VERTEX
  8
EBENE_1
 62
    39
  6
CONTINUOUS
 10
-0.607302
 20
-0.278799
  0
VERTEX
  8
EBENE_1
 62
    39
  6
CONTINUOUS
 10
-0.619469
 20
-0.278030
  0
VERTEX
  8
EBENE_1
 62
    39
  6
CONTINUOUS
 10
-0.632333
 20
-0.276458
  0
VERTEX
  8
EBENE_1
 62
    39
  6
CONTINUOUS
 10
-0.645833
 20
-0.274086
  0
VERTEX
  8
EBENE_1
 62
    39
  6
CONTINUOUS
 10
-0.659905
 20
-0.270919
  0
VERTEX
  8
EBENE_1
 62
    39
  6
CONTINUOUS
 10
-0.674489
 20
-0.266961
  0
VERTEX
  8
EBENE_1
 62
    39
  6
CONTINUOUS
 10
-0.689521
 20
-0.262216
  0
VERTEX
  8
EBENE_1
 62
    39
  6
CONTINUOUS
 10
-0.704940
 20
-0.256689
  0
VERTEX
  8
EBENE_1
 62
    39
  6
CONTINUOUS
 10
-0.720683
 20
-0.250383
  0
VERTEX
  8
EBENE_1
 62
    39
  6
CONTINUOUS
 10
-0.736689
 20
-0.243304
  0
VERTEX
  8
EBENE_1
 62
    39
  6
CONTINUOUS
 10
-0.752895
 20
-0.235454
  0
VERTEX
  8
EBENE_1
 62
    39
  6
CONTINUOUS
 10
-0.769239
 20
-0.226838
  0
VERTEX
  8
EBENE_1
 62
    39
  6
CONTINUOUS
 10
-0.785660
 20
-0.217461
  0
VERTEX
  8
EBENE_1
 62
    39
  6
CONTINUOUS
 10
-0.802094
 20
-0.207327
  0
VERTEX
  8
EBENE_1
 62
    39
  6
CONTINUOUS
 10
-0.818481
 20
-0.196439
  0
VERTEX
  8
EBENE_1
 62
    39
  6
CONTINUOUS
 10
-0.834757
 20
-0.184802
  0
VERTEX
  8
EBENE_1
 62
    39
  6
CONTINUOUS
 10
-0.850861
 20
-0.172421
  0
VERTEX
  8
EBENE_1
 62
    39
  6
CONTINUOUS
 10
-0.866730
 20
-0.159298
  0
VERTEX
  8
EBENE_1
 62
    39
  6
CONTINUOUS
 10
-0.882303
 20
-0.145440
  0
VERTEX
  8
EBENE_1
 62
    39
  6
CONTINUOUS
 10
-0.897517
 20
-0.130849
  0
VERTEX
  8
EBENE_1
 62
    39
  6
CONTINUOUS
 10
-0.912310
 20
-0.115529
  0
VERTEX
  8
EBENE_1
 62
    39
  6
CONTINUOUS
 10
-0.926621
 20
-0.099486
  0
VERTEX
  8
EBENE_1
 62
    39
  6
CONTINUOUS
 10
-0.940386
 20
-0.082723
  0
VERTEX
  8
EBENE_1
 62
    39
  6
CONTINUOUS
 10
-0.953544
 20
-0.065245
  0
VERTEX
  8
EBENE_1
 62
    39
  6
CONTINUOUS
 10
-0.966033
 20
-0.047055
  0
VERTEX
  8
EBENE_1
 62
    39
  6
CONTINUOUS
 10
-0.977790
 20
-0.028158
  0
VERTEX
  8
EBENE_1
 62
    39
  6
CONTINUOUS
 10
-0.988754
 20
-0.008558
  0
VERTEX
  8
EBENE_1
 62
    39
  6
CONTINUOUS
 10
-0.998863
 20
0.011740
  0
VERTEX
  8
EBENE_1
 62
    39
  6
CONTINUOUS
 10
-1.008053
 20
0.032734
  0
VERTEX
  8
EBENE_1
 62
    39
  6
CONTINUOUS
 10
-1.016264
 20
0.054417
  0
VERTEX
  8
EBENE_1
 62
    39
  6
CONTINUOUS
 10
-1.019931
 20
0.080468
  0
VERTEX
  8
EBENE_1
 62
    39
  6
CONTINUOUS
 10
-1.020160
 20
0.104697
  0
VERTEX
  8
EBENE_1
 62
    39
  6
CONTINUOUS
 10
-1.017215
 20
0.126922
  0
VERTEX
  8
EBENE_1
 62
    39
  6
CONTINUOUS
 10
-1.011361
 20
0.146959
  0
VERTEX
  8
EBENE_1
 62
    39
  6
CONTINUOUS
 10
-1.002861
 20
0.164628
  0
VERTEX
  8
EBENE_1
 62
    39
  6
CONTINUOUS
 10
-0.991980
 20
0.179745
  0
VERTEX
  8
EBENE_1
 62
    39
  6
CONTINUOUS
 10
-0.978984
 20
0.192129
  0
VERTEX
  8
EBENE_1
 62
    39
  6
CONTINUOUS
 10
-0.964136
 20
0.201598
  0
VERTEX
  8
EBENE_1
 62
    39
  6
CONTINUOUS
 10
-0.947701
 20
0.207969
  0
VERTEX
  8
EBENE_1
 62
    39
  6
CONTINUOUS
 10
-0.662024
 20
0.284386
  0
VERTEX
  8
EBENE_1
 62
    39
  6
CONTINUOUS
 10
-0.636775
 20
0.288299
  0
VERTEX
  8
EBENE_1
 62
    39
  6
CONTINUOUS
 10
-0.618498
 20
0.285253
  0
VERTEX
  8
EBENE_1
 62
    39
  6
CONTINUOUS
 10
-0.605242
 20
0.276947
  0
VERTEX
  8
EBENE_1
 62
    39
  6
CONTINUOUS
 10
-0.595061
 20
0.265081
  0
VERTEX
  8
EBENE_1
 62
    39
  6
CONTINUOUS
 10
-0.586003
 20
0.251353
  0
VERTEX
  8
EBENE_1
 62
    39
  6
CONTINUOUS
 10
-0.576121
 20
0.237463
  0
SEQEND
  8
0
  0
POLYLINE
  8
EBENE_1
 62
    39
  6
CONTINUOUS
 66
     1
 40
0.003000
 41
0.003000
 70
     1
  0
VERTEX
  8
EBENE_1
 62
    39
  6
CONTINUOUS
 10
-0.797008
 20
0.205110
  0
VERTEX
  8
EBENE_1
 62
    39
  6
CONTINUOUS
 10
-0.791875
 20
0.206592
  0
VERTEX
  8
EBENE_1
 62
    39
  6
CONTINUOUS
 10
-0.788330
 20
0.210295
  0
VERTEX
  8
EBENE_1
 62
    39
  6
CONTINUOUS
 10
-0.787008
 20
0.215110
  0
VERTEX
  8
EBENE_1
 62
    39
  6
CONTINUOUS
 10
-0.788330
 20
0.219739
  0
VERTEX
  8
EBENE_1
 62
    39
  6
CONTINUOUS
 10
-0.791875
 20
0.223098
  0
VERTEX
  8
EBENE_1
 62
    39
  6
CONTINUOUS
 10
-0.797008
 20
0.224394
  0
VERTEX
  8
EBENE_1
 62
    39
  6
CONTINUOUS
 10
-0.801635
 20
0.223098
  0
VERTEX
  8
EBENE_1
 62
    39
  6
CONTINUOUS
 10
-0.804995
 20
0.219739
  0
VERTEX
  8
EBENE_1
 62
    39
  6
CONTINUOUS
 10
-0.806291
 20
0.215110
  0
VERTEX
  8
EBENE_1
 62
    39
  6
CONTINUOUS
 10
-0.804995
 20
0.210295
  0
VERTEX
  8
EBENE_1
 62
    39
  6
CONTINUOUS
 10
-0.801635
 20
0.206592
  0
SEQEND
  8
0
  0
POLYLINE
  8
EBENE_1
 62
    39
  6
CONTINUOUS
 66
     1
 40
0.003000
 41
0.003000
 70
     1
  0
VERTEX
  8
EBENE_1
 62
    39
  6
CONTINUOUS
 10
-0.694878
 20
0.227252
  0
VERTEX
  8
EBENE_1
 62
    39
  6
CONTINUOUS
 10
-0.689745
 20
0.228575
  0
VERTEX
  8
EBENE_1
 62
    39
  6
CONTINUOUS
 10
-0.686200
 20
0.232120
  0
VERTEX
  8
EBENE_1
 62
    39
  6
CONTINUOUS
 10
-0.684878
 20
0.237252
  0
VERTEX
  8
EBENE_1
 62
    39
  6
CONTINUOUS
 10
-0.686200
 20
0.241881
  0
VERTEX
  8
EBENE_1
 62
    39
  6
CONTINUOUS
 10
-0.689745
 20
0.245240
  0
VERTEX
  8
EBENE_1
 62
    39
  6
CONTINUOUS
 10
-0.694878
 20
0.246535
  0
VERTEX
  8
EBENE_1
 62
    39
  6
CONTINUOUS
 10
-0.699505
 20
0.245240
  0
VERTEX
  8
EBENE_1
 62
    39
  6
CONTINUOUS
 10
-0.702865
 20
0.241881
  0
VERTEX
  8
EBENE_1
 62
    39
  6
CONTINUOUS
 10
-0.704161
 20
0.237252
  0
VERTEX
  8
EBENE_1
 62
    39
  6
CONTINUOUS
 10
-0.702865
 20
0.232120
  0
VERTEX
  8
EBENE_1
 62
    39
  6
CONTINUOUS
 10
-0.699505
 20
0.228575
  0
SEQEND
  8
0
  0
POLYLINE
  8
EBENE_1
 62
    39
  6
CONTINUOUS
 66
     1
 40
0.003000
 41
0.003000
 70
     1
  0
VERTEX
  8
EBENE_1
 62
    39
  6
CONTINUOUS
 10
-0.594890
 20
0.188685
  0
VERTEX
  8
EBENE_1
 62
    39
  6
CONTINUOUS
 10
-0.589759
 20
0.190167
  0
VERTEX
  8
EBENE_1
 62
    39
  6
CONTINUOUS
 10
-0.586216
 20
0.193870
  0
VERTEX
  8
EBENE_1
 62
    39
  6
CONTINUOUS
 10
-0.584894
 20
0.198685
  0
VERTEX
  8
EBENE_1
 62
    39
  6
CONTINUOUS
 10
-0.586216
 20
0.203314
  0
VERTEX
  8
EBENE_1
 62
    39
  6
CONTINUOUS
 10
-0.589759
 20
0.206673
  0
VERTEX
  8
EBENE_1
 62
    39
  6
CONTINUOUS
 10
-0.594890
 20
0.207969
  0
VERTEX
  8
EBENE_1
 62
    39
  6
CONTINUOUS
 10
-0.599519
 20
0.206673
  0
VERTEX
  8
EBENE_1
 62
    39
  6
CONTINUOUS
 10
-0.602878
 20
0.203314
  0
VERTEX
  8
EBENE_1
 62
    39
  6
CONTINUOUS
 10
-0.604173
 20
0.198685
  0
VERTEX
  8
EBENE_1
 62
    39
  6
CONTINUOUS
 10
-0.602878
 20
0.193870
  0
VERTEX
  8
EBENE_1
 62
    39
  6
CONTINUOUS
 10
-0.599519
 20
0.190167
  0
SEQEND
  8
0
  0
POLYLINE
  8
EBENE_1
 62
    39
  6
CONTINUOUS
 66
     1
 40
0.003000
 41
0.003000
 70
     1
  0
VERTEX
  8
EBENE_1
 62
    39
  6
CONTINUOUS
 10
-0.278504
 20
0.301528
  0
VERTEX
  8
EBENE_1
 62
    39
  6
CONTINUOUS
 10
-0.012114
 20
-0.135551
  0
VERTEX
  8
EBENE_1
 62
    39
  6
CONTINUOUS
 10
-0.291362
 20
-0.208398
  0
VERTEX
  8
EBENE_1
 62
    39
  6
CONTINUOUS
 10
-0.300895
 20
-0.210082
  0
VERTEX
  8
EBENE_1
 62
    39
  6
CONTINUOUS
 10
-0.311274
 20
-0.210984
  0
VERTEX
  8
EBENE_1
 62
    39
  6
CONTINUOUS
 10
-0.322444
 20
-0.211107
  0
VERTEX
  8
EBENE_1
 62
    39
  6
CONTINUOUS
 10
-0.334346
 20
-0.210454
  0
VERTEX
  8
EBENE_1
 62
    39
  6
CONTINUOUS
 10
-0.346923
 20
-0.209031
  0
VERTEX
  8
EBENE_1
 62
    39
  6
CONTINUOUS
 10
-0.360117
 20
-0.206840
  0
VERTEX
  8
EBENE_1
 62
    39
  6
CONTINUOUS
 10
-0.373870
 20
-0.203885
  0
VERTEX
  8
EBENE_1
 62
    39
  6
CONTINUOUS
 10
-0.388125
 20
-0.200171
  0
VERTEX
  8
EBENE_1
 62
    39
  6
CONTINUOUS
 10
-0.402825
 20
-0.195702
  0
VERTEX
  8
EBENE_1
 62
    39
  6
CONTINUOUS
 10
-0.417911
 20
-0.190481
  0
VERTEX
  8
EBENE_1
 62
    39
  6
CONTINUOUS
 10
-0.433326
 20
-0.184512
  0
VERTEX
  8
EBENE_1
 62
    39
  6
CONTINUOUS
 10
-0.449013
 20
-0.177800
  0
VERTEX
  8
EBENE_1
 62
    39
  6
CONTINUOUS
 10
-0.464914
 20
-0.170348
  0
VERTEX
  8
EBENE_1
 62
    39
  6
CONTINUOUS
 10
-0.480971
 20
-0.162160
  0
VERTEX
  8
EBENE_1
 62
    39
  6
CONTINUOUS
 10
-0.497126
 20
-0.153240
  0
VERTEX
  8
EBENE_1
 62
    39
  6
CONTINUOUS
 10
-0.513323
 20
-0.143593
  0
VERTEX
  8
EBENE_1
 62
    39
  6
CONTINUOUS
 10
-0.529504
 20
-0.133221
  0
VERTEX
  8
EBENE_1
 62
    39
  6
CONTINUOUS
 10
-0.545610
 20
-0.122129
  0
VERTEX
  8
EBENE_1
 62
    39
  6
CONTINUOUS
 10
-0.561585
 20
-0.110321
  0
VERTEX
  8
EBENE_1
 62
    39
  6
CONTINUOUS
 10
-0.577371
 20
-0.097801
  0
VERTEX
  8
EBENE_1
 62
    39
  6
CONTINUOUS
 10
-0.592909
 20
-0.084573
  0
VERTEX
  8
EBENE_1
 62
    39
  6
CONTINUOUS
 10
-0.608144
 20
-0.070640
  0
VERTEX
  8
EBENE_1
 62
    39
  6
CONTINUOUS
 10
-0.623016
 20
-0.056007
  0
VERTEX
  8
EBENE_1
 62
    39
  6
CONTINUOUS
 10
-0.637469
 20
-0.040677
  0
VERTEX
  8
EBENE_1
 62
    39
  6
CONTINUOUS
 10
-0.651444
 20
-0.024655
  0
VERTEX
  8
EBENE_1
 62
    39
  6
CONTINUOUS
 10
-0.664885
 20
-0.007944
  0
VERTEX
  8
EBENE_1
 62
    39
  6
CONTINUOUS
 10
-0.677733
 20
0.009451
  0
VERTEX
  8
EBENE_1
 62
    39
  6
CONTINUOUS
 10
-0.689932
 20
0.027527
  0
VERTEX
  8
EBENE_1
 62
    39
  6
CONTINUOUS
 10
-0.701422
 20
0.046280
  0
VERTEX
  8
EBENE_1
 62
    39
  6
CONTINUOUS
 10
-0.712148
 20
0.065706
  0
VERTEX
  8
EBENE_1
 62
    39
  6
CONTINUOUS
 10
-0.722051
 20
0.085800
  0
VERTEX
  8
EBENE_1
 62
    39
  6
CONTINUOUS
 10
-0.731073
 20
0.106560
  0
VERTEX
  8
EBENE_1
 62
    39
  6
CONTINUOUS
 10
-0.739157
 20
0.127980
  0
VERTEX
  8
EBENE_1
 62
    39
  6
CONTINUOUS
 10
-0.739157
 20
0.127980
  0
VERTEX
  8
EBENE_1
 62
    39
  6
CONTINUOUS
 10
-0.742800
 20
0.154480
  0
VERTEX
  8
EBENE_1
 62
    39
  6
CONTINUOUS
 10
-0.742956
 20
0.179105
  0
VERTEX
  8
EBENE_1
 62
    39
  6
CONTINUOUS
 10
-0.739898
 20
0.201673
  0
VERTEX
  8
EBENE_1
 62
    39
  6
CONTINUOUS
 10
-0.733894
 20
0.222002
  0
VERTEX
  8
EBENE_1
 62
    39
  6
CONTINUOUS
 10
-0.725216
 20
0.239908
  0
VERTEX
  8
EBENE_1
 62
    39
  6
CONTINUOUS
 10
-0.714134
 20
0.255211
  0
VERTEX
  8
EBENE_1
 62
    39
  6
CONTINUOUS
 10
-0.700918
 20
0.267728
  0
VERTEX
  8
EBENE_1
 62
    39
  6
CONTINUOUS
 10
-0.685838
 20
0.277276
  0
VERTEX
  8
EBENE_1
 62
    39
  6
CONTINUOUS
 10
-0.669165
 20
0.283673
  0
VERTEX
  8
EBENE_1
 62
    39
  6
CONTINUOUS
 10
-0.378492
 20
0.361520
  0
VERTEX
  8
EBENE_1
 62
    39
  6
CONTINUOUS
 10
-0.352977
 20
0.365392
  0
VERTEX
  8
EBENE_1
 62
    39
  6
CONTINUOUS
 10
-0.334496
 20
0.362244
  0
VERTEX
  8
EBENE_1
 62
    39
  6
CONTINUOUS
 10
-0.321074
 20
0.353799
  0
VERTEX
  8
EBENE_1
 62
    39
  6
CONTINUOUS
 10
-0.310737
 20
0.341781
  0
VERTEX
  8
EBENE_1
 62
    39
  6
CONTINUOUS
 10
-0.301513
 20
0.327913
  0
VERTEX
  8
EBENE_1
 62
    39
  6
CONTINUOUS
 10
-0.291426
 20
0.313921
  0
SEQEND
  8
0
  0
POLYLINE
  8
EBENE_1
 62
    39
  6
CONTINUOUS
 66
     1
 40
0.003000
 41
0.003000
 70
     1
  0
VERTEX
  8
EBENE_1
 62
    39
  6
CONTINUOUS
 10
-0.278504
 20
0.299386
  0
VERTEX
  8
EBENE_1
 62
    39
  6
CONTINUOUS
 10
-0.016398
 20
-0.130551
  0
VERTEX
  8
EBENE_1
 62
    39
  6
CONTINUOUS
 10
-0.290646
 20
-0.201969
  0
VERTEX
  8
EBENE_1
 62
    39
  6
CONTINUOUS
 10
-0.300348
 20
-0.203635
  0
VERTEX
  8
EBENE_1
 62
    39
  6
CONTINUOUS
 10
-0.310934
 20
-0.204485
  0
VERTEX
  8
EBENE_1
 62
    39
  6
CONTINUOUS
 10
-0.322342
 20
-0.204524
  0
VERTEX
  8
EBENE_1
 62
    39
  6
CONTINUOUS
 10
-0.334509
 20
-0.203755
  0
VERTEX
  8
EBENE_1
 62
    39
  6
CONTINUOUS
 10
-0.347373
 20
-0.202182
  0
VERTEX
  8
EBENE_1
 62
    39
  6
CONTINUOUS
 10
-0.360872
 20
-0.199810
  0
VERTEX
  8
EBENE_1
 62
    39
  6
CONTINUOUS
 10
-0.374945
 20
-0.196643
  0
VERTEX
  8
EBENE_1
 62
    39
  6
CONTINUOUS
 10
-0.389528
 20
-0.192685
  0
VERTEX
  8
EBENE_1
 62
    39
  6
CONTINUOUS
 10
-0.404560
 20
-0.187940
  0
VERTEX
  8
EBENE_1
 62
    39
  6
CONTINUOUS
 10
-0.419979
 20
-0.182413
  0
VERTEX
  8
EBENE_1
 62
    39
  6
CONTINUOUS
 10
-0.435722
 20
-0.176108
  0
VERTEX
  8
EBENE_1
 62
    39
  6
CONTINUOUS
 10
-0.451728
 20
-0.169028
  0
VERTEX
  8
EBENE_1
 62
    39
  6
CONTINUOUS
 10
-0.467934
 20
-0.161178
  0
VERTEX
  8
EBENE_1
 62
    39
  6
CONTINUOUS
 10
-0.484278
 20
-0.152563
  0
VERTEX
  8
EBENE_1
 62
    39
  6
CONTINUOUS
 10
-0.500699
 20
-0.143186
  0
VERTEX
  8
EBENE_1
 62
    39
  6
CONTINUOUS
 10
-0.517133
 20
-0.133051
  0
VERTEX
  8
EBENE_1
 62
    39
  6
CONTINUOUS
 10
-0.533520
 20
-0.122163
  0
VERTEX
  8
EBENE_1
 62
    39
  6
CONTINUOUS
 10
-0.549796
 20
-0.110527
  0
VERTEX
  8
EBENE_1
 62
    39
  6
CONTINUOUS
 10
-0.565899
 20
-0.098145
  0
VERTEX
  8
EBENE_1
 62
    39
  6
CONTINUOUS
 10
-0.581769
 20
-0.085023
  0
VERTEX
  8
EBENE_1
 62
    39
  6
CONTINUOUS
 10
-0.597341
 20
-0.071164
  0
VERTEX
  8
EBENE_1
 62
    39
  6
CONTINUOUS
 10
-0.612555
 20
-0.056573
  0
VERTEX
  8
EBENE_1
 62
    39
  6
CONTINUOUS
 10
-0.627348
 20
-0.041254
  0
VERTEX
  8
EBENE_1
 62
    39
  6
CONTINUOUS
 10
-0.641658
 20
-0.025211
  0
VERTEX
  8
EBENE_1
 62
    39
  6
CONTINUOUS
 10
-0.655423
 20
-0.008448
  0
VERTEX
  8
EBENE_1
 62
    39
  6
CONTINUOUS
 10
-0.668581
 20
0.009031
  0
VERTEX
  8
EBENE_1
 62
    39
  6
CONTINUOUS
 10
-0.681070
 20
0.027220
  0
VERTEX
  8
EBENE_1
 62
    39
  6
CONTINUOUS
 10
-0.692827
 20
0.046117
  0
VERTEX
  8
EBENE_1
 62
    39
  6
CONTINUOUS
 10
-0.703791
 20
0.065717
  0
VERTEX
  8
EBENE_1
 62
    39
  6
CONTINUOUS
 10
-0.713899
 20
0.086016
  0
VERTEX
  8
EBENE_1
 62
    39
  6
CONTINUOUS
 10
-0.723089
 20
0.107009
  0
VERTEX
  8
EBENE_1
 62
    39
  6
CONTINUOUS
 10
-0.731299
 20
0.128693
  0
VERTEX
  8
EBENE_1
 62
    39
  6
CONTINUOUS
 10
-0.734968
 20
0.154744
  0
VERTEX
  8
EBENE_1
 62
    39
  6
CONTINUOUS
 10
-0.735198
 20
0.178973
  0
VERTEX
  8
EBENE_1
 62
    39
  6
CONTINUOUS
 10
-0.732253
 20
0.201197
  0
VERTEX
  8
EBENE_1
 62
    39
  6
CONTINUOUS
 10
-0.726399
 20
0.221235
  0
VERTEX
  8
EBENE_1
 62
    39
  6
CONTINUOUS
 10
-0.717900
 20
0.238903
  0
VERTEX
  8
EBENE_1
 62
    39
  6
CONTINUOUS
 10
-0.707020
 20
0.254021
  0
VERTEX
  8
EBENE_1
 62
    39
  6
CONTINUOUS
 10
-0.694023
 20
0.266405
  0
VERTEX
  8
EBENE_1
 62
    39
  6
CONTINUOUS
 10
-0.679175
 20
0.275873
  0
VERTEX
  8
EBENE_1
 62
    39
  6
CONTINUOUS
 10
-0.662740
 20
0.282244
  0
VERTEX
  8
EBENE_1
 62
    39
  6
CONTINUOUS
 10
-0.377063
 20
0.358661
  0
VERTEX
  8
EBENE_1
 62
    39
  6
CONTINUOUS
 10
-0.351814
 20
0.362575
  0
VERTEX
  8
EBENE_1
 62
    39
  6
CONTINUOUS
 10
-0.333537
 20
0.359529
  0
VERTEX
  8
EBENE_1
 62
    39
  6
CONTINUOUS
 10
-0.320282
 20
0.351224
  0
VERTEX
  8
EBENE_1
 62
    39
  6
CONTINUOUS
 10
-0.310100
 20
0.339358
  0
VERTEX
  8
EBENE_1
 62
    39
  6
CONTINUOUS
 10
-0.301043
 20
0.325630
  0
VERTEX
  8
EBENE_1
 62
    39
  6
CONTINUOUS
 10
-0.291160
 20
0.311740
  0
SEQEND
  8
0
  0
POLYLINE
  8
EBENE_1
 62
    39
  6
CONTINUOUS
 66
     1
 40
0.003000
 41
0.003000
 70
     1
  0
VERTEX
  8
EBENE_1
 62
    39
  6
CONTINUOUS
 10
-0.512043
 20
0.280102
  0
VERTEX
  8
EBENE_1
 62
    39
  6
CONTINUOUS
 10
-0.506913
 20
0.281398
  0
VERTEX
  8
EBENE_1
 62
    39
  6
CONTINUOUS
 10
-0.503369
 20
0.284757
  0
VERTEX
  8
EBENE_1
 62
    39
  6
CONTINUOUS
 10
-0.502047
 20
0.289386
  0
VERTEX
  8
EBENE_1
 62
    39
  6
CONTINUOUS
 10
-0.503369
 20
0.294016
  0
VERTEX
  8
EBENE_1
 62
    39
  6
CONTINUOUS
 10
-0.506913
 20
0.297376
  0
VERTEX
  8
EBENE_1
 62
    39
  6
CONTINUOUS
 10
-0.512043
 20
0.298673
  0
VERTEX
  8
EBENE_1
 62
    39
  6
CONTINUOUS
 10
-0.516672
 20
0.297376
  0
VERTEX
  8
EBENE_1
 62
    39
  6
CONTINUOUS
 10
-0.520031
 20
0.294016
  0
VERTEX
  8
EBENE_1
 62
    39
  6
CONTINUOUS
 10
-0.521327
 20
0.289386
  0
VERTEX
  8
EBENE_1
 62
    39
  6
CONTINUOUS
 10
-0.520031
 20
0.284757
  0
VERTEX
  8
EBENE_1
 62
    39
  6
CONTINUOUS
 10
-0.516672
 20
0.281398
  0
SEQEND
  8
0
  0
POLYLINE
  8
EBENE_1
 62
    39
  6
CONTINUOUS
 66
     1
 40
0.003000
 41
0.003000
 70
     1
  0
VERTEX
  8
EBENE_1
 62
    39
  6
CONTINUOUS
 10
-0.409917
 20
0.301528
  0
VERTEX
  8
EBENE_1
 62
    39
  6
CONTINUOUS
 10
-0.404784
 20
0.302851
  0
VERTEX
  8
EBENE_1
 62
    39
  6
CONTINUOUS
 10
-0.401240
 20
0.306396
  0
VERTEX
  8
EBENE_1
 62
    39
  6
CONTINUOUS
 10
-0.399917
 20
0.311528
  0
VERTEX
  8
EBENE_1
 62
    39
  6
CONTINUOUS
 10
-0.401240
 20
0.316157
  0
VERTEX
  8
EBENE_1
 62
    39
  6
CONTINUOUS
 10
-0.404784
 20
0.319515
  0
VERTEX
  8
EBENE_1
 62
    39
  6
CONTINUOUS
 10
-0.409917
 20
0.320811
  0
VERTEX
  8
EBENE_1
 62
    39
  6
CONTINUOUS
 10
-0.414546
 20
0.319515
  0
VERTEX
  8
EBENE_1
 62
    39
  6
CONTINUOUS
 10
-0.417905
 20
0.316157
  0
VERTEX
  8
EBENE_1
 62
    39
  6
CONTINUOUS
 10
-0.419201
 20
0.311528
  0
VERTEX
  8
EBENE_1
 62
    39
  6
CONTINUOUS
 10
-0.417905
 20
0.306396
  0
VERTEX
  8
EBENE_1
 62
    39
  6
CONTINUOUS
 10
-0.414546
 20
0.302851
  0
SEQEND
  8
0
  0
POLYLINE
  8
EBENE_1
 62
    39
  6
CONTINUOUS
 66
     1
 40
0.003000
 41
0.003000
 70
     1
  0
VERTEX
  8
EBENE_1
 62
    39
  6
CONTINUOUS
 10
-0.309929
 20
0.263677
  0
VERTEX
  8
EBENE_1
 62
    39
  6
CONTINUOUS
 10
-0.304799
 20
0.264973
  0
VERTEX
  8
EBENE_1
 62
    39
  6
CONTINUOUS
 10
-0.301255
 20
0.268332
  0
VERTEX
  8
EBENE_1
 62
    39
  6
CONTINUOUS
 10
-0.299933
 20
0.272961
  0
VERTEX
  8
EBENE_1
 62
    39
  6
CONTINUOUS
 10
-0.301255
 20
0.277590
  0
VERTEX
  8
EBENE_1
 62
    39
  6
CONTINUOUS
 10
-0.304799
 20
0.280948
  0
VERTEX
  8
EBENE_1
 62
    39
  6
CONTINUOUS
 10
-0.309929
 20
0.282244
  0
VERTEX
  8
EBENE_1
 62
    39
  6
CONTINUOUS
 10
-0.314559
 20
0.280948
  0
VERTEX
  8
EBENE_1
 62
    39
  6
CONTINUOUS
 10
-0.317920
 20
0.277590
  0
VERTEX
  8
EBENE_1
 62
    39
  6
CONTINUOUS
 10
-0.319217
 20
0.272961
  0
VERTEX
  8
EBENE_1
 62
    39
  6
CONTINUOUS
 10
-0.317920
 20
0.268332
  0
VERTEX
  8
EBENE_1
 62
    39
  6
CONTINUOUS
 10
-0.314559
 20
0.264973
  0
SEQEND
  8
0
  0
POLYLINE
  8
EBENE_1
 62
    39
  6
CONTINUOUS
 66
     1
 40
0.003000
 41
0.003000
 70
     1
  0
VERTEX
  8
EBENE_1
 62
    39
  6
CONTINUOUS
 10
0.006453
 20
0.375803
  0
VERTEX
  8
EBENE_1
 62
    39
  6
CONTINUOUS
 10
0.272843
 20
-0.061276
  0
VERTEX
  8
EBENE_1
 62
    39
  6
CONTINUOUS
 10
-0.006398
 20
-0.134122
  0
VERTEX
  8
EBENE_1
 62
    39
  6
CONTINUOUS
 10
-0.015869
 20
-0.135746
  0
VERTEX
  8
EBENE_1
 62
    39
  6
CONTINUOUS
 10
-0.026196
 20
-0.136594
  0
VERTEX
  8
EBENE_1
 62
    39
  6
CONTINUOUS
 10
-0.037320
 20
-0.136671
  0
VERTEX
  8
EBENE_1
 62
    39
  6
CONTINUOUS
 10
-0.049183
 20
-0.135979
  0
VERTEX
  8
EBENE_1
 62
    39
  6
CONTINUOUS
 10
-0.061726
 20
-0.134522
  0
VERTEX
  8
EBENE_1
 62
    39
  6
CONTINUOUS
 10
-0.074893
 20
-0.132304
  0
VERTEX
  8
EBENE_1
 62
    39
  6
CONTINUOUS
 10
-0.088625
 20
-0.129328
  0
VERTEX
  8
EBENE_1
 62
    39
  6
CONTINUOUS
 10
-0.102865
 20
-0.125598
  0
VERTEX
  8
EBENE_1
 62
    39
  6
CONTINUOUS
 10
-0.117553
 20
-0.121118
  0
VERTEX
  8
EBENE_1
 62
    39
  6
CONTINUOUS
 10
-0.132633
 20
-0.115891
  0
VERTEX
  8
EBENE_1
 62
    39
  6
CONTINUOUS
 10
-0.148047
 20
-0.109920
  0
VERTEX
  8
EBENE_1
 62
    39
  6
CONTINUOUS
 10
-0.163735
 20
-0.103210
  0
VERTEX
  8
EBENE_1
 62
    39
  6
CONTINUOUS
 10
-0.179642
 20
-0.095763
  0
VERTEX
  8
EBENE_1
 62
    39
  6
CONTINUOUS
 10
-0.195707
 20
-0.087584
  0
VERTEX
  8
EBENE_1
 62
    39
  6
CONTINUOUS
 10
-0.211875
 20
-0.078676
  0
VERTEX
  8
EBENE_1
 62
    39
  6
CONTINUOUS
 10
-0.228086
 20
-0.069042
  0
VERTEX
  8
EBENE_1
 62
    39
  6
CONTINUOUS
 10
-0.244282
 20
-0.058686
  0
VERTEX
  8
EBENE_1
 62
    39
  6
CONTINUOUS
 10
-0.260407
 20
-0.047613
  0
VERTEX
  8
EBENE_1
 62
    39
  6
CONTINUOUS
 10
-0.276401
 20
-0.035824
  0
VERTEX
  8
EBENE_1
 62
    39
  6
CONTINUOUS
 10
-0.292207
 20
-0.023324
  0
VERTEX
  8
EBENE_1
 62
    39
  6
CONTINUOUS
 10
-0.307767
 20
-0.010117
  0
VERTEX
  8
EBENE_1
 62
    39
  6
CONTINUOUS
 10
-0.323023
 20
0.003794
  0
VERTEX
  8
EBENE_1
 62
    39
  6
CONTINUOUS
 10
-0.337917
 20
0.018406
  0
VERTEX
  8
EBENE_1
 62
    39
  6
CONTINUOUS
 10
-0.352391
 20
0.033714
  0
VERTEX
  8
EBENE_1
 62
    39
  6
CONTINUOUS
 10
-0.366387
 20
0.049716
  0
VERTEX
  8
EBENE_1
 62
    39
  6
CONTINUOUS
 10
-0.379847
 20
0.066407
  0
VERTEX
  8
EBENE_1
 62
    39
  6
CONTINUOUS
 10
-0.392713
 20
0.083784
  0
VERTEX
  8
EBENE_1
 62
    39
  6
CONTINUOUS
 10
-0.404928
 20
0.101844
  0
VERTEX
  8
EBENE_1
 62
    39
  6
CONTINUOUS
 10
-0.416433
 20
0.120583
  0
VERTEX
  8
EBENE_1
 62
    39
  6
CONTINUOUS
 10
-0.427170
 20
0.139997
  0
VERTEX
  8
EBENE_1
 62
    39
  6
CONTINUOUS
 10
-0.437082
 20
0.160083
  0
VERTEX
  8
EBENE_1
 62
    39
  6
CONTINUOUS
 10
-0.446110
 20
0.180837
  0
VERTEX
  8
EBENE_1
 62
    39
  6
CONTINUOUS
 10
-0.454197
 20
0.202256
  0
VERTEX
  8
EBENE_1
 62
    39
  6
CONTINUOUS
 10
-0.454197
 20
0.202256
  0
VERTEX
  8
EBENE_1
 62
    39
  6
CONTINUOUS
 10
-0.457839
 20
0.228779
  0
VERTEX
  8
EBENE_1
 62
    39
  6
CONTINUOUS
 10
-0.457996
 20
0.253463
  0
VERTEX
  8
EBENE_1
 62
    39
  6
CONTINUOUS
 10
-0.454937
 20
0.276107
  0
VERTEX
  8
EBENE_1
 62
    39
  6
CONTINUOUS
 10
-0.448934
 20
0.296512
  0
VERTEX
  8
EBENE_1
 62
    39
  6
CONTINUOUS
 10
-0.440255
 20
0.314477
  0
VERTEX
  8
EBENE_1
 62
    39
  6
CONTINUOUS
 10
-0.429173
 20
0.329804
  0
VERTEX
  8
EBENE_1
 62
    39
  6
CONTINUOUS
 10
-0.415957
 20
0.342291
  0
VERTEX
  8
EBENE_1
 62
    39
  6
CONTINUOUS
 10
-0.400878
 20
0.351739
  0
VERTEX
  8
EBENE_1
 62
    39
  6
CONTINUOUS
 10
-0.384205
 20
0.357949
  0
VERTEX
  8
EBENE_1
 62
    39
  6
CONTINUOUS
 10
-0.093531
 20
0.435795
  0
VERTEX
  8
EBENE_1
 62
    39
  6
CONTINUOUS
 10
-0.068017
 20
0.439669
  0
VERTEX
  8
EBENE_1
 62
    39
  6
CONTINUOUS
 10
-0.049535
 20
0.436520
  0
VERTEX
  8
EBENE_1
 62
    39
  6
CONTINUOUS
 10
-0.036113
 20
0.428075
  0
VERTEX
  8
EBENE_1
 62
    39
  6
CONTINUOUS
 10
-0.025777
 20
0.416056
  0
VERTEX
  8
EBENE_1
 62
    39
  6
CONTINUOUS
 10
-0.016554
 20
0.402188
  0
VERTEX
  8
EBENE_1
 62
    39
  6
CONTINUOUS
 10
-0.006468
 20
0.388196
  0
SEQEND
  8
0
  0
POLYLINE
  8
EBENE_1
 62
    39
  6
CONTINUOUS
 66
     1
 40
0.003000
 41
0.003000
 70
     1
  0
VERTEX
  8
EBENE_1
 62
    39
  6
CONTINUOUS
 10
0.006453
 20
0.373661
  0
VERTEX
  8
EBENE_1
 62
    39
  6
CONTINUOUS
 10
0.268559
 20
-0.055563
  0
VERTEX
  8
EBENE_1
 62
    39
  6
CONTINUOUS
 10
-0.005685
 20
-0.126980
  0
VERTEX
  8
EBENE_1
 62
    39
  6
CONTINUOUS
 10
-0.015387
 20
-0.128711
  0
VERTEX
  8
EBENE_1
 62
    39
  6
CONTINUOUS
 10
-0.025974
 20
-0.129622
  0
VERTEX
  8
EBENE_1
 62
    39
  6
CONTINUOUS
 10
-0.037381
 20
-0.129718
  0
VERTEX
  8
EBENE_1
 62
    39
  6
CONTINUOUS
 10
-0.049548
 20
-0.129002
  0
VERTEX
  8
EBENE_1
 62
    39
  6
CONTINUOUS
 10
-0.062412
 20
-0.127478
  0
VERTEX
  8
EBENE_1
 62
    39
  6
CONTINUOUS
 10
-0.075912
 20
-0.125152
  0
VERTEX
  8
EBENE_1
 62
    39
  6
CONTINUOUS
 10
-0.089984
 20
-0.122028
  0
VERTEX
  8
EBENE_1
 62
    39
  6
CONTINUOUS
 10
-0.104567
 20
-0.118109
  0
VERTEX
  8
EBENE_1
 62
    39
  6
CONTINUOUS
 10
-0.119599
 20
-0.113400
  0
VERTEX
  8
EBENE_1
 62
    39
  6
CONTINUOUS
 10
-0.135018
 20
-0.107906
  0
VERTEX
  8
EBENE_1
 62
    39
  6
CONTINUOUS
 10
-0.150761
 20
-0.101631
  0
VERTEX
  8
EBENE_1
 62
    39
  6
CONTINUOUS
 10
-0.166767
 20
-0.094578
  0
VERTEX
  8
EBENE_1
 62
    39
  6
CONTINUOUS
 10
-0.182973
 20
-0.086753
  0
VERTEX
  8
EBENE_1
 62
    39
  6
CONTINUOUS
 10
-0.199318
 20
-0.078160
  0
VERTEX
  8
EBENE_1
 62
    39
  6
CONTINUOUS
 10
-0.215738
 20
-0.068803
  0
VERTEX
  8
EBENE_1
 62
    39
  6
CONTINUOUS
 10
-0.232173
 20
-0.058687
  0
VERTEX
  8
EBENE_1
 62
    39
  6
CONTINUOUS
 10
-0.248559
 20
-0.047814
  0
VERTEX
  8
EBENE_1
 62
    39
  6
CONTINUOUS
 10
-0.264835
 20
-0.036191
  0
VERTEX
  8
EBENE_1
 62
    39
  6
CONTINUOUS
 10
-0.280939
 20
-0.023822
  0
VERTEX
  8
EBENE_1
 62
    39
  6
CONTINUOUS
 10
-0.296808
 20
-0.010710
  0
VERTEX
  8
EBENE_1
 62
    39
  6
CONTINUOUS
 10
-0.312381
 20
0.003141
  0
VERTEX
  8
EBENE_1
 62
    39
  6
CONTINUOUS
 10
-0.327595
 20
0.017724
  0
VERTEX
  8
EBENE_1
 62
    39
  6
CONTINUOUS
 10
-0.342388
 20
0.033038
  0
VERTEX
  8
EBENE_1
 62
    39
  6
CONTINUOUS
 10
-0.356698
 20
0.049076
  0
VERTEX
  8
EBENE_1
 62
    39
  6
CONTINUOUS
 10
-0.370463
 20
0.065835
  0
VERTEX
  8
EBENE_1
 62
    39
  6
CONTINUOUS
 10
-0.383621
 20
0.083311
  0
VERTEX
  8
EBENE_1
 62
    39
  6
CONTINUOUS
 10
-0.396109
 20
0.101499
  0
VERTEX
  8
EBENE_1
 62
    39
  6
CONTINUOUS
 10
-0.407866
 20
0.120394
  0
VERTEX
  8
EBENE_1
 62
    39
  6
CONTINUOUS
 10
-0.418830
 20
0.139993
  0
VERTEX
  8
EBENE_1
 62
    39
  6
CONTINUOUS
 10
-0.428938
 20
0.160292
  0
VERTEX
  8
EBENE_1
 62
    39
  6
CONTINUOUS
 10
-0.438128
 20
0.181285
  0
VERTEX
  8
EBENE_1
 62
    39
  6
CONTINUOUS
 10
-0.446339
 20
0.202969
  0
VERTEX
  8
EBENE_1
 62
    39
  6
CONTINUOUS
 10
-0.450007
 20
0.229043
  0
VERTEX
  8
EBENE_1
 62
    39
  6
CONTINUOUS
 10
-0.450237
 20
0.253331
  0
VERTEX
  8
EBENE_1
 62
    39
  6
CONTINUOUS
 10
-0.447293
 20
0.275632
  0
VERTEX
  8
EBENE_1
 62
    39
  6
CONTINUOUS
 10
-0.441438
 20
0.295746
  0
VERTEX
  8
EBENE_1
 62
    39
  6
CONTINUOUS
 10
-0.432938
 20
0.313474
  0
VERTEX
  8
EBENE_1
 62
    39
  6
CONTINUOUS
 10
-0.422058
 20
0.328615
  0
VERTEX
  8
EBENE_1
 62
    39
  6
CONTINUOUS
 10
-0.409061
 20
0.340969
  0
VERTEX
  8
EBENE_1
 62
    39
  6
CONTINUOUS
 10
-0.394212
 20
0.350338
  0
VERTEX
  8
EBENE_1
 62
    39
  6
CONTINUOUS
 10
-0.377776
 20
0.356520
  0
VERTEX
  8
EBENE_1
 62
    39
  6
CONTINUOUS
 10
-0.092102
 20
0.432937
  0
VERTEX
  8
EBENE_1
 62
    39
  6
CONTINUOUS
 10
-0.066854
 20
0.436850
  0
VERTEX
  8
EBENE_1
 62
    39
  6
CONTINUOUS
 10
-0.048576
 20
0.433804
  0
VERTEX
  8
EBENE_1
 62
    39
  6
CONTINUOUS
 10
-0.035322
 20
0.425498
  0
VERTEX
  8
EBENE_1
 62
    39
  6
CONTINUOUS
 10
-0.025140
 20
0.413632
  0
VERTEX
  8
EBENE_1
 62
    39
  6
CONTINUOUS
 10
-0.016083
 20
0.399904
  0
VERTEX
  8
EBENE_1
 62
    39
  6
CONTINUOUS
 10
-0.006202
 20
0.386014
  0
SEQEND
  8
0
  0
POLYLINE
  8
EBENE_1
 62
    39
  6
CONTINUOUS
 66
     1
 40
0.003000
 41
0.003000
 70
     1
  0
VERTEX
  8
EBENE_1
 62
    39
  6
CONTINUOUS
 10
-0.226370
 20
0.354378
  0
VERTEX
  8
EBENE_1
 62
    39
  6
CONTINUOUS
 10
-0.221741
 20
0.355674
  0
VERTEX
  8
EBENE_1
 62
    39
  6
CONTINUOUS
 10
-0.218382
 20
0.359032
  0
VERTEX
  8
EBENE_1
 62
    39
  6
CONTINUOUS
 10
-0.217087
 20
0.363661
  0
VERTEX
  8
EBENE_1
 62
    39
  6
CONTINUOUS
 10
-0.218382
 20
0.368793
  0
VERTEX
  8
EBENE_1
 62
    39
  6
CONTINUOUS
 10
-0.221741
 20
0.372338
  0
VERTEX
  8
EBENE_1
 62
    39
  6
CONTINUOUS
 10
-0.226370
 20
0.373661
  0
VERTEX
  8
EBENE_1
 62
    39
  6
CONTINUOUS
 10
-0.231502
 20
0.372338
  0
VERTEX
  8
EBENE_1
 62
    39
  6
CONTINUOUS
 10
-0.235047
 20
0.368793
  0
VERTEX
  8
EBENE_1
 62
    39
  6
CONTINUOUS
 10
-0.236370
 20
0.363661
  0
VERTEX
  8
EBENE_1
 62
    39
  6
CONTINUOUS
 10
-0.235047
 20
0.359032
  0
VERTEX
  8
EBENE_1
 62
    39
  6
CONTINUOUS
 10
-0.231502
 20
0.355674
  0
SEQEND
  8
0
  0
POLYLINE
  8
EBENE_1
 62
    39
  6
CONTINUOUS
 66
     1
 40
0.003000
 41
0.003000
 70
     1
  0
VERTEX
  8
EBENE_1
 62
    39
  6
CONTINUOUS
 10
-0.124957
 20
0.375803
  0
VERTEX
  8
EBENE_1
 62
    39
  6
CONTINUOUS
 10
-0.119823
 20
0.377125
  0
VERTEX
  8
EBENE_1
 62
    39
  6
CONTINUOUS
 10
-0.116279
 20
0.380670
  0
VERTEX
  8
EBENE_1
 62
    39
  6
CONTINUOUS
 10
-0.114957
 20
0.385803
  0
VERTEX
  8
EBENE_1
 62
    39
  6
CONTINUOUS
 10
-0.116279
 20
0.390430
  0
VERTEX
  8
EBENE_1
 62
    39
  6
CONTINUOUS
 10
-0.119823
 20
0.393790
  0
VERTEX
  8
EBENE_1
 62
    39
  6
CONTINUOUS
 10
-0.124957
 20
0.395087
  0
VERTEX
  8
EBENE_1
 62
    39
  6
CONTINUOUS
 10
-0.129586
 20
0.393790
  0
VERTEX
  8
EBENE_1
 62
    39
  6
CONTINUOUS
 10
-0.132944
 20
0.390430
  0
VERTEX
  8
EBENE_1
 62
    39
  6
CONTINUOUS
 10
-0.134240
 20
0.385803
  0
VERTEX
  8
EBENE_1
 62
    39
  6
CONTINUOUS
 10
-0.132944
 20
0.380670
  0
VERTEX
  8
EBENE_1
 62
    39
  6
CONTINUOUS
 10
-0.129586
 20
0.377125
  0
SEQEND
  8
0
  0
POLYLINE
  8
EBENE_1
 62
    39
  6
CONTINUOUS
 66
     1
 40
0.003000
 41
0.003000
 70
     1
  0
VERTEX
  8
EBENE_1
 62
    39
  6
CONTINUOUS
 10
-0.024969
 20
0.337953
  0
VERTEX
  8
EBENE_1
 62
    39
  6
CONTINUOUS
 10
-0.019837
 20
0.339248
  0
VERTEX
  8
EBENE_1
 62
    39
  6
CONTINUOUS
 10
-0.016292
 20
0.342607
  0
VERTEX
  8
EBENE_1
 62
    39
  6
CONTINUOUS
 10
-0.014969
 20
0.347236
  0
VERTEX
  8
EBENE_1
 62
    39
  6
CONTINUOUS
 10
-0.016292
 20
0.352367
  0
VERTEX
  8
EBENE_1
 62
    39
  6
CONTINUOUS
 10
-0.019837
 20
0.355910
  0
VERTEX
  8
EBENE_1
 62
    39
  6
CONTINUOUS
 10
-0.024969
 20
0.357232
  0
VERTEX
  8
EBENE_1
 62
    39
  6
CONTINUOUS
 10
-0.029598
 20
0.355910
  0
VERTEX
  8
EBENE_1
 62
    39
  6
CONTINUOUS
 10
-0.032956
 20
0.352367
  0
VERTEX
  8
EBENE_1
 62
    39
  6
CONTINUOUS
 10
-0.034252
 20
0.347236
  0
VERTEX
  8
EBENE_1
 62
    39
  6
CONTINUOUS
 10
-0.032956
 20
0.342607
  0
VERTEX
  8
EBENE_1
 62
    39
  6
CONTINUOUS
 10
-0.029598
 20
0.339248
  0
SEQEND
  8
0
  0
POLYLINE
  8
EBENE_1
 62
    39
  6
CONTINUOUS
 66
     1
 40
0.003000
 41
0.003000
 70
     1
  0
VERTEX
  8
EBENE_1
 62
    39
  6
CONTINUOUS
 10
0.294268
 20
0.445079
  0
VERTEX
  8
EBENE_1
 62
    39
  6
CONTINUOUS
 10
0.559945
 20
0.007996
  0
VERTEX
  8
EBENE_1
 62
    39
  6
CONTINUOUS
 10
0.281413
 20
-0.064134
  0
VERTEX
  8
EBENE_1
 62
    39
  6
CONTINUOUS
 10
0.271881
 20
-0.065821
  0
VERTEX
  8
EBENE_1
 62
    39
  6
CONTINUOUS
 10
0.261501
 20
-0.066728
  0
VERTEX
  8
EBENE_1
 62
    39
  6
CONTINUOUS
 10
0.250331
 20
-0.066860
  0
VERTEX
  8
EBENE_1
 62
    39
  6
CONTINUOUS
 10
0.238430
 20
-0.066220
  0
VERTEX
  8
EBENE_1
 62
    39
  6
CONTINUOUS
 10
0.225853
 20
-0.064811
  0
VERTEX
  8
EBENE_1
 62
    39
  6
CONTINUOUS
 10
0.212659
 20
-0.062638
  0
VERTEX
  8
EBENE_1
 62
    39
  6
CONTINUOUS
 10
0.198906
 20
-0.059704
  0
VERTEX
  8
EBENE_1
 62
    39
  6
CONTINUOUS
 10
0.184651
 20
-0.056013
  0
VERTEX
  8
EBENE_1
 62
    39
  6
CONTINUOUS
 10
0.169952
 20
-0.051569
  0
VERTEX
  8
EBENE_1
 62
    39
  6
CONTINUOUS
 10
0.154866
 20
-0.046374
  0
VERTEX
  8
EBENE_1
 62
    39
  6
CONTINUOUS
 10
0.139451
 20
-0.040434
  0
VERTEX
  8
EBENE_1
 62
    39
  6
CONTINUOUS
 10
0.123764
 20
-0.033751
  0
VERTEX
  8
EBENE_1
 62
    39
  6
CONTINUOUS
 10
0.107863
 20
-0.026330
  0
VERTEX
  8
EBENE_1
 62
    39
  6
CONTINUOUS
 10
0.091806
 20
-0.018173
  0
VERTEX
  8
EBENE_1
 62
    39
  6
CONTINUOUS
 10
0.075651
 20
-0.009286
  0
VERTEX
  8
EBENE_1
 62
    39
  6
CONTINUOUS
 10
0.059454
 20
0.000330
  0
VERTEX
  8
EBENE_1
 62
    39
  6
CONTINUOUS
 10
0.043274
 20
0.010669
  0
VERTEX
  8
EBENE_1
 62
    39
  6
CONTINUOUS
 10
0.027167
 20
0.021728
  0
VERTEX
  8
EBENE_1
 62
    39
  6
CONTINUOUS
 10
0.011193
 20
0.033504
  0
VERTEX
  8
EBENE_1
 62
    39
  6
CONTINUOUS
 10
-0.004593
 20
0.045993
  0
VERTEX
  8
EBENE_1
 62
    39
  6
CONTINUOUS
 10
-0.020131
 20
0.059191
  0
VERTEX
  8
EBENE_1
 62
    39
  6
CONTINUOUS
 10
-0.035365
 20
0.073094
  0
VERTEX
  8
EBENE_1
 62
    39
  6
CONTINUOUS
 10
-0.050237
 20
0.087699
  0
VERTEX
  8
EBENE_1
 62
    39
  6
CONTINUOUS
 10
-0.064690
 20
0.103002
  0
VERTEX
  8
EBENE_1
 62
    39
  6
CONTINUOUS
 10
-0.078665
 20
0.119000
  0
VERTEX
  8
EBENE_1
 62
    39
  6
CONTINUOUS
 10
-0.092106
 20
0.135688
  0
VERTEX
  8
EBENE_1
 62
    39
  6
CONTINUOUS
 10
-0.104954
 20
0.153063
  0
VERTEX
  8
EBENE_1
 62
    39
  6
CONTINUOUS
 10
-0.117152
 20
0.171121
  0
VERTEX
  8
EBENE_1
 62
    39
  6
CONTINUOUS
 10
-0.128643
 20
0.189859
  0
VERTEX
  8
EBENE_1
 62
    39
  6
CONTINUOUS
 10
-0.139368
 20
0.209272
  0
VERTEX
  8
EBENE_1
 62
    39
  6
CONTINUOUS
 10
-0.149271
 20
0.229358
  0
VERTEX
  8
EBENE_1
 62
    39
  6
CONTINUOUS
 10
-0.158294
 20
0.250112
  0
VERTEX
  8
EBENE_1
 62
    39
  6
CONTINUOUS
 10
-0.166378
 20
0.271531
  0
VERTEX
  8
EBENE_1
 62
    39
  6
CONTINUOUS
 10
-0.166378
 20
0.271531
  0
VERTEX
  8
EBENE_1
 62
    39
  6
CONTINUOUS
 10
-0.170044
 20
0.298055
  0
VERTEX
  8
EBENE_1
 62
    39
  6
CONTINUOUS
 10
-0.170259
 20
0.322739
  0
VERTEX
  8
EBENE_1
 62
    39
  6
CONTINUOUS
 10
-0.167277
 20
0.345383
  0
VERTEX
  8
EBENE_1
 62
    39
  6
CONTINUOUS
 10
-0.161351
 20
0.365787
  0
VERTEX
  8
EBENE_1
 62
    39
  6
CONTINUOUS
 10
-0.152731
 20
0.383753
  0
VERTEX
  8
EBENE_1
 62
    39
  6
CONTINUOUS
 10
-0.141673
 20
0.399079
  0
VERTEX
  8
EBENE_1
 62
    39
  6
CONTINUOUS
 10
-0.128427
 20
0.411566
  0
VERTEX
  8
EBENE_1
 62
    39
  6
CONTINUOUS
 10
-0.113247
 20
0.421015
  0
VERTEX
  8
EBENE_1
 62
    39
  6
CONTINUOUS
 10
-0.096386
 20
0.427224
  0
VERTEX
  8
EBENE_1
 62
    39
  6
CONTINUOUS
 10
0.193567
 20
0.505071
  0
VERTEX
  8
EBENE_1
 62
    39
  6
CONTINUOUS
 10
0.219310
 20
0.508981
  0
VERTEX
  8
EBENE_1
 62
    39
  6
CONTINUOUS
 10
0.237893
 20
0.505920
  0
VERTEX
  8
EBENE_1
 62
    39
  6
CONTINUOUS
 10
0.251342
 20
0.497574
  0
VERTEX
  8
EBENE_1
 62
    39
  6
CONTINUOUS
 10
0.261680
 20
0.485631
  0
VERTEX
  8
EBENE_1
 62
    39
  6
CONTINUOUS
 10
0.270931
 20
0.471776
  0
VERTEX
  8
EBENE_1
 62
    39
  6
CONTINUOUS
 10
0.281119
 20
0.457697
  0
SEQEND
  8
0
  0
POLYLINE
  8
EBENE_1
 62
    39
  6
CONTINUOUS
 66
     1
 40
0.003000
 41
0.003000
 70
     1
  0
VERTEX
  8
EBENE_1
 62
    39
  6
CONTINUOUS
 10
0.294268
 20
0.443650
  0
VERTEX
  8
EBENE_1
 62
    39
  6
CONTINUOUS
 10
0.555661
 20
0.013709
  0
VERTEX
  8
EBENE_1
 62
    39
  6
CONTINUOUS
 10
0.281413
 20
-0.057705
  0
VERTEX
  8
EBENE_1
 62
    39
  6
CONTINUOUS
 10
0.271774
 20
-0.059436
  0
VERTEX
  8
EBENE_1
 62
    39
  6
CONTINUOUS
 10
0.261243
 20
-0.060347
  0
VERTEX
  8
EBENE_1
 62
    39
  6
CONTINUOUS
 10
0.249884
 20
-0.060442
  0
VERTEX
  8
EBENE_1
 62
    39
  6
CONTINUOUS
 10
0.237758
 20
-0.059726
  0
VERTEX
  8
EBENE_1
 62
    39
  6
CONTINUOUS
 10
0.224928
 20
-0.058203
  0
VERTEX
  8
EBENE_1
 62
    39
  6
CONTINUOUS
 10
0.211458
 20
-0.055877
  0
VERTEX
  8
EBENE_1
 62
    39
  6
CONTINUOUS
 10
0.197409
 20
-0.052752
  0
VERTEX
  8
EBENE_1
 62
    39
  6
CONTINUOUS
 10
0.182845
 20
-0.048834
  0
VERTEX
  8
EBENE_1
 62
    39
  6
CONTINUOUS
 10
0.167828
 20
-0.044125
  0
VERTEX
  8
EBENE_1
 62
    39
  6
CONTINUOUS
 10
0.152421
 20
-0.038631
  0
VERTEX
  8
EBENE_1
 62
    39
  6
CONTINUOUS
 10
0.136685
 20
-0.032356
  0
VERTEX
  8
EBENE_1
 62
    39
  6
CONTINUOUS
 10
0.120685
 20
-0.025304
  0
VERTEX
  8
EBENE_1
 62
    39
  6
CONTINUOUS
 10
0.104482
 20
-0.017479
  0
VERTEX
  8
EBENE_1
 62
    39
  6
CONTINUOUS
 10
0.088140
 20
-0.008886
  0
VERTEX
  8
EBENE_1
 62
    39
  6
CONTINUOUS
 10
0.071720
 20
0.000471
  0
VERTEX
  8
EBENE_1
 62
    39
  6
CONTINUOUS
 10
0.055286
 20
0.010588
  0
VERTEX
  8
EBENE_1
 62
    39
  6
CONTINUOUS
 10
0.038900
 20
0.021460
  0
VERTEX
  8
EBENE_1
 62
    39
  6
CONTINUOUS
 10
0.022625
 20
0.033083
  0
VERTEX
  8
EBENE_1
 62
    39
  6
CONTINUOUS
 10
0.006523
 20
0.045453
  0
VERTEX
  8
EBENE_1
 62
    39
  6
CONTINUOUS
 10
-0.009343
 20
0.058565
  0
VERTEX
  8
EBENE_1
 62
    39
  6
CONTINUOUS
 10
-0.024910
 20
0.072416
  0
VERTEX
  8
EBENE_1
 62
    39
  6
CONTINUOUS
 10
-0.040116
 20
0.087000
  0
VERTEX
  8
EBENE_1
 62
    39
  6
CONTINUOUS
 10
-0.054898
 20
0.102313
  0
VERTEX
  8
EBENE_1
 62
    39
  6
CONTINUOUS
 10
-0.069193
 20
0.118352
  0
VERTEX
  8
EBENE_1
 62
    39
  6
CONTINUOUS
 10
-0.082939
 20
0.135111
  0
VERTEX
  8
EBENE_1
 62
    39
  6
CONTINUOUS
 10
-0.096073
 20
0.152587
  0
VERTEX
  8
EBENE_1
 62
    39
  6
CONTINUOUS
 10
-0.108532
 20
0.170775
  0
VERTEX
  8
EBENE_1
 62
    39
  6
CONTINUOUS
 10
-0.120255
 20
0.189671
  0
VERTEX
  8
EBENE_1
 62
    39
  6
CONTINUOUS
 10
-0.131177
 20
0.209271
  0
VERTEX
  8
EBENE_1
 62
    39
  6
CONTINUOUS
 10
-0.141237
 20
0.229570
  0
VERTEX
  8
EBENE_1
 62
    39
  6
CONTINUOUS
 10
-0.150372
 20
0.250564
  0
VERTEX
  8
EBENE_1
 62
    39
  6
CONTINUOUS
 10
-0.158520
 20
0.272248
  0
VERTEX
  8
EBENE_1
 62
    39
  6
CONTINUOUS
 10
-0.162188
 20
0.298509
  0
VERTEX
  8
EBENE_1
 62
    39
  6
CONTINUOUS
 10
-0.162418
 20
0.322896
  0
VERTEX
  8
EBENE_1
 62
    39
  6
CONTINUOUS
 10
-0.159474
 20
0.345225
  0
VERTEX
  8
EBENE_1
 62
    39
  6
CONTINUOUS
 10
-0.153620
 20
0.365316
  0
VERTEX
  8
EBENE_1
 62
    39
  6
CONTINUOUS
 10
-0.145120
 20
0.382984
  0
VERTEX
  8
EBENE_1
 62
    39
  6
CONTINUOUS
 10
-0.134240
 20
0.398049
  0
VERTEX
  8
EBENE_1
 62
    39
  6
CONTINUOUS
 10
-0.121244
 20
0.410327
  0
VERTEX
  8
EBENE_1
 62
    39
  6
CONTINUOUS
 10
-0.106396
 20
0.419637
  0
VERTEX
  8
EBENE_1
 62
    39
  6
CONTINUOUS
 10
-0.089961
 20
0.425795
  0
VERTEX
  8
EBENE_1
 62
    39
  6
CONTINUOUS
 10
0.195709
 20
0.502217
  0
VERTEX
  8
EBENE_1
 62
    39
  6
CONTINUOUS
 10
0.220696
 20
0.506130
  0
VERTEX
  8
EBENE_1
 62
    39
  6
CONTINUOUS
 10
0.238799
 20
0.503098
  0
VERTEX
  8
EBENE_1
 62
    39
  6
CONTINUOUS
 10
0.251967
 20
0.494832
  0
VERTEX
  8
EBENE_1
 62
    39
  6
CONTINUOUS
 10
0.262150
 20
0.483043
  0
VERTEX
  8
EBENE_1
 62
    39
  6
CONTINUOUS
 10
0.271295
 20
0.469441
  0
VERTEX
  8
EBENE_1
 62
    39
  6
CONTINUOUS
 10
0.281351
 20
0.455740
  0
SEQEND
  8
0
  0
POLYLINE
  8
EBENE_1
 62
    39
  6
CONTINUOUS
 66
     1
 40
0.003000
 41
0.003000
 70
     1
  0
VERTEX
  8
EBENE_1
 62
    39
  6
CONTINUOUS
 10
0.060728
 20
0.423654
  0
VERTEX
  8
EBENE_1
 62
    39
  6
CONTINUOUS
 10
0.065358
 20
0.424950
  0
VERTEX
  8
EBENE_1
 62
    39
  6
CONTINUOUS
 10
0.068719
 20
0.428310
  0
VERTEX
  8
EBENE_1
 62
    39
  6
CONTINUOUS
 10
0.070016
 20
0.432937
  0
VERTEX
  8
EBENE_1
 62
    39
  6
CONTINUOUS
 10
0.068719
 20
0.438070
  0
VERTEX
  8
EBENE_1
 62
    39
  6
CONTINUOUS
 10
0.065358
 20
0.441615
  0
VERTEX
  8
EBENE_1
 62
    39
  6
CONTINUOUS
 10
0.060728
 20
0.442937
  0
VERTEX
  8
EBENE_1
 62
    39
  6
CONTINUOUS
 10
0.056099
 20
0.441615
  0
VERTEX
  8
EBENE_1
 62
    39
  6
CONTINUOUS
 10
0.052741
 20
0.438070
  0
VERTEX
  8
EBENE_1
 62
    39
  6
CONTINUOUS
 10
0.051445
 20
0.432937
  0
VERTEX
  8
EBENE_1
 62
    39
  6
CONTINUOUS
 10
0.052741
 20
0.428310
  0
VERTEX
  8
EBENE_1
 62
    39
  6
CONTINUOUS
 10
0.056099
 20
0.424950
  0
SEQEND
  8
0
  0
POLYLINE
  8
EBENE_1
 62
    39
  6
CONTINUOUS
 66
     1
 40
0.003000
 41
0.003000
 70
     1
  0
VERTEX
  8
EBENE_1
 62
    39
  6
CONTINUOUS
 10
0.162858
 20
0.445795
  0
VERTEX
  8
EBENE_1
 62
    39
  6
CONTINUOUS
 10
0.167487
 20
0.447091
  0
VERTEX
  8
EBENE_1
 62
    39
  6
CONTINUOUS
 10
0.170846
 20
0.450450
  0
VERTEX
  8
EBENE_1
 62
    39
  6
CONTINUOUS
 10
0.172142
 20
0.455079
  0
VERTEX
  8
EBENE_1
 62
    39
  6
CONTINUOUS
 10
0.170846
 20
0.459708
  0
VERTEX
  8
EBENE_1
 62
    39
  6
CONTINUOUS
 10
0.167487
 20
0.463066
  0
VERTEX
  8
EBENE_1
 62
    39
  6
CONTINUOUS
 10
0.162858
 20
0.464362
  0
VERTEX
  8
EBENE_1
 62
    39
  6
CONTINUOUS
 10
0.158044
 20
0.463066
  0
VERTEX
  8
EBENE_1
 62
    39
  6
CONTINUOUS
 10
0.154343
 20
0.459708
  0
VERTEX
  8
EBENE_1
 62
    39
  6
CONTINUOUS
 10
0.152862
 20
0.455079
  0
VERTEX
  8
EBENE_1
 62
    39
  6
CONTINUOUS
 10
0.154343
 20
0.450450
  0
VERTEX
  8
EBENE_1
 62
    39
  6
CONTINUOUS
 10
0.158044
 20
0.447091
  0
SEQEND
  8
0
  0
POLYLINE
  8
EBENE_1
 62
    39
  6
CONTINUOUS
 66
     1
 40
0.003000
 41
0.003000
 70
     1
  0
VERTEX
  8
EBENE_1
 62
    39
  6
CONTINUOUS
 10
0.262846
 20
0.407228
  0
VERTEX
  8
EBENE_1
 62
    39
  6
CONTINUOUS
 10
0.267474
 20
0.408524
  0
VERTEX
  8
EBENE_1
 62
    39
  6
CONTINUOUS
 10
0.270833
 20
0.411883
  0
VERTEX
  8
EBENE_1
 62
    39
  6
CONTINUOUS
 10
0.272130
 20
0.416512
  0
VERTEX
  8
EBENE_1
 62
    39
  6
CONTINUOUS
 10
0.270833
 20
0.421643
  0
VERTEX
  8
EBENE_1
 62
    39
  6
CONTINUOUS
 10
0.267474
 20
0.425189
  0
VERTEX
  8
EBENE_1
 62
    39
  6
CONTINUOUS
 10
0.262846
 20
0.426512
  0
VERTEX
  8
EBENE_1
 62
    39
  6
CONTINUOUS
 10
0.257713
 20
0.425189
  0
VERTEX
  8
EBENE_1
 62
    39
  6
CONTINUOUS
 10
0.254169
 20
0.421643
  0
VERTEX
  8
EBENE_1
 62
    39
  6
CONTINUOUS
 10
0.252846
 20
0.416512
  0
VERTEX
  8
EBENE_1
 62
    39
  6
CONTINUOUS
 10
0.254169
 20
0.411883
  0
VERTEX
  8
EBENE_1
 62
    39
  6
CONTINUOUS
 10
0.257713
 20
0.408524
  0
SEQEND
  8
0
  0
POLYLINE
  8
EBENE_1
 62
    39
  6
CONTINUOUS
 66
     1
 40
0.003000
 41
0.003000
 70
     1
  0
VERTEX
  8
EBENE_1
 62
    39
  6
CONTINUOUS
 10
0.859193
 20
0.789319
  0
VERTEX
  8
EBENE_1
 62
    39
  6
CONTINUOUS
 10
0.847051
 20
0.077272
  0
VERTEX
  8
EBENE_1
 62
    39
  6
CONTINUOUS
 10
0.567803
 20
0.005138
  0
VERTEX
  8
EBENE_1
 62
    39
  6
CONTINUOUS
 10
0.558334
 20
0.003454
  0
VERTEX
  8
EBENE_1
 62
    39
  6
CONTINUOUS
 10
0.548013
 20
0.002552
  0
VERTEX
  8
EBENE_1
 62
    39
  6
CONTINUOUS
 10
0.536898
 20
0.002430
  0
VERTEX
  8
EBENE_1
 62
    39
  6
CONTINUOUS
 10
0.525048
 20
0.003082
  0
VERTEX
  8
EBENE_1
 62
    39
  6
CONTINUOUS
 10
0.512520
 20
0.004505
  0
VERTEX
  8
EBENE_1
 62
    39
  6
CONTINUOUS
 10
0.499371
 20
0.006695
  0
VERTEX
  8
EBENE_1
 62
    39
  6
CONTINUOUS
 10
0.485659
 20
0.009647
  0
VERTEX
  8
EBENE_1
 62
    39
  6
CONTINUOUS
 10
0.471443
 20
0.013357
  0
VERTEX
  8
EBENE_1
 62
    39
  6
CONTINUOUS
 10
0.456779
 20
0.017823
  0
VERTEX
  8
EBENE_1
 62
    39
  6
CONTINUOUS
 10
0.441726
 20
0.023038
  0
VERTEX
  8
EBENE_1
 62
    39
  6
CONTINUOUS
 10
0.426341
 20
0.029000
  0
VERTEX
  8
EBENE_1
 62
    39
  6
CONTINUOUS
 10
0.410681
 20
0.035705
  0
VERTEX
  8
EBENE_1
 62
    39
  6
CONTINUOUS
 10
0.394806
 20
0.043148
  0
VERTEX
  8
EBENE_1
 62
    39
  6
CONTINUOUS
 10
0.378771
 20
0.051325
  0
VERTEX
  8
EBENE_1
 62
    39
  6
CONTINUOUS
 10
0.362636
 20
0.060232
  0
VERTEX
  8
EBENE_1
 62
    39
  6
CONTINUOUS
 10
0.346457
 20
0.069865
  0
VERTEX
  8
EBENE_1
 62
    39
  6
CONTINUOUS
 10
0.330293
 20
0.080220
  0
VERTEX
  8
EBENE_1
 62
    39
  6
CONTINUOUS
 10
0.314201
 20
0.091294
  0
VERTEX
  8
EBENE_1
 62
    39
  6
CONTINUOUS
 10
0.298238
 20
0.103081
  0
VERTEX
  8
EBENE_1
 62
    39
  6
CONTINUOUS
 10
0.282464
 20
0.115579
  0
VERTEX
  8
EBENE_1
 62
    39
  6
CONTINUOUS
 10
0.266934
 20
0.128782
  0
VERTEX
  8
EBENE_1
 62
    39
  6
CONTINUOUS
 10
0.251708
 20
0.142687
  0
VERTEX
  8
EBENE_1
 62
    39
  6
CONTINUOUS
 10
0.236842
 20
0.157290
  0
VERTEX
  8
EBENE_1
 62
    39
  6
CONTINUOUS
 10
0.222395
 20
0.172587
  0
VERTEX
  8
EBENE_1
 62
    39
  6
CONTINUOUS
 10
0.208424
 20
0.188573
  0
VERTEX
  8
EBENE_1
 62
    39
  6
CONTINUOUS
 10
0.194986
 20
0.205245
  0
VERTEX
  8
EBENE_1
 62
    39
  6
CONTINUOUS
 10
0.182140
 20
0.222599
  0
VERTEX
  8
EBENE_1
 62
    39
  6
CONTINUOUS
 10
0.169944
 20
0.240630
  0
VERTEX
  8
EBENE_1
 62
    39
  6
CONTINUOUS
 10
0.158454
 20
0.259335
  0
VERTEX
  8
EBENE_1
 62
    39
  6
CONTINUOUS
 10
0.147730
 20
0.278709
  0
VERTEX
  8
EBENE_1
 62
    39
  6
CONTINUOUS
 10
0.137827
 20
0.298748
  0
VERTEX
  8
EBENE_1
 62
    39
  6
CONTINUOUS
 10
0.128805
 20
0.319449
  0
VERTEX
  8
EBENE_1
 62
    39
  6
CONTINUOUS
 10
0.120720
 20
0.340807
  0
VERTEX
  8
EBENE_1
 62
    39
  6
CONTINUOUS
 10
0.120720
 20
0.340807
  0
VERTEX
  8
EBENE_1
 62
    39
  6
CONTINUOUS
 10
0.117078
 20
0.367332
  0
VERTEX
  8
EBENE_1
 62
    39
  6
CONTINUOUS
 10
0.116922
 20
0.392016
  0
VERTEX
  8
EBENE_1
 62
    39
  6
CONTINUOUS
 10
0.119980
 20
0.414661
  0
VERTEX
  8
EBENE_1
 62
    39
  6
CONTINUOUS
 10
0.125984
 20
0.435066
  0
VERTEX
  8
EBENE_1
 62
    39
  6
CONTINUOUS
 10
0.134662
 20
0.453031
  0
VERTEX
  8
EBENE_1
 62
    39
  6
CONTINUOUS
 10
0.145744
 20
0.468357
  0
VERTEX
  8
EBENE_1
 62
    39
  6
CONTINUOUS
 10
0.158960
 20
0.480844
  0
VERTEX
  8
EBENE_1
 62
    39
  6
CONTINUOUS
 10
0.174040
 20
0.490292
  0
VERTEX
  8
EBENE_1
 62
    39
  6
CONTINUOUS
 10
0.190713
 20
0.496500
  0
VERTEX
  8
EBENE_1
 62
    39
  6
CONTINUOUS
 10
0.475673
 20
0.640051
  0
VERTEX
  8
EBENE_1
 62
    39
  6
CONTINUOUS
 10
0.486467
 20
0.643408
  0
VERTEX
  8
EBENE_1
 62
    39
  6
CONTINUOUS
 10
0.499592
 20
0.648293
  0
VERTEX
  8
EBENE_1
 62
    39
  6
CONTINUOUS
 10
0.514792
 20
0.654526
  0
VERTEX
  8
EBENE_1
 62
    39
  6
CONTINUOUS
 10
0.531814
 20
0.661927
  0
VERTEX
  8
EBENE_1
 62
    39
  6
CONTINUOUS
 10
0.550401
 20
0.670316
  0
VERTEX
  8
EBENE_1
 62
    39
  6
CONTINUOUS
 10
0.570301
 20
0.679512
  0
VERTEX
  8
EBENE_1
 62
    39
  6
CONTINUOUS
 10
0.591257
 20
0.689335
  0
VERTEX
  8
EBENE_1
 62
    39
  6
CONTINUOUS
 10
0.613015
 20
0.699604
  0
VERTEX
  8
EBENE_1
 62
    39
  6
CONTINUOUS
 10
0.635321
 20
0.710140
  0
VERTEX
  8
EBENE_1
 62
    39
  6
CONTINUOUS
 10
0.657919
 20
0.720762
  0
VERTEX
  8
EBENE_1
 62
    39
  6
CONTINUOUS
 10
0.680555
 20
0.731290
  0
VERTEX
  8
EBENE_1
 62
    39
  6
CONTINUOUS
 10
0.702974
 20
0.741543
  0
VERTEX
  8
EBENE_1
 62
    39
  6
CONTINUOUS
 10
0.724922
 20
0.751342
  0
VERTEX
  8
EBENE_1
 62
    39
  6
CONTINUOUS
 10
0.746143
 20
0.760506
  0
VERTEX
  8
EBENE_1
 62
    39
  6
CONTINUOUS
 10
0.766383
 20
0.768854
  0
VERTEX
  8
EBENE_1
 62
    39
  6
CONTINUOUS
 10
0.785387
 20
0.776207
  0
VERTEX
  8
EBENE_1
 62
    39
  6
CONTINUOUS
 10
0.802901
 20
0.782383
  0
VERTEX
  8
EBENE_1
 62
    39
  6
CONTINUOUS
 10
0.818669
 20
0.787204
  0
VERTEX
  8
EBENE_1
 62
    39
  6
CONTINUOUS
 10
0.832437
 20
0.790488
  0
VERTEX
  8
EBENE_1
 62
    39
  6
CONTINUOUS
 10
0.843950
 20
0.792056
  0
VERTEX
  8
EBENE_1
 62
    39
  6
CONTINUOUS
 10
0.852954
 20
0.791726
  0
SEQEND
  8
0
  0
POLYLINE
  8
EBENE_1
 62
    39
  6
CONTINUOUS
 66
     1
 40
0.003000
 41
0.003000
 70
     1
  0
VERTEX
  8
EBENE_1
 62
    39
  6
CONTINUOUS
 10
0.882760
 20
0.787177
  0
VERTEX
  8
EBENE_1
 62
    39
  6
CONTINUOUS
 10
0.898472
 20
0.105843
  0
VERTEX
  8
EBENE_1
 62
    39
  6
CONTINUOUS
 10
0.568516
 20
0.011567
  0
VERTEX
  8
EBENE_1
 62
    39
  6
CONTINUOUS
 10
0.558816
 20
0.009836
  0
VERTEX
  8
EBENE_1
 62
    39
  6
CONTINUOUS
 10
0.548236
 20
0.008925
  0
VERTEX
  8
EBENE_1
 62
    39
  6
CONTINUOUS
 10
0.536838
 20
0.008830
  0
VERTEX
  8
EBENE_1
 62
    39
  6
CONTINUOUS
 10
0.524685
 20
0.009547
  0
VERTEX
  8
EBENE_1
 62
    39
  6
CONTINUOUS
 10
0.511837
 20
0.011070
  0
VERTEX
  8
EBENE_1
 62
    39
  6
CONTINUOUS
 10
0.498357
 20
0.013397
  0
VERTEX
  8
EBENE_1
 62
    39
  6
CONTINUOUS
 10
0.484306
 20
0.016521
  0
VERTEX
  8
EBENE_1
 62
    39
  6
CONTINUOUS
 10
0.469747
 20
0.020440
  0
VERTEX
  8
EBENE_1
 62
    39
  6
CONTINUOUS
 10
0.454741
 20
0.025149
  0
VERTEX
  8
EBENE_1
 62
    39
  6
CONTINUOUS
 10
0.439351
 20
0.030643
  0
VERTEX
  8
EBENE_1
 62
    39
  6
CONTINUOUS
 10
0.423637
 20
0.036919
  0
VERTEX
  8
EBENE_1
 62
    39
  6
CONTINUOUS
 10
0.407662
 20
0.043971
  0
VERTEX
  8
EBENE_1
 62
    39
  6
CONTINUOUS
 10
0.391488
 20
0.051796
  0
VERTEX
  8
EBENE_1
 62
    39
  6
CONTINUOUS
 10
0.375176
 20
0.060389
  0
VERTEX
  8
EBENE_1
 62
    39
  6
CONTINUOUS
 10
0.358789
 20
0.069746
  0
VERTEX
  8
EBENE_1
 62
    39
  6
CONTINUOUS
 10
0.342388
 20
0.079863
  0
VERTEX
  8
EBENE_1
 62
    39
  6
CONTINUOUS
 10
0.326035
 20
0.090735
  0
VERTEX
  8
EBENE_1
 62
    39
  6
CONTINUOUS
 10
0.309792
 20
0.102358
  0
VERTEX
  8
EBENE_1
 62
    39
  6
CONTINUOUS
 10
0.293721
 20
0.114728
  0
VERTEX
  8
EBENE_1
 62
    39
  6
CONTINUOUS
 10
0.277884
 20
0.127841
  0
VERTEX
  8
EBENE_1
 62
    39
  6
CONTINUOUS
 10
0.262342
 20
0.141691
  0
VERTEX
  8
EBENE_1
 62
    39
  6
CONTINUOUS
 10
0.247157
 20
0.156275
  0
VERTEX
  8
EBENE_1
 62
    39
  6
CONTINUOUS
 10
0.232392
 20
0.171589
  0
VERTEX
  8
EBENE_1
 62
    39
  6
CONTINUOUS
 10
0.218108
 20
0.187627
  0
VERTEX
  8
EBENE_1
 62
    39
  6
CONTINUOUS
 10
0.204367
 20
0.204387
  0
VERTEX
  8
EBENE_1
 62
    39
  6
CONTINUOUS
 10
0.191231
 20
0.221863
  0
VERTEX
  8
EBENE_1
 62
    39
  6
CONTINUOUS
 10
0.178761
 20
0.240051
  0
VERTEX
  8
EBENE_1
 62
    39
  6
CONTINUOUS
 10
0.167020
 20
0.258947
  0
VERTEX
  8
EBENE_1
 62
    39
  6
CONTINUOUS
 10
0.156070
 20
0.278547
  0
VERTEX
  8
EBENE_1
 62
    39
  6
CONTINUOUS
 10
0.145971
 20
0.298845
  0
VERTEX
  8
EBENE_1
 62
    39
  6
CONTINUOUS
 10
0.136787
 20
0.319839
  0
VERTEX
  8
EBENE_1
 62
    39
  6
CONTINUOUS
 10
0.128579
 20
0.341524
  0
VERTEX
  8
EBENE_1
 62
    39
  6
CONTINUOUS
 10
0.124910
 20
0.367786
  0
VERTEX
  8
EBENE_1
 62
    39
  6
CONTINUOUS
 10
0.124680
 20
0.392173
  0
VERTEX
  8
EBENE_1
 62
    39
  6
CONTINUOUS
 10
0.127625
 20
0.414503
  0
VERTEX
  8
EBENE_1
 62
    39
  6
CONTINUOUS
 10
0.133479
 20
0.434593
  0
VERTEX
  8
EBENE_1
 62
    39
  6
CONTINUOUS
 10
0.141978
 20
0.452262
  0
VERTEX
  8
EBENE_1
 62
    39
  6
CONTINUOUS
 10
0.152858
 20
0.467326
  0
VERTEX
  8
EBENE_1
 62
    39
  6
CONTINUOUS
 10
0.165855
 20
0.479605
  0
VERTEX
  8
EBENE_1
 62
    39
  6
CONTINUOUS
 10
0.180703
 20
0.488915
  0
VERTEX
  8
EBENE_1
 62
    39
  6
CONTINUOUS
 10
0.197138
 20
0.495075
  0
VERTEX
  8
EBENE_1
 62
    39
  6
CONTINUOUS
 10
0.491386
 20
0.637197
  0
VERTEX
  8
EBENE_1
 62
    39
  6
CONTINUOUS
 10
0.501433
 20
0.642066
  0
VERTEX
  8
EBENE_1
 62
    39
  6
CONTINUOUS
 10
0.514055
 20
0.648191
  0
VERTEX
  8
EBENE_1
 62
    39
  6
CONTINUOUS
 10
0.528977
 20
0.655412
  0
VERTEX
  8
EBENE_1
 62
    39
  6
CONTINUOUS
 10
0.545923
 20
0.663567
  0
VERTEX
  8
EBENE_1
 62
    39
  6
CONTINUOUS
 10
0.564617
 20
0.672497
  0
VERTEX
  8
EBENE_1
 62
    39
  6
CONTINUOUS
 10
0.584783
 20
0.682040
  0
VERTEX
  8
EBENE_1
 62
    39
  6
CONTINUOUS
 10
0.606146
 20
0.692037
  0
VERTEX
  8
EBENE_1
 62
    39
  6
CONTINUOUS
 10
0.628431
 20
0.702326
  0
VERTEX
  8
EBENE_1
 62
    39
  6
CONTINUOUS
 10
0.651361
 20
0.712747
  0
VERTEX
  8
EBENE_1
 62
    39
  6
CONTINUOUS
 10
0.674660
 20
0.723140
  0
VERTEX
  8
EBENE_1
 62
    39
  6
CONTINUOUS
 10
0.698054
 20
0.733344
  0
VERTEX
  8
EBENE_1
 62
    39
  6
CONTINUOUS
 10
0.721266
 20
0.743197
  0
VERTEX
  8
EBENE_1
 62
    39
  6
CONTINUOUS
 10
0.744022
 20
0.752541
  0
VERTEX
  8
EBENE_1
 62
    39
  6
CONTINUOUS
 10
0.766044
 20
0.761214
  0
VERTEX
  8
EBENE_1
 62
    39
  6
CONTINUOUS
 10
0.787058
 20
0.769055
  0
VERTEX
  8
EBENE_1
 62
    39
  6
CONTINUOUS
 10
0.806787
 20
0.775904
  0
VERTEX
  8
EBENE_1
 62
    39
  6
CONTINUOUS
 10
0.824957
 20
0.781601
  0
VERTEX
  8
EBENE_1
 62
    39
  6
CONTINUOUS
 10
0.841291
 20
0.785985
  0
VERTEX
  8
EBENE_1
 62
    39
  6
CONTINUOUS
 10
0.855515
 20
0.788895
  0
VERTEX
  8
EBENE_1
 62
    39
  6
CONTINUOUS
 10
0.867351
 20
0.790171
  0
VERTEX
  8
EBENE_1
 62
    39
  6
CONTINUOUS
 10
0.876524
 20
0.789652
  0
SEQEND
  8
0
  0
POLYLINE
  8
EBENE_1
 62
    39
  6
CONTINUOUS
 66
     1
 40
0.003000
 41
0.003000
  0
VERTEX
  8
EBENE_1
 62
    39
  6
CONTINUOUS
 10
0.392114
 20
0.532925
  0
VERTEX
  8
EBENE_1
 62
    39
  6
CONTINUOUS
 10
0.393806
 20
0.530756
  0
VERTEX
  8
EBENE_1
 62
    39
  6
CONTINUOUS
 10
0.394704
 20
0.528428
  0
VERTEX
  8
EBENE_1
 62
    39
  6
CONTINUOUS
 10
0.394969
 20
0.525783
  0
SEQEND
  8
0
  0
POLYLINE
  8
EBENE_1
 62
    39
  6
CONTINUOUS
 66
     1
 40
0.003000
 41
0.003000
  0
VERTEX
  8
EBENE_1
 62
    39
  6
CONTINUOUS
 10
0.394969
 20
0.525783
  0
VERTEX
  8
EBENE_1
 62
    39
  6
CONTINUOUS
 10
0.393673
 20
0.521153
  0
VERTEX
  8
EBENE_1
 62
    39
  6
CONTINUOUS
 10
0.390314
 20
0.517793
  0
VERTEX
  8
EBENE_1
 62
    39
  6
CONTINUOUS
 10
0.385685
 20
0.516496
  0
SEQEND
  8
0
  0
POLYLINE
  8
EBENE_1
 62
    39
  6
CONTINUOUS
 66
     1
 40
0.003000
 41
0.003000
  0
VERTEX
  8
EBENE_1
 62
    39
  6
CONTINUOUS
 10
0.385685
 20
0.516496
  0
VERTEX
  8
EBENE_1
 62
    39
  6
CONTINUOUS
 10
0.380554
 20
0.517793
  0
VERTEX
  8
EBENE_1
 62
    39
  6
CONTINUOUS
 10
0.377008
 20
0.521153
  0
VERTEX
  8
EBENE_1
 62
    39
  6
CONTINUOUS
 10
0.375685
 20
0.525783
  0
SEQEND
  8
0
  0
POLYLINE
  8
EBENE_1
 62
    39
  6
CONTINUOUS
 66
     1
 40
0.003000
 41
0.003000
  0
VERTEX
  8
EBENE_1
 62
    39
  6
CONTINUOUS
 10
0.375685
 20
0.525783
  0
VERTEX
  8
EBENE_1
 62
    39
  6
CONTINUOUS
 10
0.377008
 20
0.530413
  0
VERTEX
  8
EBENE_1
 62
    39
  6
CONTINUOUS
 10
0.380554
 20
0.533771
  0
VERTEX
  8
EBENE_1
 62
    39
  6
CONTINUOUS
 10
0.385685
 20
0.535067
  0
SEQEND
  8
0
  0
POLYLINE
  8
EBENE_1
 62
    39
  6
CONTINUOUS
 66
     1
 40
0.003000
 41
0.003000
 70
     1
  0
VERTEX
  8
EBENE_1
 62
    39
  6
CONTINUOUS
 10
0.500669
 20
0.561492
  0
VERTEX
  8
EBENE_1
 62
    39
  6
CONTINUOUS
 10
0.505298
 20
0.562788
  0
VERTEX
  8
EBENE_1
 62
    39
  6
CONTINUOUS
 10
0.508657
 20
0.566147
  0
VERTEX
  8
EBENE_1
 62
    39
  6
CONTINUOUS
 10
0.509953
 20
0.570776
  0
VERTEX
  8
EBENE_1
 62
    39
  6
CONTINUOUS
 10
0.508657
 20
0.575907
  0
VERTEX
  8
EBENE_1
 62
    39
  6
CONTINUOUS
 10
0.505298
 20
0.579452
  0
VERTEX
  8
EBENE_1
 62
    39
  6
CONTINUOUS
 10
0.500669
 20
0.580776
  0
VERTEX
  8
EBENE_1
 62
    39
  6
CONTINUOUS
 10
0.496040
 20
0.579452
  0
VERTEX
  8
EBENE_1
 62
    39
  6
CONTINUOUS
 10
0.492682
 20
0.575907
  0
VERTEX
  8
EBENE_1
 62
    39
  6
CONTINUOUS
 10
0.491386
 20
0.570776
  0
VERTEX
  8
EBENE_1
 62
    39
  6
CONTINUOUS
 10
0.492682
 20
0.566147
  0
VERTEX
  8
EBENE_1
 62
    39
  6
CONTINUOUS
 10
0.496040
 20
0.562788
  0
SEQEND
  8
0
  0
POLYLINE
  8
EBENE_1
 62
    39
  6
CONTINUOUS
 66
     1
 40
0.003000
 41
0.003000
 70
     1
  0
VERTEX
  8
EBENE_1
 62
    39
  6
CONTINUOUS
 10
0.642079
 20
0.635055
  0
VERTEX
  8
EBENE_1
 62
    39
  6
CONTINUOUS
 10
0.647210
 20
0.636351
  0
VERTEX
  8
EBENE_1
 62
    39
  6
CONTINUOUS
 10
0.650756
 20
0.639710
  0
VERTEX
  8
EBENE_1
 62
    39
  6
CONTINUOUS
 10
0.652079
 20
0.644339
  0
VERTEX
  8
EBENE_1
 62
    39
  6
CONTINUOUS
 10
0.650756
 20
0.649153
  0
VERTEX
  8
EBENE_1
 62
    39
  6
CONTINUOUS
 10
0.647210
 20
0.652857
  0
VERTEX
  8
EBENE_1
 62
    39
  6
CONTINUOUS
 10
0.642079
 20
0.654339
  0
VERTEX
  8
EBENE_1
 62
    39
  6
CONTINUOUS
 10
0.637450
 20
0.652857
  0
VERTEX
  8
EBENE_1
 62
    39
  6
CONTINUOUS
 10
0.634091
 20
0.649153
  0
VERTEX
  8
EBENE_1
 62
    39
  6
CONTINUOUS
 10
0.632795
 20
0.644339
  0
VERTEX
  8
EBENE_1
 62
    39
  6
CONTINUOUS
 10
0.634091
 20
0.639710
  0
VERTEX
  8
EBENE_1
 62
    39
  6
CONTINUOUS
 10
0.637450
 20
0.636351
  0
SEQEND
  8
0
  0
POLYLINE
  8
EBENE_1
 62
    39
  6
CONTINUOUS
 66
     1
 40
0.003000
 41
0.003000
  0
VERTEX
  8
EBENE_1
 62
    39
  6
CONTINUOUS
 10
-0.002827
 20
-0.134839
  0
VERTEX
  8
EBENE_1
 62
    39
  6
CONTINUOUS
 10
0.654220
 20
0.035850
  0
SEQEND
  8
0
  0
POLYLINE
  8
EBENE_1
 62
    39
  6
CONTINUOUS
 66
     1
 40
0.003000
 41
0.003000
  0
VERTEX
  8
EBENE_1
 62
    39
  6
CONTINUOUS
 10
1.362693
 20
-0.580488
  0
VERTEX
  8
EBENE_1
 62
    39
  6
CONTINUOUS
 10
1.358487
 20
-0.583160
  0
VERTEX
  8
EBENE_1
 62
    39
  6
CONTINUOUS
 10
1.356187
 20
-0.587577
  0
VERTEX
  8
EBENE_1
 62
    39
  6
CONTINUOUS
 10
1.356268
 20
-0.592630
  0
SEQEND
  8
0
  0
POLYLINE
  8
EBENE_1
 62
    39
  6
CONTINUOUS
 66
     1
 40
0.003000
 41
0.003000
  0
VERTEX
  8
EBENE_1
 62
    39
  6
CONTINUOUS
 10
1.356268
 20
-0.592630
  0
VERTEX
  8
EBENE_1
 62
    39
  6
CONTINUOUS
 10
1.358752
 20
-0.596837
  0
VERTEX
  8
EBENE_1
 62
    39
  6
CONTINUOUS
 10
1.362825
 20
-0.599139
  0
VERTEX
  8
EBENE_1
 62
    39
  6
CONTINUOUS
 10
1.367693
 20
-0.599059
  0
SEQEND
  8
0
  0
POLYLINE
  8
EBENE_1
 62
    39
  6
CONTINUOUS
 66
     1
 40
0.003000
 41
0.003000
  0
VERTEX
  8
EBENE_1
 62
    39
  6
CONTINUOUS
 10
1.367693
 20
-0.599059
  0
VERTEX
  8
EBENE_1
 62
    39
  6
CONTINUOUS
 10
1.372084
 20
-0.596572
  0
VERTEX
  8
EBENE_1
 62
    39
  6
CONTINUOUS
 10
1.374729
 20
-0.592498
  0
VERTEX
  8
EBENE_1
 62
    39
  6
CONTINUOUS
 10
1.374835
 20
-0.587630
  0
SEQEND
  8
0
  0
POLYLINE
  8
EBENE_1
 62
    39
  6
CONTINUOUS
 66
     1
 40
0.003000
 41
0.003000
  0
VERTEX
  8
EBENE_1
 62
    39
  6
CONTINUOUS
 10
1.374835
 20
-0.587630
  0
VERTEX
  8
EBENE_1
 62
    39
  6
CONTINUOUS
 10
1.372163
 20
-0.583241
  0
VERTEX
  8
EBENE_1
 62
    39
  6
CONTINUOUS
 10
1.367745
 20
-0.580596
  0
VERTEX
  8
EBENE_1
 62
    39
  6
CONTINUOUS
 10
1.362693
 20
-0.580488
  0
SEQEND
  8
0
  0
POLYLINE
  8
EBENE_1
 62
    39
  6
CONTINUOUS
 66
     1
 40
0.003000
 41
0.003000
  0
VERTEX
  8
EBENE_1
 62
    39
  6
CONTINUOUS
 10
1.257709
 20
-0.652622
  0
VERTEX
  8
EBENE_1
 62
    39
  6
CONTINUOUS
 10
1.253502
 20
-0.655294
  0
VERTEX
  8
EBENE_1
 62
    39
  6
CONTINUOUS
 10
1.251200
 20
-0.659711
  0
VERTEX
  8
EBENE_1
 62
    39
  6
CONTINUOUS
 10
1.251280
 20
-0.664764
  0
SEQEND
  8
0
  0
POLYLINE
  8
EBENE_1
 62
    39
  6
CONTINUOUS
 66
     1
 40
0.003000
 41
0.003000
  0
VERTEX
  8
EBENE_1
 62
    39
  6
CONTINUOUS
 10
1.251280
 20
-0.664764
  0
VERTEX
  8
EBENE_1
 62
    39
  6
CONTINUOUS
 10
1.253767
 20
-0.668970
  0
VERTEX
  8
EBENE_1
 62
    39
  6
CONTINUOUS
 10
1.257841
 20
-0.671272
  0
VERTEX
  8
EBENE_1
 62
    39
  6
CONTINUOUS
 10
1.262709
 20
-0.671193
  0
SEQEND
  8
0
  0
POLYLINE
  8
EBENE_1
 62
    39
  6
CONTINUOUS
 66
     1
 40
0.003000
 41
0.003000
  0
VERTEX
  8
EBENE_1
 62
    39
  6
CONTINUOUS
 10
1.262709
 20
-0.671193
  0
VERTEX
  8
EBENE_1
 62
    39
  6
CONTINUOUS
 10
1.267097
 20
-0.668706
  0
VERTEX
  8
EBENE_1
 62
    39
  6
CONTINUOUS
 10
1.269742
 20
-0.664632
  0
VERTEX
  8
EBENE_1
 62
    39
  6
CONTINUOUS
 10
1.269850
 20
-0.659764
  0
SEQEND
  8
0
  0
POLYLINE
  8
EBENE_1
 62
    39
  6
CONTINUOUS
 66
     1
 40
0.003000
 41
0.003000
  0
VERTEX
  8
EBENE_1
 62
    39
  6
CONTINUOUS
 10
1.269850
 20
-0.659764
  0
VERTEX
  8
EBENE_1
 62
    39
  6
CONTINUOUS
 10
1.267337
 20
-0.655372
  0
VERTEX
  8
EBENE_1
 62
    39
  6
CONTINUOUS
 10
1.263078
 20
-0.652727
  0
VERTEX
  8
EBENE_1
 62
    39
  6
CONTINUOUS
 10
1.257709
 20
-0.652622
  0
SEQEND
  8
0
  0
POLYLINE
  8
EBENE_1
 62
    39
  6
CONTINUOUS
 66
     1
 40
0.003000
 41
0.003000
  0
VERTEX
  8
EBENE_1
 62
    39
  6
CONTINUOUS
 10
1.206287
 20
-0.611913
  0
VERTEX
  8
EBENE_1
 62
    39
  6
CONTINUOUS
 10
1.201579
 20
-0.614084
  0
VERTEX
  8
EBENE_1
 62
    39
  6
CONTINUOUS
 10
1.199093
 20
-0.618316
  0
VERTEX
  8
EBENE_1
 62
    39
  6
CONTINUOUS
 10
1.199146
 20
-0.623343
  0
SEQEND
  8
0
  0
POLYLINE
  8
EBENE_1
 62
    39
  6
CONTINUOUS
 66
     1
 40
0.003000
 41
0.003000
  0
VERTEX
  8
EBENE_1
 62
    39
  6
CONTINUOUS
 10
1.199146
 20
-0.623343
  0
VERTEX
  8
EBENE_1
 62
    39
  6
CONTINUOUS
 10
1.201659
 20
-0.627546
  0
VERTEX
  8
EBENE_1
 62
    39
  6
CONTINUOUS
 10
1.205918
 20
-0.629847
  0
VERTEX
  8
EBENE_1
 62
    39
  6
CONTINUOUS
 10
1.211287
 20
-0.629768
  0
SEQEND
  8
0
  0
POLYLINE
  8
EBENE_1
 62
    39
  6
CONTINUOUS
 66
     1
 40
0.003000
 41
0.003000
  0
VERTEX
  8
EBENE_1
 62
    39
  6
CONTINUOUS
 10
1.211287
 20
-0.629768
  0
VERTEX
  8
EBENE_1
 62
    39
  6
CONTINUOUS
 10
1.215493
 20
-0.627600
  0
VERTEX
  8
EBENE_1
 62
    39
  6
CONTINUOUS
 10
1.217793
 20
-0.623368
  0
VERTEX
  8
EBENE_1
 62
    39
  6
CONTINUOUS
 10
1.217713
 20
-0.618343
  0
SEQEND
  8
0
  0
POLYLINE
  8
EBENE_1
 62
    39
  6
CONTINUOUS
 66
     1
 40
0.003000
 41
0.003000
  0
VERTEX
  8
EBENE_1
 62
    39
  6
CONTINUOUS
 10
1.217713
 20
-0.618343
  0
VERTEX
  8
EBENE_1
 62
    39
  6
CONTINUOUS
 10
1.215228
 20
-0.614136
  0
VERTEX
  8
EBENE_1
 62
    39
  6
CONTINUOUS
 10
1.211155
 20
-0.611834
  0
VERTEX
  8
EBENE_1
 62
    39
  6
CONTINUOUS
 10
1.206287
 20
-0.611913
  0
SEQEND
  8
0
  0
POLYLINE
  8
EBENE_1
 62
    39
  6
CONTINUOUS
 66
     1
 40
0.003000
 41
0.003000
 70
     1
  0
VERTEX
  8
EBENE_1
 62
    39
  6
CONTINUOUS
 10
1.398406
 20
-0.706185
  0
VERTEX
  8
EBENE_1
 62
    39
  6
CONTINUOUS
 10
1.196287
 20
-0.705472
  0
VERTEX
  8
EBENE_1
 62
    39
  6
CONTINUOUS
 10
1.177121
 20
-0.708541
  0
VERTEX
  8
EBENE_1
 62
    39
  6
CONTINUOUS
 10
1.159606
 20
-0.708540
  0
VERTEX
  8
EBENE_1
 62
    39
  6
CONTINUOUS
 10
1.143728
 20
-0.705583
  0
VERTEX
  8
EBENE_1
 62
    39
  6
CONTINUOUS
 10
1.129471
 20
-0.699785
  0
VERTEX
  8
EBENE_1
 62
    39
  6
CONTINUOUS
 10
1.116822
 20
-0.691258
  0
VERTEX
  8
EBENE_1
 62
    39
  6
CONTINUOUS
 10
1.105764
 20
-0.680118
  0
VERTEX
  8
EBENE_1
 62
    39
  6
CONTINUOUS
 10
1.096284
 20
-0.666478
  0
VERTEX
  8
EBENE_1
 62
    39
  6
CONTINUOUS
 10
1.088366
 20
-0.650453
  0
VERTEX
  8
EBENE_1
 62
    39
  6
CONTINUOUS
 10
1.081995
 20
-0.632156
  0
VERTEX
  8
EBENE_1
 62
    39
  6
CONTINUOUS
 10
1.077157
 20
-0.611701
  0
VERTEX
  8
EBENE_1
 62
    39
  6
CONTINUOUS
 10
1.073837
 20
-0.589203
  0
VERTEX
  8
EBENE_1
 62
    39
  6
CONTINUOUS
 10
1.072020
 20
-0.564776
  0
VERTEX
  8
EBENE_1
 62
    39
  6
CONTINUOUS
 10
1.072020
 20
-0.074130
  0
VERTEX
  8
EBENE_1
 62
    39
  6
CONTINUOUS
 10
1.079458
 20
-0.054449
  0
VERTEX
  8
EBENE_1
 62
    39
  6
CONTINUOUS
 10
1.087911
 20
-0.035886
  0
VERTEX
  8
EBENE_1
 62
    39
  6
CONTINUOUS
 10
1.097331
 20
-0.018388
  0
VERTEX
  8
EBENE_1
 62
    39
  6
CONTINUOUS
 10
1.107672
 20
-0.001904
  0
VERTEX
  8
EBENE_1
 62
    39
  6
CONTINUOUS
 10
1.118885
 20
0.013617
  0
VERTEX
  8
EBENE_1
 62
    39
  6
CONTINUOUS
 10
1.130922
 20
0.028227
  0
VERTEX
  8
EBENE_1
 62
    39
  6
CONTINUOUS
 10
1.143738
 20
0.041978
  0
VERTEX
  8
EBENE_1
 62
    39
  6
CONTINUOUS
 10
1.157283
 20
0.054920
  0
VERTEX
  8
EBENE_1
 62
    39
  6
CONTINUOUS
 10
1.171511
 20
0.067106
  0
VERTEX
  8
EBENE_1
 62
    39
  6
CONTINUOUS
 10
1.186374
 20
0.078587
  0
VERTEX
  8
EBENE_1
 62
    39
  6
CONTINUOUS
 10
1.201824
 20
0.089414
  0
VERTEX
  8
EBENE_1
 62
    39
  6
CONTINUOUS
 10
1.217815
 20
0.099640
  0
VERTEX
  8
EBENE_1
 62
    39
  6
CONTINUOUS
 10
1.234298
 20
0.109314
  0
VERTEX
  8
EBENE_1
 62
    39
  6
CONTINUOUS
 10
1.251226
 20
0.118490
  0
VERTEX
  8
EBENE_1
 62
    39
  6
CONTINUOUS
 10
1.268552
 20
0.127219
  0
VERTEX
  8
EBENE_1
 62
    39
  6
CONTINUOUS
 10
1.286228
 20
0.135551
  0
VERTEX
  8
EBENE_1
 62
    39
  6
CONTINUOUS
 10
1.304206
 20
0.143539
  0
VERTEX
  8
EBENE_1
 62
    39
  6
CONTINUOUS
 10
1.322440
 20
0.151234
  0
VERTEX
  8
EBENE_1
 62
    39
  6
CONTINUOUS
 10
1.340881
 20
0.158687
  0
VERTEX
  8
EBENE_1
 62
    39
  6
CONTINUOUS
 10
1.359483
 20
0.165951
  0
VERTEX
  8
EBENE_1
 62
    39
  6
CONTINUOUS
 10
1.378197
 20
0.173076
  0
VERTEX
  8
EBENE_1
 62
    39
  6
CONTINUOUS
 10
1.396976
 20
0.180114
  0
SEQEND
  8
0
  0
POLYLINE
  8
EBENE_1
 62
    39
  6
CONTINUOUS
 66
     1
 40
0.003000
 41
0.003000
 70
     1
  0
VERTEX
  8
EBENE_1
 62
    39
  6
CONTINUOUS
 10
1.394118
 20
-0.699760
  0
VERTEX
  8
EBENE_1
 62
    39
  6
CONTINUOUS
 10
1.197004
 20
-0.699760
  0
VERTEX
  8
EBENE_1
 62
    39
  6
CONTINUOUS
 10
1.178358
 20
-0.702693
  0
VERTEX
  8
EBENE_1
 62
    39
  6
CONTINUOUS
 10
1.161331
 20
-0.702636
  0
VERTEX
  8
EBENE_1
 62
    39
  6
CONTINUOUS
 10
1.145906
 20
-0.699693
  0
VERTEX
  8
EBENE_1
 62
    39
  6
CONTINUOUS
 10
1.132065
 20
-0.693967
  0
VERTEX
  8
EBENE_1
 62
    39
  6
CONTINUOUS
 10
1.119792
 20
-0.685562
  0
VERTEX
  8
EBENE_1
 62
    39
  6
CONTINUOUS
 10
1.109069
 20
-0.674584
  0
VERTEX
  8
EBENE_1
 62
    39
  6
CONTINUOUS
 10
1.099878
 20
-0.661136
  0
VERTEX
  8
EBENE_1
 62
    39
  6
CONTINUOUS
 10
1.092202
 20
-0.645322
  0
VERTEX
  8
EBENE_1
 62
    39
  6
CONTINUOUS
 10
1.086024
 20
-0.627247
  0
VERTEX
  8
EBENE_1
 62
    39
  6
CONTINUOUS
 10
1.081327
 20
-0.607014
  0
VERTEX
  8
EBENE_1
 62
    39
  6
CONTINUOUS
 10
1.078092
 20
-0.584727
  0
VERTEX
  8
EBENE_1
 62
    39
  6
CONTINUOUS
 10
1.076303
 20
-0.560492
  0
VERTEX
  8
EBENE_1
 62
    39
  6
CONTINUOUS
 10
1.076303
 20
-0.076988
  0
VERTEX
  8
EBENE_1
 62
    39
  6
CONTINUOUS
 10
1.083533
 20
-0.057502
  0
VERTEX
  8
EBENE_1
 62
    39
  6
CONTINUOUS
 10
1.091753
 20
-0.039133
  0
VERTEX
  8
EBENE_1
 62
    39
  6
CONTINUOUS
 10
1.100916
 20
-0.021827
  0
VERTEX
  8
EBENE_1
 62
    39
  6
CONTINUOUS
 10
1.110976
 20
-0.005533
  0
VERTEX
  8
EBENE_1
 62
    39
  6
CONTINUOUS
 10
1.121887
 20
0.009802
  0
VERTEX
  8
EBENE_1
 62
    39
  6
CONTINUOUS
 10
1.133602
 20
0.024230
  0
VERTEX
  8
EBENE_1
 62
    39
  6
CONTINUOUS
 10
1.146076
 20
0.037802
  0
VERTEX
  8
EBENE_1
 62
    39
  6
CONTINUOUS
 10
1.159261
 20
0.050573
  0
VERTEX
  8
EBENE_1
 62
    39
  6
CONTINUOUS
 10
1.173112
 20
0.062593
  0
VERTEX
  8
EBENE_1
 62
    39
  6
CONTINUOUS
 10
1.187582
 20
0.073916
  0
VERTEX
  8
EBENE_1
 62
    39
  6
CONTINUOUS
 10
1.202625
 20
0.084593
  0
VERTEX
  8
EBENE_1
 62
    39
  6
CONTINUOUS
 10
1.218196
 20
0.094677
  0
VERTEX
  8
EBENE_1
 62
    39
  6
CONTINUOUS
 10
1.234246
 20
0.104220
  0
VERTEX
  8
EBENE_1
 62
    39
  6
CONTINUOUS
 10
1.250731
 20
0.113275
  0
VERTEX
  8
EBENE_1
 62
    39
  6
CONTINUOUS
 10
1.267604
 20
0.121893
  0
VERTEX
  8
EBENE_1
 62
    39
  6
CONTINUOUS
 10
1.284819
 20
0.130127
  0
VERTEX
  8
EBENE_1
 62
    39
  6
CONTINUOUS
 10
1.302328
 20
0.138030
  0
VERTEX
  8
EBENE_1
 62
    39
  6
CONTINUOUS
 10
1.320087
 20
0.145654
  0
VERTEX
  8
EBENE_1
 62
    39
  6
CONTINUOUS
 10
1.338049
 20
0.153050
  0
VERTEX
  8
EBENE_1
 62
    39
  6
CONTINUOUS
 10
1.356168
 20
0.160272
  0
VERTEX
  8
EBENE_1
 62
    39
  6
CONTINUOUS
 10
1.374396
 20
0.167372
  0
VERTEX
  8
EBENE_1
 62
    39
  6
CONTINUOUS
 10
1.392689
 20
0.174402
  0
SEQEND
  8
0
  0
POLYLINE
  8
EBENE_1
 62
    39
  6
CONTINUOUS
 66
     1
 40
0.003000
 41
0.003000
  0
VERTEX
  8
EBENE_1
 62
    39
  6
CONTINUOUS
 10
1.519815
 20
-0.580488
  0
VERTEX
  8
EBENE_1
 62
    39
  6
CONTINUOUS
 10
1.515609
 20
-0.583160
  0
VERTEX
  8
EBENE_1
 62
    39
  6
CONTINUOUS
 10
1.513308
 20
-0.587577
  0
VERTEX
  8
EBENE_1
 62
    39
  6
CONTINUOUS
 10
1.513386
 20
-0.592630
  0
SEQEND
  8
0
  0
POLYLINE
  8
EBENE_1
 62
    39
  6
CONTINUOUS
 66
     1
 40
0.003000
 41
0.003000
  0
VERTEX
  8
EBENE_1
 62
    39
  6
CONTINUOUS
 10
1.513386
 20
-0.592630
  0
VERTEX
  8
EBENE_1
 62
    39
  6
CONTINUOUS
 10
1.515873
 20
-0.596837
  0
VERTEX
  8
EBENE_1
 62
    39
  6
CONTINUOUS
 10
1.519947
 20
-0.599139
  0
VERTEX
  8
EBENE_1
 62
    39
  6
CONTINUOUS
 10
1.524815
 20
-0.599059
  0
SEQEND
  8
0
  0
POLYLINE
  8
EBENE_1
 62
    39
  6
CONTINUOUS
 66
     1
 40
0.003000
 41
0.003000
  0
VERTEX
  8
EBENE_1
 62
    39
  6
CONTINUOUS
 10
1.524815
 20
-0.599059
  0
VERTEX
  8
EBENE_1
 62
    39
  6
CONTINUOUS
 10
1.529021
 20
-0.596572
  0
VERTEX
  8
EBENE_1
 62
    39
  6
CONTINUOUS
 10
1.531322
 20
-0.592498
  0
VERTEX
  8
EBENE_1
 62
    39
  6
CONTINUOUS
 10
1.531244
 20
-0.587630
  0
SEQEND
  8
0
  0
POLYLINE
  8
EBENE_1
 62
    39
  6
CONTINUOUS
 66
     1
 40
0.003000
 41
0.003000
  0
VERTEX
  8
EBENE_1
 62
    39
  6
CONTINUOUS
 10
1.531244
 20
-0.587630
  0
VERTEX
  8
EBENE_1
 62
    39
  6
CONTINUOUS
 10
1.528757
 20
-0.583241
  0
VERTEX
  8
EBENE_1
 62
    39
  6
CONTINUOUS
 10
1.524683
 20
-0.580596
  0
VERTEX
  8
EBENE_1
 62
    39
  6
CONTINUOUS
 10
1.519815
 20
-0.580488
  0
SEQEND
  8
0
  0
POLYLINE
  8
EBENE_1
 62
    39
  6
CONTINUOUS
 66
     1
 40
0.003000
 41
0.003000
  0
VERTEX
  8
EBENE_1
 62
    39
  6
CONTINUOUS
 10
1.417685
 20
-0.652622
  0
VERTEX
  8
EBENE_1
 62
    39
  6
CONTINUOUS
 10
1.413294
 20
-0.655294
  0
VERTEX
  8
EBENE_1
 62
    39
  6
CONTINUOUS
 10
1.410649
 20
-0.659711
  0
VERTEX
  8
EBENE_1
 62
    39
  6
CONTINUOUS
 10
1.410543
 20
-0.664764
  0
SEQEND
  8
0
  0
POLYLINE
  8
EBENE_1
 62
    39
  6
CONTINUOUS
 66
     1
 40
0.003000
 41
0.003000
  0
VERTEX
  8
EBENE_1
 62
    39
  6
CONTINUOUS
 10
1.410543
 20
-0.664764
  0
VERTEX
  8
EBENE_1
 62
    39
  6
CONTINUOUS
 10
1.413030
 20
-0.668970
  0
VERTEX
  8
EBENE_1
 62
    39
  6
CONTINUOUS
 10
1.417105
 20
-0.671272
  0
VERTEX
  8
EBENE_1
 62
    39
  6
CONTINUOUS
 10
1.421972
 20
-0.671193
  0
SEQEND
  8
0
  0
POLYLINE
  8
EBENE_1
 62
    39
  6
CONTINUOUS
 66
     1
 40
0.003000
 41
0.003000
  0
VERTEX
  8
EBENE_1
 62
    39
  6
CONTINUOUS
 10
1.421972
 20
-0.671193
  0
VERTEX
  8
EBENE_1
 62
    39
  6
CONTINUOUS
 10
1.426203
 20
-0.668706
  0
VERTEX
  8
EBENE_1
 62
    39
  6
CONTINUOUS
 10
1.428690
 20
-0.664632
  0
VERTEX
  8
EBENE_1
 62
    39
  6
CONTINUOUS
 10
1.429114
 20
-0.659764
  0
SEQEND
  8
0
  0
POLYLINE
  8
EBENE_1
 62
    39
  6
CONTINUOUS
 66
     1
 40
0.003000
 41
0.003000
  0
VERTEX
  8
EBENE_1
 62
    39
  6
CONTINUOUS
 10
1.429114
 20
-0.659764
  0
VERTEX
  8
EBENE_1
 62
    39
  6
CONTINUOUS
 10
1.426627
 20
-0.655372
  0
VERTEX
  8
EBENE_1
 62
    39
  6
CONTINUOUS
 10
1.422553
 20
-0.652727
  0
VERTEX
  8
EBENE_1
 62
    39
  6
CONTINUOUS
 10
1.417685
 20
-0.652622
  0
SEQEND
  8
0
  0
POLYLINE
  8
EBENE_1
 62
    39
  6
CONTINUOUS
 66
     1
 40
0.003000
 41
0.003000
  0
VERTEX
  8
EBENE_1
 62
    39
  6
CONTINUOUS
 10
1.366264
 20
-0.611913
  0
VERTEX
  8
EBENE_1
 62
    39
  6
CONTINUOUS
 10
1.362058
 20
-0.614084
  0
VERTEX
  8
EBENE_1
 62
    39
  6
CONTINUOUS
 10
1.359758
 20
-0.618316
  0
VERTEX
  8
EBENE_1
 62
    39
  6
CONTINUOUS
 10
1.359839
 20
-0.623343
  0
SEQEND
  8
0
  0
POLYLINE
  8
EBENE_1
 62
    39
  6
CONTINUOUS
 66
     1
 40
0.003000
 41
0.003000
  0
VERTEX
  8
EBENE_1
 62
    39
  6
CONTINUOUS
 10
1.359839
 20
-0.623343
  0
VERTEX
  8
EBENE_1
 62
    39
  6
CONTINUOUS
 10
1.362323
 20
-0.627546
  0
VERTEX
  8
EBENE_1
 62
    39
  6
CONTINUOUS
 10
1.366396
 20
-0.629847
  0
VERTEX
  8
EBENE_1
 62
    39
  6
CONTINUOUS
 10
1.371264
 20
-0.629768
  0
SEQEND
  8
0
  0
POLYLINE
  8
EBENE_1
 62
    39
  6
CONTINUOUS
 66
     1
 40
0.003000
 41
0.003000
  0
VERTEX
  8
EBENE_1
 62
    39
  6
CONTINUOUS
 10
1.371264
 20
-0.629768
  0
VERTEX
  8
EBENE_1
 62
    39
  6
CONTINUOUS
 10
1.375470
 20
-0.627600
  0
VERTEX
  8
EBENE_1
 62
    39
  6
CONTINUOUS
 10
1.377772
 20
-0.623368
  0
VERTEX
  8
EBENE_1
 62
    39
  6
CONTINUOUS
 10
1.377693
 20
-0.618343
  0
SEQEND
  8
0
  0
POLYLINE
  8
EBENE_1
 62
    39
  6
CONTINUOUS
 66
     1
 40
0.003000
 41
0.003000
  0
VERTEX
  8
EBENE_1
 62
    39
  6
CONTINUOUS
 10
1.377693
 20
-0.618343
  0
VERTEX
  8
EBENE_1
 62
    39
  6
CONTINUOUS
 10
1.375522
 20
-0.614136
  0
VERTEX
  8
EBENE_1
 62
    39
  6
CONTINUOUS
 10
1.371290
 20
-0.611834
  0
VERTEX
  8
EBENE_1
 62
    39
  6
CONTINUOUS
 10
1.366264
 20
-0.611913
  0
SEQEND
  8
0
  0
POLYLINE
  8
EBENE_1
 62
    39
  6
CONTINUOUS
 66
     1
 40
0.003000
 41
0.003000
 70
     1
  0
VERTEX
  8
EBENE_1
 62
    39
  6
CONTINUOUS
 10
1.514815
 20
-0.703331
  0
VERTEX
  8
EBENE_1
 62
    39
  6
CONTINUOUS
 10
1.356980
 20
-0.705472
  0
VERTEX
  8
EBENE_1
 62
    39
  6
CONTINUOUS
 10
1.338170
 20
-0.708541
  0
VERTEX
  8
EBENE_1
 62
    39
  6
CONTINUOUS
 10
1.321007
 20
-0.708540
  0
VERTEX
  8
EBENE_1
 62
    39
  6
CONTINUOUS
 10
1.305470
 20
-0.705583
  0
VERTEX
  8
EBENE_1
 62
    39
  6
CONTINUOUS
 10
1.291540
 20
-0.699785
  0
VERTEX
  8
EBENE_1
 62
    39
  6
CONTINUOUS
 10
1.279197
 20
-0.691258
  0
VERTEX
  8
EBENE_1
 62
    39
  6
CONTINUOUS
 10
1.268422
 20
-0.680118
  0
VERTEX
  8
EBENE_1
 62
    39
  6
CONTINUOUS
 10
1.259193
 20
-0.666478
  0
VERTEX
  8
EBENE_1
 62
    39
  6
CONTINUOUS
 10
1.251492
 20
-0.650453
  0
VERTEX
  8
EBENE_1
 62
    39
  6
CONTINUOUS
 10
1.245299
 20
-0.632156
  0
VERTEX
  8
EBENE_1
 62
    39
  6
CONTINUOUS
 10
1.240594
 20
-0.611701
  0
VERTEX
  8
EBENE_1
 62
    39
  6
CONTINUOUS
 10
1.237356
 20
-0.589203
  0
VERTEX
  8
EBENE_1
 62
    39
  6
CONTINUOUS
 10
1.235567
 20
-0.564776
  0
VERTEX
  8
EBENE_1
 62
    39
  6
CONTINUOUS
 10
1.235567
 20
-0.074130
  0
VERTEX
  8
EBENE_1
 62
    39
  6
CONTINUOUS
 10
1.242789
 20
-0.054449
  0
VERTEX
  8
EBENE_1
 62
    39
  6
CONTINUOUS
 10
1.250984
 20
-0.035886
  0
VERTEX
  8
EBENE_1
 62
    39
  6
CONTINUOUS
 10
1.260109
 20
-0.018388
  0
VERTEX
  8
EBENE_1
 62
    39
  6
CONTINUOUS
 10
1.270120
 20
-0.001904
  0
VERTEX
  8
EBENE_1
 62
    39
  6
CONTINUOUS
 10
1.280971
 20
0.013617
  0
VERTEX
  8
EBENE_1
 62
    39
  6
CONTINUOUS
 10
1.292620
 20
0.028227
  0
VERTEX
  8
EBENE_1
 62
    39
  6
CONTINUOUS
 10
1.305020
 20
0.041978
  0
VERTEX
  8
EBENE_1
 62
    39
  6
CONTINUOUS
 10
1.318130
 20
0.054920
  0
VERTEX
  8
EBENE_1
 62
    39
  6
CONTINUOUS
 10
1.331903
 20
0.067106
  0
VERTEX
  8
EBENE_1
 62
    39
  6
CONTINUOUS
 10
1.346296
 20
0.078587
  0
VERTEX
  8
EBENE_1
 62
    39
  6
CONTINUOUS
 10
1.361264
 20
0.089414
  0
VERTEX
  8
EBENE_1
 62
    39
  6
CONTINUOUS
 10
1.376764
 20
0.099640
  0
VERTEX
  8
EBENE_1
 62
    39
  6
CONTINUOUS
 10
1.392751
 20
0.109314
  0
VERTEX
  8
EBENE_1
 62
    39
  6
CONTINUOUS
 10
1.409180
 20
0.118490
  0
VERTEX
  8
EBENE_1
 62
    39
  6
CONTINUOUS
 10
1.426008
 20
0.127219
  0
VERTEX
  8
EBENE_1
 62
    39
  6
CONTINUOUS
 10
1.443190
 20
0.135551
  0
VERTEX
  8
EBENE_1
 62
    39
  6
CONTINUOUS
 10
1.460682
 20
0.143539
  0
VERTEX
  8
EBENE_1
 62
    39
  6
CONTINUOUS
 10
1.478439
 20
0.151234
  0
VERTEX
  8
EBENE_1
 62
    39
  6
CONTINUOUS
 10
1.496418
 20
0.158687
  0
VERTEX
  8
EBENE_1
 62
    39
  6
CONTINUOUS
 10
1.514574
 20
0.165951
  0
VERTEX
  8
EBENE_1
 62
    39
  6
CONTINUOUS
 10
1.532863
 20
0.173076
  0
VERTEX
  8
EBENE_1
 62
    39
  6
CONTINUOUS
 10
1.551240
 20
0.180114
  0
VERTEX
  8
EBENE_1
 62
    39
  6
CONTINUOUS
 10
1.556240
 20
-0.621913
  0
VERTEX
  8
EBENE_1
 62
    39
  6
CONTINUOUS
 10
1.555977
 20
-0.646905
  0
VERTEX
  8
EBENE_1
 62
    39
  6
CONTINUOUS
 10
1.554822
 20
-0.668776
  0
VERTEX
  8
EBENE_1
 62
    39
  6
CONTINUOUS
 10
1.549656
 20
-0.686294
  0
VERTEX
  8
EBENE_1
 62
    39
  6
CONTINUOUS
 10
1.537361
 20
-0.698223
  0
SEQEND
  8
0
  0
POLYLINE
  8
EBENE_1
 62
    39
  6
CONTINUOUS
 66
     1
 40
0.003000
 41
0.003000
 70
     1
  0
VERTEX
  8
EBENE_1
 62
    39
  6
CONTINUOUS
 10
1.506244
 20
-0.697614
  0
VERTEX
  8
EBENE_1
 62
    39
  6
CONTINUOUS
 10
1.357693
 20
-0.699760
  0
VERTEX
  8
EBENE_1
 62
    39
  6
CONTINUOUS
 10
1.339554
 20
-0.702693
  0
VERTEX
  8
EBENE_1
 62
    39
  6
CONTINUOUS
 10
1.322977
 20
-0.702636
  0
VERTEX
  8
EBENE_1
 62
    39
  6
CONTINUOUS
 10
1.307947
 20
-0.699693
  0
VERTEX
  8
EBENE_1
 62
    39
  6
CONTINUOUS
 10
1.294449
 20
-0.693967
  0
VERTEX
  8
EBENE_1
 62
    39
  6
CONTINUOUS
 10
1.282469
 20
-0.685562
  0
VERTEX
  8
EBENE_1
 62
    39
  6
CONTINUOUS
 10
1.271992
 20
-0.674584
  0
VERTEX
  8
EBENE_1
 62
    39
  6
CONTINUOUS
 10
1.263003
 20
-0.661136
  0
VERTEX
  8
EBENE_1
 62
    39
  6
CONTINUOUS
 10
1.255486
 20
-0.645322
  0
VERTEX
  8
EBENE_1
 62
    39
  6
CONTINUOUS
 10
1.249428
 20
-0.627247
  0
VERTEX
  8
EBENE_1
 62
    39
  6
CONTINUOUS
 10
1.244813
 20
-0.607014
  0
VERTEX
  8
EBENE_1
 62
    39
  6
CONTINUOUS
 10
1.241627
 20
-0.584727
  0
VERTEX
  8
EBENE_1
 62
    39
  6
CONTINUOUS
 10
1.239854
 20
-0.560492
  0
VERTEX
  8
EBENE_1
 62
    39
  6
CONTINUOUS
 10
1.239854
 20
-0.076988
  0
VERTEX
  8
EBENE_1
 62
    39
  6
CONTINUOUS
 10
1.246881
 20
-0.057502
  0
VERTEX
  8
EBENE_1
 62
    39
  6
CONTINUOUS
 10
1.254880
 20
-0.039133
  0
VERTEX
  8
EBENE_1
 62
    39
  6
CONTINUOUS
 10
1.263806
 20
-0.021827
  0
VERTEX
  8
EBENE_1
 62
    39
  6
CONTINUOUS
 10
1.273615
 20
-0.005533
  0
VERTEX
  8
EBENE_1
 62
    39
  6
CONTINUOUS
 10
1.284259
 20
0.009802
  0
VERTEX
  8
EBENE_1
 62
    39
  6
CONTINUOUS
 10
1.295694
 20
0.024230
  0
VERTEX
  8
EBENE_1
 62
    39
  6
CONTINUOUS
 10
1.307875
 20
0.037802
  0
VERTEX
  8
EBENE_1
 62
    39
  6
CONTINUOUS
 10
1.320755
 20
0.050573
  0
VERTEX
  8
EBENE_1
 62
    39
  6
CONTINUOUS
 10
1.334290
 20
0.062593
  0
VERTEX
  8
EBENE_1
 62
    39
  6
CONTINUOUS
 10
1.348433
 20
0.073916
  0
VERTEX
  8
EBENE_1
 62
    39
  6
CONTINUOUS
 10
1.363140
 20
0.084593
  0
VERTEX
  8
EBENE_1
 62
    39
  6
CONTINUOUS
 10
1.378365
 20
0.094677
  0
VERTEX
  8
EBENE_1
 62
    39
  6
CONTINUOUS
 10
1.394063
 20
0.104220
  0
VERTEX
  8
EBENE_1
 62
    39
  6
CONTINUOUS
 10
1.410187
 20
0.113275
  0
VERTEX
  8
EBENE_1
 62
    39
  6
CONTINUOUS
 10
1.426693
 20
0.121893
  0
VERTEX
  8
EBENE_1
 62
    39
  6
CONTINUOUS
 10
1.443535
 20
0.130127
  0
VERTEX
  8
EBENE_1
 62
    39
  6
CONTINUOUS
 10
1.460668
 20
0.138030
  0
VERTEX
  8
EBENE_1
 62
    39
  6
CONTINUOUS
 10
1.478046
 20
0.145654
  0
VERTEX
  8
EBENE_1
 62
    39
  6
CONTINUOUS
 10
1.495623
 20
0.153050
  0
VERTEX
  8
EBENE_1
 62
    39
  6
CONTINUOUS
 10
1.513355
 20
0.160272
  0
VERTEX
  8
EBENE_1
 62
    39
  6
CONTINUOUS
 10
1.531195
 20
0.167372
  0
VERTEX
  8
EBENE_1
 62
    39
  6
CONTINUOUS
 10
1.549098
 20
0.174402
  0
VERTEX
  8
EBENE_1
 62
    39
  6
CONTINUOUS
 10
1.554811
 20
-0.630484
  0
VERTEX
  8
EBENE_1
 62
    39
  6
CONTINUOUS
 10
1.549232
 20
-0.662065
  0
VERTEX
  8
EBENE_1
 62
    39
  6
CONTINUOUS
 10
1.540170
 20
-0.680656
  0
VERTEX
  8
EBENE_1
 62
    39
  6
CONTINUOUS
 10
1.526287
 20
-0.690943
  0
SEQEND
  8
0
  0
POLYLINE
  8
EBENE_1
 62
    39
  6
CONTINUOUS
 66
     1
 40
0.003000
 41
0.003000
  0
VERTEX
  8
EBENE_1
 62
    39
  6
CONTINUOUS
 10
1.108441
 20
-0.156264
  0
VERTEX
  8
EBENE_1
 62
    39
  6
CONTINUOUS
 10
1.104052
 20
-0.158936
  0
VERTEX
  8
EBENE_1
 62
    39
  6
CONTINUOUS
 10
1.101407
 20
-0.163353
  0
VERTEX
  8
EBENE_1
 62
    39
  6
CONTINUOUS
 10
1.101299
 20
-0.168406
  0
SEQEND
  8
0
  0
POLYLINE
  8
EBENE_1
 62
    39
  6
CONTINUOUS
 66
     1
 40
0.003000
 41
0.003000
  0
VERTEX
  8
EBENE_1
 62
    39
  6
CONTINUOUS
 10
1.101299
 20
-0.168406
  0
VERTEX
  8
EBENE_1
 62
    39
  6
CONTINUOUS
 10
1.103971
 20
-0.172611
  0
VERTEX
  8
EBENE_1
 62
    39
  6
CONTINUOUS
 10
1.108388
 20
-0.174911
  0
VERTEX
  8
EBENE_1
 62
    39
  6
CONTINUOUS
 10
1.113441
 20
-0.174831
  0
SEQEND
  8
0
  0
POLYLINE
  8
EBENE_1
 62
    39
  6
CONTINUOUS
 66
     1
 40
0.003000
 41
0.003000
  0
VERTEX
  8
EBENE_1
 62
    39
  6
CONTINUOUS
 10
1.113441
 20
-0.174831
  0
VERTEX
  8
EBENE_1
 62
    39
  6
CONTINUOUS
 10
1.117648
 20
-0.172663
  0
VERTEX
  8
EBENE_1
 62
    39
  6
CONTINUOUS
 10
1.119950
 20
-0.168431
  0
VERTEX
  8
EBENE_1
 62
    39
  6
CONTINUOUS
 10
1.119870
 20
-0.163406
  0
SEQEND
  8
0
  0
POLYLINE
  8
EBENE_1
 62
    39
  6
CONTINUOUS
 66
     1
 40
0.003000
 41
0.003000
  0
VERTEX
  8
EBENE_1
 62
    39
  6
CONTINUOUS
 10
1.119870
 20
-0.163406
  0
VERTEX
  8
EBENE_1
 62
    39
  6
CONTINUOUS
 10
1.117383
 20
-0.159172
  0
VERTEX
  8
EBENE_1
 62
    39
  6
CONTINUOUS
 10
1.113309
 20
-0.156686
  0
VERTEX
  8
EBENE_1
 62
    39
  6
CONTINUOUS
 10
1.108441
 20
-0.156264
  0
SEQEND
  8
0
  0
POLYLINE
  8
EBENE_1
 62
    39
  6
CONTINUOUS
 66
     1
 40
0.003000
 41
0.003000
  0
VERTEX
  8
EBENE_1
 62
    39
  6
CONTINUOUS
 10
1.003457
 20
-0.228394
  0
VERTEX
  8
EBENE_1
 62
    39
  6
CONTINUOUS
 10
0.999225
 20
-0.231066
  0
VERTEX
  8
EBENE_1
 62
    39
  6
CONTINUOUS
 10
0.996739
 20
-0.235483
  0
VERTEX
  8
EBENE_1
 62
    39
  6
CONTINUOUS
 10
0.996315
 20
-0.240535
  0
SEQEND
  8
0
  0
POLYLINE
  8
EBENE_1
 62
    39
  6
CONTINUOUS
 66
     1
 40
0.003000
 41
0.003000
  0
VERTEX
  8
EBENE_1
 62
    39
  6
CONTINUOUS
 10
0.996315
 20
-0.240535
  0
VERTEX
  8
EBENE_1
 62
    39
  6
CONTINUOUS
 10
0.998987
 20
-0.244742
  0
VERTEX
  8
EBENE_1
 62
    39
  6
CONTINUOUS
 10
1.003404
 20
-0.247044
  0
VERTEX
  8
EBENE_1
 62
    39
  6
CONTINUOUS
 10
1.008457
 20
-0.246965
  0
SEQEND
  8
0
  0
POLYLINE
  8
EBENE_1
 62
    39
  6
CONTINUOUS
 66
     1
 40
0.003000
 41
0.003000
  0
VERTEX
  8
EBENE_1
 62
    39
  6
CONTINUOUS
 10
1.008457
 20
-0.246965
  0
VERTEX
  8
EBENE_1
 62
    39
  6
CONTINUOUS
 10
1.012663
 20
-0.244794
  0
VERTEX
  8
EBENE_1
 62
    39
  6
CONTINUOUS
 10
1.014965
 20
-0.240562
  0
VERTEX
  8
EBENE_1
 62
    39
  6
CONTINUOUS
 10
1.014886
 20
-0.235535
  0
SEQEND
  8
0
  0
POLYLINE
  8
EBENE_1
 62
    39
  6
CONTINUOUS
 66
     1
 40
0.003000
 41
0.003000
  0
VERTEX
  8
EBENE_1
 62
    39
  6
CONTINUOUS
 10
1.014886
 20
-0.235535
  0
VERTEX
  8
EBENE_1
 62
    39
  6
CONTINUOUS
 10
1.012399
 20
-0.231305
  0
VERTEX
  8
EBENE_1
 62
    39
  6
CONTINUOUS
 10
1.008324
 20
-0.228818
  0
VERTEX
  8
EBENE_1
 62
    39
  6
CONTINUOUS
 10
1.003457
 20
-0.228394
  0
SEQEND
  8
0
  0
POLYLINE
  8
EBENE_1
 62
    39
  6
CONTINUOUS
 66
     1
 40
0.003000
 41
0.003000
  0
VERTEX
  8
EBENE_1
 62
    39
  6
CONTINUOUS
 10
0.951323
 20
-0.187685
  0
VERTEX
  8
EBENE_1
 62
    39
  6
CONTINUOUS
 10
0.947116
 20
-0.190172
  0
VERTEX
  8
EBENE_1
 62
    39
  6
CONTINUOUS
 10
0.944814
 20
-0.194246
  0
VERTEX
  8
EBENE_1
 62
    39
  6
CONTINUOUS
 10
0.944894
 20
-0.199114
  0
SEQEND
  8
0
  0
POLYLINE
  8
EBENE_1
 62
    39
  6
CONTINUOUS
 66
     1
 40
0.003000
 41
0.003000
  0
VERTEX
  8
EBENE_1
 62
    39
  6
CONTINUOUS
 10
0.944894
 20
-0.199114
  0
VERTEX
  8
EBENE_1
 62
    39
  6
CONTINUOUS
 10
0.947381
 20
-0.203506
  0
VERTEX
  8
EBENE_1
 62
    39
  6
CONTINUOUS
 10
0.951455
 20
-0.206151
  0
VERTEX
  8
EBENE_1
 62
    39
  6
CONTINUOUS
 10
0.956323
 20
-0.206256
  0
SEQEND
  8
0
  0
POLYLINE
  8
EBENE_1
 62
    39
  6
CONTINUOUS
 66
     1
 40
0.003000
 41
0.003000
  0
VERTEX
  8
EBENE_1
 62
    39
  6
CONTINUOUS
 10
0.956323
 20
-0.206256
  0
VERTEX
  8
EBENE_1
 62
    39
  6
CONTINUOUS
 10
0.960712
 20
-0.203584
  0
VERTEX
  8
EBENE_1
 62
    39
  6
CONTINUOUS
 10
0.963357
 20
-0.199167
  0
VERTEX
  8
EBENE_1
 62
    39
  6
CONTINUOUS
 10
0.963465
 20
-0.194114
  0
SEQEND
  8
0
  0
POLYLINE
  8
EBENE_1
 62
    39
  6
CONTINUOUS
 66
     1
 40
0.003000
 41
0.003000
  0
VERTEX
  8
EBENE_1
 62
    39
  6
CONTINUOUS
 10
0.963465
 20
-0.194114
  0
VERTEX
  8
EBENE_1
 62
    39
  6
CONTINUOUS
 10
0.960793
 20
-0.189908
  0
VERTEX
  8
EBENE_1
 62
    39
  6
CONTINUOUS
 10
0.956375
 20
-0.187607
  0
VERTEX
  8
EBENE_1
 62
    39
  6
CONTINUOUS
 10
0.951323
 20
-0.187685
  0
SEQEND
  8
0
  0
POLYLINE
  8
EBENE_1
 62
    39
  6
CONTINUOUS
 66
     1
 40
0.003000
 41
0.003000
 70
     1
  0
VERTEX
  8
EBENE_1
 62
    39
  6
CONTINUOUS
 10
1.223429
 20
-0.241965
  0
VERTEX
  8
EBENE_1
 62
    39
  6
CONTINUOUS
 10
1.029882
 20
-0.293386
  0
VERTEX
  8
EBENE_1
 62
    39
  6
CONTINUOUS
 10
1.010716
 20
-0.296455
  0
VERTEX
  8
EBENE_1
 62
    39
  6
CONTINUOUS
 10
0.993201
 20
-0.296455
  0
VERTEX
  8
EBENE_1
 62
    39
  6
CONTINUOUS
 10
0.977322
 20
-0.293498
  0
VERTEX
  8
EBENE_1
 62
    39
  6
CONTINUOUS
 10
0.963066
 20
-0.287700
  0
VERTEX
  8
EBENE_1
 62
    39
  6
CONTINUOUS
 10
0.950416
 20
-0.279174
  0
VERTEX
  8
EBENE_1
 62
    39
  6
CONTINUOUS
 10
0.939359
 20
-0.268033
  0
VERTEX
  8
EBENE_1
 62
    39
  6
CONTINUOUS
 10
0.929878
 20
-0.254394
  0
VERTEX
  8
EBENE_1
 62
    39
  6
CONTINUOUS
 10
0.921960
 20
-0.238368
  0
VERTEX
  8
EBENE_1
 62
    39
  6
CONTINUOUS
 10
0.915590
 20
-0.220071
  0
VERTEX
  8
EBENE_1
 62
    39
  6
CONTINUOUS
 10
0.910752
 20
-0.199617
  0
VERTEX
  8
EBENE_1
 62
    39
  6
CONTINUOUS
 10
0.907432
 20
-0.177120
  0
VERTEX
  8
EBENE_1
 62
    39
  6
CONTINUOUS
 10
0.905614
 20
-0.152693
  0
VERTEX
  8
EBENE_1
 62
    39
  6
CONTINUOUS
 10
0.905614
 20
0.337953
  0
VERTEX
  8
EBENE_1
 62
    39
  6
CONTINUOUS
 10
0.913048
 20
0.357634
  0
VERTEX
  8
EBENE_1
 62
    39
  6
CONTINUOUS
 10
0.921489
 20
0.376198
  0
VERTEX
  8
EBENE_1
 62
    39
  6
CONTINUOUS
 10
0.930891
 20
0.393696
  0
VERTEX
  8
EBENE_1
 62
    39
  6
CONTINUOUS
 10
0.941208
 20
0.410181
  0
VERTEX
  8
EBENE_1
 62
    39
  6
CONTINUOUS
 10
0.952393
 20
0.425702
  0
VERTEX
  8
EBENE_1
 62
    39
  6
CONTINUOUS
 10
0.964401
 20
0.440312
  0
VERTEX
  8
EBENE_1
 62
    39
  6
CONTINUOUS
 10
0.977184
 20
0.454063
  0
VERTEX
  8
EBENE_1
 62
    39
  6
CONTINUOUS
 10
0.990697
 20
0.467006
  0
VERTEX
  8
EBENE_1
 62
    39
  6
CONTINUOUS
 10
1.004893
 20
0.479192
  0
VERTEX
  8
EBENE_1
 62
    39
  6
CONTINUOUS
 10
1.019726
 20
0.490673
  0
VERTEX
  8
EBENE_1
 62
    39
  6
CONTINUOUS
 10
1.035150
 20
0.501500
  0
VERTEX
  8
EBENE_1
 62
    39
  6
CONTINUOUS
 10
1.051118
 20
0.511726
  0
VERTEX
  8
EBENE_1
 62
    39
  6
CONTINUOUS
 10
1.067585
 20
0.521401
  0
VERTEX
  8
EBENE_1
 62
    39
  6
CONTINUOUS
 10
1.084503
 20
0.530577
  0
VERTEX
  8
EBENE_1
 62
    39
  6
CONTINUOUS
 10
1.101827
 20
0.539305
  0
VERTEX
  8
EBENE_1
 62
    39
  6
CONTINUOUS
 10
1.119511
 20
0.547637
  0
VERTEX
  8
EBENE_1
 62
    39
  6
CONTINUOUS
 10
1.137507
 20
0.555625
  0
VERTEX
  8
EBENE_1
 62
    39
  6
CONTINUOUS
 10
1.155771
 20
0.563320
  0
VERTEX
  8
EBENE_1
 62
    39
  6
CONTINUOUS
 10
1.174255
 20
0.570774
  0
VERTEX
  8
EBENE_1
 62
    39
  6
CONTINUOUS
 10
1.192913
 20
0.578037
  0
VERTEX
  8
EBENE_1
 62
    39
  6
CONTINUOUS
 10
1.211699
 20
0.585163
  0
VERTEX
  8
EBENE_1
 62
    39
  6
CONTINUOUS
 10
1.230567
 20
0.592201
  0
SEQEND
  8
0
  0
POLYLINE
  8
EBENE_1
 62
    39
  6
CONTINUOUS
 66
     1
 40
0.003000
 41
0.003000
 70
     1
  0
VERTEX
  8
EBENE_1
 62
    39
  6
CONTINUOUS
 10
1.218429
 20
-0.236252
  0
VERTEX
  8
EBENE_1
 62
    39
  6
CONTINUOUS
 10
1.030598
 20
-0.287673
  0
VERTEX
  8
EBENE_1
 62
    39
  6
CONTINUOUS
 10
1.012116
 20
-0.290607
  0
VERTEX
  8
EBENE_1
 62
    39
  6
CONTINUOUS
 10
0.995226
 20
-0.290550
  0
VERTEX
  8
EBENE_1
 62
    39
  6
CONTINUOUS
 10
0.979912
 20
-0.287606
  0
VERTEX
  8
EBENE_1
 62
    39
  6
CONTINUOUS
 10
0.966162
 20
-0.281880
  0
VERTEX
  8
EBENE_1
 62
    39
  6
CONTINUOUS
 10
0.953958
 20
-0.273476
  0
VERTEX
  8
EBENE_1
 62
    39
  6
CONTINUOUS
 10
0.943287
 20
-0.262498
  0
VERTEX
  8
EBENE_1
 62
    39
  6
CONTINUOUS
 10
0.934134
 20
-0.249049
  0
VERTEX
  8
EBENE_1
 62
    39
  6
CONTINUOUS
 10
0.926484
 20
-0.233235
  0
VERTEX
  8
EBENE_1
 62
    39
  6
CONTINUOUS
 10
0.920322
 20
-0.215160
  0
VERTEX
  8
EBENE_1
 62
    39
  6
CONTINUOUS
 10
0.915633
 20
-0.194927
  0
VERTEX
  8
EBENE_1
 62
    39
  6
CONTINUOUS
 10
0.912402
 20
-0.172641
  0
VERTEX
  8
EBENE_1
 62
    39
  6
CONTINUOUS
 10
0.910614
 20
-0.148406
  0
VERTEX
  8
EBENE_1
 62
    39
  6
CONTINUOUS
 10
0.910614
 20
0.335094
  0
VERTEX
  8
EBENE_1
 62
    39
  6
CONTINUOUS
 10
0.917747
 20
0.354581
  0
VERTEX
  8
EBENE_1
 62
    39
  6
CONTINUOUS
 10
0.925869
 20
0.372951
  0
VERTEX
  8
EBENE_1
 62
    39
  6
CONTINUOUS
 10
0.934936
 20
0.390257
  0
VERTEX
  8
EBENE_1
 62
    39
  6
CONTINUOUS
 10
0.944901
 20
0.406552
  0
VERTEX
  8
EBENE_1
 62
    39
  6
CONTINUOUS
 10
0.955718
 20
0.421887
  0
VERTEX
  8
EBENE_1
 62
    39
  6
CONTINUOUS
 10
0.967342
 20
0.436315
  0
VERTEX
  8
EBENE_1
 62
    39
  6
CONTINUOUS
 10
0.979727
 20
0.449888
  0
VERTEX
  8
EBENE_1
 62
    39
  6
CONTINUOUS
 10
0.992826
 20
0.462659
  0
VERTEX
  8
EBENE_1
 62
    39
  6
CONTINUOUS
 10
1.006594
 20
0.474679
  0
VERTEX
  8
EBENE_1
 62
    39
  6
CONTINUOUS
 10
1.020985
 20
0.486002
  0
VERTEX
  8
EBENE_1
 62
    39
  6
CONTINUOUS
 10
1.035953
 20
0.496679
  0
VERTEX
  8
EBENE_1
 62
    39
  6
CONTINUOUS
 10
1.051453
 20
0.506763
  0
VERTEX
  8
EBENE_1
 62
    39
  6
CONTINUOUS
 10
1.067437
 20
0.516306
  0
VERTEX
  8
EBENE_1
 62
    39
  6
CONTINUOUS
 10
1.083862
 20
0.525361
  0
VERTEX
  8
EBENE_1
 62
    39
  6
CONTINUOUS
 10
1.100680
 20
0.533980
  0
VERTEX
  8
EBENE_1
 62
    39
  6
CONTINUOUS
 10
1.117845
 20
0.542214
  0
VERTEX
  8
EBENE_1
 62
    39
  6
CONTINUOUS
 10
1.135312
 20
0.550117
  0
VERTEX
  8
EBENE_1
 62
    39
  6
CONTINUOUS
 10
1.153036
 20
0.557740
  0
VERTEX
  8
EBENE_1
 62
    39
  6
CONTINUOUS
 10
1.170969
 20
0.565137
  0
VERTEX
  8
EBENE_1
 62
    39
  6
CONTINUOUS
 10
1.189067
 20
0.572359
  0
VERTEX
  8
EBENE_1
 62
    39
  6
CONTINUOUS
 10
1.207283
 20
0.579459
  0
VERTEX
  8
EBENE_1
 62
    39
  6
CONTINUOUS
 10
1.225571
 20
0.586488
  0
SEQEND
  8
0
  0
POLYLINE
  8
EBENE_1
 62
    39
  6
CONTINUOUS
 66
     1
 40
0.003000
 41
0.003000
  0
VERTEX
  8
EBENE_1
 62
    39
  6
CONTINUOUS
 10
1.271992
 20
-0.116984
  0
VERTEX
  8
EBENE_1
 62
    39
  6
CONTINUOUS
 10
1.267601
 20
-0.119469
  0
VERTEX
  8
EBENE_1
 62
    39
  6
CONTINUOUS
 10
1.264956
 20
-0.123542
  0
VERTEX
  8
EBENE_1
 62
    39
  6
CONTINUOUS
 10
1.264850
 20
-0.128409
  0
SEQEND
  8
0
  0
POLYLINE
  8
EBENE_1
 62
    39
  6
CONTINUOUS
 66
     1
 40
0.003000
 41
0.003000
  0
VERTEX
  8
EBENE_1
 62
    39
  6
CONTINUOUS
 10
1.264850
 20
-0.128409
  0
VERTEX
  8
EBENE_1
 62
    39
  6
CONTINUOUS
 10
1.267522
 20
-0.133118
  0
VERTEX
  8
EBENE_1
 62
    39
  6
CONTINUOUS
 10
1.271940
 20
-0.135604
  0
VERTEX
  8
EBENE_1
 62
    39
  6
CONTINUOUS
 10
1.276992
 20
-0.135551
  0
SEQEND
  8
0
  0
POLYLINE
  8
EBENE_1
 62
    39
  6
CONTINUOUS
 66
     1
 40
0.003000
 41
0.003000
  0
VERTEX
  8
EBENE_1
 62
    39
  6
CONTINUOUS
 10
1.276992
 20
-0.135551
  0
VERTEX
  8
EBENE_1
 62
    39
  6
CONTINUOUS
 10
1.281198
 20
-0.133038
  0
VERTEX
  8
EBENE_1
 62
    39
  6
CONTINUOUS
 10
1.283498
 20
-0.128779
  0
VERTEX
  8
EBENE_1
 62
    39
  6
CONTINUOUS
 10
1.283417
 20
-0.123409
  0
SEQEND
  8
0
  0
POLYLINE
  8
EBENE_1
 62
    39
  6
CONTINUOUS
 66
     1
 40
0.003000
 41
0.003000
  0
VERTEX
  8
EBENE_1
 62
    39
  6
CONTINUOUS
 10
1.283417
 20
-0.123409
  0
VERTEX
  8
EBENE_1
 62
    39
  6
CONTINUOUS
 10
1.280933
 20
-0.119204
  0
VERTEX
  8
EBENE_1
 62
    39
  6
CONTINUOUS
 10
1.276860
 20
-0.116904
  0
VERTEX
  8
EBENE_1
 62
    39
  6
CONTINUOUS
 10
1.271992
 20
-0.116984
  0
SEQEND
  8
0
  0
POLYLINE
  8
EBENE_1
 62
    39
  6
CONTINUOUS
 66
     1
 40
0.003000
 41
0.003000
  0
VERTEX
  8
EBENE_1
 62
    39
  6
CONTINUOUS
 10
1.167008
 20
-0.189114
  0
VERTEX
  8
EBENE_1
 62
    39
  6
CONTINUOUS
 10
1.162775
 20
-0.191601
  0
VERTEX
  8
EBENE_1
 62
    39
  6
CONTINUOUS
 10
1.160288
 20
-0.195676
  0
VERTEX
  8
EBENE_1
 62
    39
  6
CONTINUOUS
 10
1.159866
 20
-0.200543
  0
SEQEND
  8
0
  0
POLYLINE
  8
EBENE_1
 62
    39
  6
CONTINUOUS
 66
     1
 40
0.003000
 41
0.003000
  0
VERTEX
  8
EBENE_1
 62
    39
  6
CONTINUOUS
 10
1.159866
 20
-0.200543
  0
VERTEX
  8
EBENE_1
 62
    39
  6
CONTINUOUS
 10
1.162536
 20
-0.205251
  0
VERTEX
  8
EBENE_1
 62
    39
  6
CONTINUOUS
 10
1.166953
 20
-0.207736
  0
VERTEX
  8
EBENE_1
 62
    39
  6
CONTINUOUS
 10
1.172004
 20
-0.207685
  0
SEQEND
  8
0
  0
POLYLINE
  8
EBENE_1
 62
    39
  6
CONTINUOUS
 66
     1
 40
0.003000
 41
0.003000
  0
VERTEX
  8
EBENE_1
 62
    39
  6
CONTINUOUS
 10
1.172004
 20
-0.207685
  0
VERTEX
  8
EBENE_1
 62
    39
  6
CONTINUOUS
 10
1.176211
 20
-0.205171
  0
VERTEX
  8
EBENE_1
 62
    39
  6
CONTINUOUS
 10
1.178513
 20
-0.200913
  0
VERTEX
  8
EBENE_1
 62
    39
  6
CONTINUOUS
 10
1.178433
 20
-0.195543
  0
SEQEND
  8
0
  0
POLYLINE
  8
EBENE_1
 62
    39
  6
CONTINUOUS
 66
     1
 40
0.003000
 41
0.003000
  0
VERTEX
  8
EBENE_1
 62
    39
  6
CONTINUOUS
 10
1.178433
 20
-0.195543
  0
VERTEX
  8
EBENE_1
 62
    39
  6
CONTINUOUS
 10
1.175946
 20
-0.191337
  0
VERTEX
  8
EBENE_1
 62
    39
  6
CONTINUOUS
 10
1.171873
 20
-0.189035
  0
VERTEX
  8
EBENE_1
 62
    39
  6
CONTINUOUS
 10
1.167008
 20
-0.189114
  0
SEQEND
  8
0
  0
POLYLINE
  8
EBENE_1
 62
    39
  6
CONTINUOUS
 66
     1
 40
0.003000
 41
0.003000
  0
VERTEX
  8
EBENE_1
 62
    39
  6
CONTINUOUS
 10
1.114870
 20
-0.147693
  0
VERTEX
  8
EBENE_1
 62
    39
  6
CONTINUOUS
 10
1.110664
 20
-0.150206
  0
VERTEX
  8
EBENE_1
 62
    39
  6
CONTINUOUS
 10
1.108363
 20
-0.154465
  0
VERTEX
  8
EBENE_1
 62
    39
  6
CONTINUOUS
 10
1.108441
 20
-0.159835
  0
SEQEND
  8
0
  0
POLYLINE
  8
EBENE_1
 62
    39
  6
CONTINUOUS
 66
     1
 40
0.003000
 41
0.003000
  0
VERTEX
  8
EBENE_1
 62
    39
  6
CONTINUOUS
 10
1.108441
 20
-0.159835
  0
VERTEX
  8
EBENE_1
 62
    39
  6
CONTINUOUS
 10
1.110928
 20
-0.164040
  0
VERTEX
  8
EBENE_1
 62
    39
  6
CONTINUOUS
 10
1.115002
 20
-0.166340
  0
VERTEX
  8
EBENE_1
 62
    39
  6
CONTINUOUS
 10
1.119870
 20
-0.166260
  0
SEQEND
  8
0
  0
POLYLINE
  8
EBENE_1
 62
    39
  6
CONTINUOUS
 66
     1
 40
0.003000
 41
0.003000
  0
VERTEX
  8
EBENE_1
 62
    39
  6
CONTINUOUS
 10
1.119870
 20
-0.166260
  0
VERTEX
  8
EBENE_1
 62
    39
  6
CONTINUOUS
 10
1.124261
 20
-0.163775
  0
VERTEX
  8
EBENE_1
 62
    39
  6
CONTINUOUS
 10
1.126907
 20
-0.159702
  0
VERTEX
  8
EBENE_1
 62
    39
  6
CONTINUOUS
 10
1.127012
 20
-0.154835
  0
SEQEND
  8
0
  0
POLYLINE
  8
EBENE_1
 62
    39
  6
CONTINUOUS
 66
     1
 40
0.003000
 41
0.003000
  0
VERTEX
  8
EBENE_1
 62
    39
  6
CONTINUOUS
 10
1.127012
 20
-0.154835
  0
VERTEX
  8
EBENE_1
 62
    39
  6
CONTINUOUS
 10
1.124340
 20
-0.150127
  0
VERTEX
  8
EBENE_1
 62
    39
  6
CONTINUOUS
 10
1.119923
 20
-0.147640
  0
VERTEX
  8
EBENE_1
 62
    39
  6
CONTINUOUS
 10
1.114870
 20
-0.147693
  0
SEQEND
  8
0
  0
POLYLINE
  8
EBENE_1
 62
    39
  6
CONTINUOUS
 66
     1
 40
0.003000
 41
0.003000
 70
     1
  0
VERTEX
  8
EBENE_1
 62
    39
  6
CONTINUOUS
 10
1.386976
 20
-0.201969
  0
VERTEX
  8
EBENE_1
 62
    39
  6
CONTINUOUS
 10
1.193433
 20
-0.253394
  0
VERTEX
  8
EBENE_1
 62
    39
  6
CONTINUOUS
 10
1.174266
 20
-0.256462
  0
VERTEX
  8
EBENE_1
 62
    39
  6
CONTINUOUS
 10
1.156750
 20
-0.256461
  0
VERTEX
  8
EBENE_1
 62
    39
  6
CONTINUOUS
 10
1.140872
 20
-0.253504
  0
VERTEX
  8
EBENE_1
 62
    39
  6
CONTINUOUS
 10
1.126615
 20
-0.247705
  0
VERTEX
  8
EBENE_1
 62
    39
  6
CONTINUOUS
 10
1.113966
 20
-0.239178
  0
VERTEX
  8
EBENE_1
 62
    39
  6
CONTINUOUS
 10
1.102908
 20
-0.228038
  0
VERTEX
  8
EBENE_1
 62
    39
  6
CONTINUOUS
 10
1.093428
 20
-0.214398
  0
VERTEX
  8
EBENE_1
 62
    39
  6
CONTINUOUS
 10
1.085509
 20
-0.198372
  0
VERTEX
  8
EBENE_1
 62
    39
  6
CONTINUOUS
 10
1.079139
 20
-0.180075
  0
VERTEX
  8
EBENE_1
 62
    39
  6
CONTINUOUS
 10
1.074300
 20
-0.159621
  0
VERTEX
  8
EBENE_1
 62
    39
  6
CONTINUOUS
 10
1.070980
 20
-0.137124
  0
VERTEX
  8
EBENE_1
 62
    39
  6
CONTINUOUS
 10
1.069161
 20
-0.112697
  0
VERTEX
  8
EBENE_1
 62
    39
  6
CONTINUOUS
 10
1.069161
 20
0.377232
  0
VERTEX
  8
EBENE_1
 62
    39
  6
CONTINUOUS
 10
1.076595
 20
0.397002
  0
VERTEX
  8
EBENE_1
 62
    39
  6
CONTINUOUS
 10
1.085036
 20
0.415639
  0
VERTEX
  8
EBENE_1
 62
    39
  6
CONTINUOUS
 10
1.094439
 20
0.433195
  0
VERTEX
  8
EBENE_1
 62
    39
  6
CONTINUOUS
 10
1.104756
 20
0.449725
  0
VERTEX
  8
EBENE_1
 62
    39
  6
CONTINUOUS
 10
1.115941
 20
0.465280
  0
VERTEX
  8
EBENE_1
 62
    39
  6
CONTINUOUS
 10
1.127949
 20
0.479915
  0
VERTEX
  8
EBENE_1
 62
    39
  6
CONTINUOUS
 10
1.140732
 20
0.493682
  0
VERTEX
  8
EBENE_1
 62
    39
  6
CONTINUOUS
 10
1.154245
 20
0.506635
  0
VERTEX
  8
EBENE_1
 62
    39
  6
CONTINUOUS
 10
1.168441
 20
0.518826
  0
VERTEX
  8
EBENE_1
 62
    39
  6
CONTINUOUS
 10
1.183275
 20
0.530309
  0
VERTEX
  8
EBENE_1
 62
    39
  6
CONTINUOUS
 10
1.198699
 20
0.541137
  0
VERTEX
  8
EBENE_1
 62
    39
  6
CONTINUOUS
 10
1.214667
 20
0.551363
  0
VERTEX
  8
EBENE_1
 62
    39
  6
CONTINUOUS
 10
1.231134
 20
0.561040
  0
VERTEX
  8
EBENE_1
 62
    39
  6
CONTINUOUS
 10
1.248053
 20
0.570221
  0
VERTEX
  8
EBENE_1
 62
    39
  6
CONTINUOUS
 10
1.265377
 20
0.578959
  0
VERTEX
  8
EBENE_1
 62
    39
  6
CONTINUOUS
 10
1.283061
 20
0.587308
  0
VERTEX
  8
EBENE_1
 62
    39
  6
CONTINUOUS
 10
1.301058
 20
0.595321
  0
VERTEX
  8
EBENE_1
 62
    39
  6
CONTINUOUS
 10
1.319321
 20
0.603050
  0
VERTEX
  8
EBENE_1
 62
    39
  6
CONTINUOUS
 10
1.337806
 20
0.610549
  0
VERTEX
  8
EBENE_1
 62
    39
  6
CONTINUOUS
 10
1.356464
 20
0.617871
  0
VERTEX
  8
EBENE_1
 62
    39
  6
CONTINUOUS
 10
1.375250
 20
0.625069
  0
VERTEX
  8
EBENE_1
 62
    39
  6
CONTINUOUS
 10
1.394118
 20
0.632197
  0
SEQEND
  8
0
  0
POLYLINE
  8
EBENE_1
 62
    39
  6
CONTINUOUS
 66
     1
 40
0.003000
 41
0.003000
 70
     1
  0
VERTEX
  8
EBENE_1
 62
    39
  6
CONTINUOUS
 10
1.381976
 20
-0.196972
  0
VERTEX
  8
EBENE_1
 62
    39
  6
CONTINUOUS
 10
1.194146
 20
-0.247677
  0
VERTEX
  8
EBENE_1
 62
    39
  6
CONTINUOUS
 10
1.175663
 20
-0.250762
  0
VERTEX
  8
EBENE_1
 62
    39
  6
CONTINUOUS
 10
1.158773
 20
-0.250806
  0
VERTEX
  8
EBENE_1
 62
    39
  6
CONTINUOUS
 10
1.143460
 20
-0.247923
  0
VERTEX
  8
EBENE_1
 62
    39
  6
CONTINUOUS
 10
1.129709
 20
-0.242229
  0
VERTEX
  8
EBENE_1
 62
    39
  6
CONTINUOUS
 10
1.117505
 20
-0.233836
  0
VERTEX
  8
EBENE_1
 62
    39
  6
CONTINUOUS
 10
1.106835
 20
-0.222860
  0
VERTEX
  8
EBENE_1
 62
    39
  6
CONTINUOUS
 10
1.097682
 20
-0.209413
  0
VERTEX
  8
EBENE_1
 62
    39
  6
CONTINUOUS
 10
1.090031
 20
-0.193611
  0
VERTEX
  8
EBENE_1
 62
    39
  6
CONTINUOUS
 10
1.083869
 20
-0.175567
  0
VERTEX
  8
EBENE_1
 62
    39
  6
CONTINUOUS
 10
1.079180
 20
-0.155395
  0
VERTEX
  8
EBENE_1
 62
    39
  6
CONTINUOUS
 10
1.075949
 20
-0.133210
  0
VERTEX
  8
EBENE_1
 62
    39
  6
CONTINUOUS
 10
1.074161
 20
-0.109126
  0
VERTEX
  8
EBENE_1
 62
    39
  6
CONTINUOUS
 10
1.074161
 20
0.375091
  0
VERTEX
  8
EBENE_1
 62
    39
  6
CONTINUOUS
 10
1.081294
 20
0.394577
  0
VERTEX
  8
EBENE_1
 62
    39
  6
CONTINUOUS
 10
1.089417
 20
0.412947
  0
VERTEX
  8
EBENE_1
 62
    39
  6
CONTINUOUS
 10
1.098484
 20
0.430253
  0
VERTEX
  8
EBENE_1
 62
    39
  6
CONTINUOUS
 10
1.108450
 20
0.446548
  0
VERTEX
  8
EBENE_1
 62
    39
  6
CONTINUOUS
 10
1.119267
 20
0.461883
  0
VERTEX
  8
EBENE_1
 62
    39
  6
CONTINUOUS
 10
1.130891
 20
0.476311
  0
VERTEX
  8
EBENE_1
 62
    39
  6
CONTINUOUS
 10
1.143276
 20
0.489884
  0
VERTEX
  8
EBENE_1
 62
    39
  6
CONTINUOUS
 10
1.156375
 20
0.502655
  0
VERTEX
  8
EBENE_1
 62
    39
  6
CONTINUOUS
 10
1.170143
 20
0.514675
  0
VERTEX
  8
EBENE_1
 62
    39
  6
CONTINUOUS
 10
1.184534
 20
0.525998
  0
VERTEX
  8
EBENE_1
 62
    39
  6
CONTINUOUS
 10
1.199502
 20
0.536675
  0
VERTEX
  8
EBENE_1
 62
    39
  6
CONTINUOUS
 10
1.215001
 20
0.546759
  0
VERTEX
  8
EBENE_1
 62
    39
  6
CONTINUOUS
 10
1.230986
 20
0.556302
  0
VERTEX
  8
EBENE_1
 62
    39
  6
CONTINUOUS
 10
1.247410
 20
0.565357
  0
VERTEX
  8
EBENE_1
 62
    39
  6
CONTINUOUS
 10
1.264228
 20
0.573976
  0
VERTEX
  8
EBENE_1
 62
    39
  6
CONTINUOUS
 10
1.281393
 20
0.582210
  0
VERTEX
  8
EBENE_1
 62
    39
  6
CONTINUOUS
 10
1.298860
 20
0.590113
  0
VERTEX
  8
EBENE_1
 62
    39
  6
CONTINUOUS
 10
1.316583
 20
0.597737
  0
VERTEX
  8
EBENE_1
 62
    39
  6
CONTINUOUS
 10
1.334517
 20
0.605133
  0
VERTEX
  8
EBENE_1
 62
    39
  6
CONTINUOUS
 10
1.352614
 20
0.612355
  0
VERTEX
  8
EBENE_1
 62
    39
  6
CONTINUOUS
 10
1.370830
 20
0.619455
  0
VERTEX
  8
EBENE_1
 62
    39
  6
CONTINUOUS
 10
1.389118
 20
0.626484
  0
SEQEND
  8
0
  0
POLYLINE
  8
EBENE_1
 62
    39
  6
CONTINUOUS
 66
     1
 40
0.003000
 41
0.003000
  0
VERTEX
  8
EBENE_1
 62
    39
  6
CONTINUOUS
 10
0.943465
 20
0.215110
  0
VERTEX
  8
EBENE_1
 62
    39
  6
CONTINUOUS
 10
0.939073
 20
0.212598
  0
VERTEX
  8
EBENE_1
 62
    39
  6
CONTINUOUS
 10
0.936428
 20
0.208339
  0
VERTEX
  8
EBENE_1
 62
    39
  6
CONTINUOUS
 10
0.936323
 20
0.202969
  0
SEQEND
  8
0
  0
POLYLINE
  8
EBENE_1
 62
    39
  6
CONTINUOUS
 66
     1
 40
0.003000
 41
0.003000
  0
VERTEX
  8
EBENE_1
 62
    39
  6
CONTINUOUS
 10
0.936323
 20
0.202969
  0
VERTEX
  8
EBENE_1
 62
    39
  6
CONTINUOUS
 10
0.938995
 20
0.198763
  0
VERTEX
  8
EBENE_1
 62
    39
  6
CONTINUOUS
 10
0.943412
 20
0.196463
  0
VERTEX
  8
EBENE_1
 62
    39
  6
CONTINUOUS
 10
0.948465
 20
0.196543
  0
SEQEND
  8
0
  0
POLYLINE
  8
EBENE_1
 62
    39
  6
CONTINUOUS
 66
     1
 40
0.003000
 41
0.003000
  0
VERTEX
  8
EBENE_1
 62
    39
  6
CONTINUOUS
 10
0.948465
 20
0.196543
  0
VERTEX
  8
EBENE_1
 62
    39
  6
CONTINUOUS
 10
0.952671
 20
0.199028
  0
VERTEX
  8
EBENE_1
 62
    39
  6
CONTINUOUS
 10
0.954973
 20
0.203101
  0
VERTEX
  8
EBENE_1
 62
    39
  6
CONTINUOUS
 10
0.954894
 20
0.207969
  0
SEQEND
  8
0
  0
POLYLINE
  8
EBENE_1
 62
    39
  6
CONTINUOUS
 66
     1
 40
0.003000
 41
0.003000
  0
VERTEX
  8
EBENE_1
 62
    39
  6
CONTINUOUS
 10
0.954894
 20
0.207969
  0
VERTEX
  8
EBENE_1
 62
    39
  6
CONTINUOUS
 10
0.952407
 20
0.212677
  0
VERTEX
  8
EBENE_1
 62
    39
  6
CONTINUOUS
 10
0.948332
 20
0.215163
  0
VERTEX
  8
EBENE_1
 62
    39
  6
CONTINUOUS
 10
0.943465
 20
0.215110
  0
SEQEND
  8
0
  0
POLYLINE
  8
EBENE_1
 62
    39
  6
CONTINUOUS
 66
     1
 40
0.003000
 41
0.003000
  0
VERTEX
  8
EBENE_1
 62
    39
  6
CONTINUOUS
 10
0.838480
 20
0.142980
  0
VERTEX
  8
EBENE_1
 62
    39
  6
CONTINUOUS
 10
0.834248
 20
0.140467
  0
VERTEX
  8
EBENE_1
 62
    39
  6
CONTINUOUS
 10
0.831762
 20
0.136208
  0
VERTEX
  8
EBENE_1
 62
    39
  6
CONTINUOUS
 10
0.831339
 20
0.130839
  0
SEQEND
  8
0
  0
POLYLINE
  8
EBENE_1
 62
    39
  6
CONTINUOUS
 66
     1
 40
0.003000
 41
0.003000
  0
VERTEX
  8
EBENE_1
 62
    39
  6
CONTINUOUS
 10
0.831339
 20
0.130839
  0
VERTEX
  8
EBENE_1
 62
    39
  6
CONTINUOUS
 10
0.834010
 20
0.126632
  0
VERTEX
  8
EBENE_1
 62
    39
  6
CONTINUOUS
 10
0.838428
 20
0.124330
  0
VERTEX
  8
EBENE_1
 62
    39
  6
CONTINUOUS
 10
0.843480
 20
0.124409
  0
SEQEND
  8
0
  0
POLYLINE
  8
EBENE_1
 62
    39
  6
CONTINUOUS
 66
     1
 40
0.003000
 41
0.003000
  0
VERTEX
  8
EBENE_1
 62
    39
  6
CONTINUOUS
 10
0.843480
 20
0.124409
  0
VERTEX
  8
EBENE_1
 62
    39
  6
CONTINUOUS
 10
0.847686
 20
0.126896
  0
VERTEX
  8
EBENE_1
 62
    39
  6
CONTINUOUS
 10
0.849986
 20
0.130970
  0
VERTEX
  8
EBENE_1
 62
    39
  6
CONTINUOUS
 10
0.849906
 20
0.135835
  0
SEQEND
  8
0
  0
POLYLINE
  8
EBENE_1
 62
    39
  6
CONTINUOUS
 66
     1
 40
0.003000
 41
0.003000
  0
VERTEX
  8
EBENE_1
 62
    39
  6
CONTINUOUS
 10
0.849906
 20
0.135835
  0
VERTEX
  8
EBENE_1
 62
    39
  6
CONTINUOUS
 10
0.847738
 20
0.140545
  0
VERTEX
  8
EBENE_1
 62
    39
  6
CONTINUOUS
 10
0.843506
 20
0.143031
  0
VERTEX
  8
EBENE_1
 62
    39
  6
CONTINUOUS
 10
0.838480
 20
0.142980
  0
SEQEND
  8
0
  0
POLYLINE
  8
EBENE_1
 62
    39
  6
CONTINUOUS
 66
     1
 40
0.003000
 41
0.003000
  0
VERTEX
  8
EBENE_1
 62
    39
  6
CONTINUOUS
 10
0.786343
 20
0.184402
  0
VERTEX
  8
EBENE_1
 62
    39
  6
CONTINUOUS
 10
0.782139
 20
0.181730
  0
VERTEX
  8
EBENE_1
 62
    39
  6
CONTINUOUS
 10
0.779838
 20
0.177312
  0
VERTEX
  8
EBENE_1
 62
    39
  6
CONTINUOUS
 10
0.779917
 20
0.172260
  0
SEQEND
  8
0
  0
POLYLINE
  8
EBENE_1
 62
    39
  6
CONTINUOUS
 66
     1
 40
0.003000
 41
0.003000
  0
VERTEX
  8
EBENE_1
 62
    39
  6
CONTINUOUS
 10
0.779917
 20
0.172260
  0
VERTEX
  8
EBENE_1
 62
    39
  6
CONTINUOUS
 10
0.782403
 20
0.168054
  0
VERTEX
  8
EBENE_1
 62
    39
  6
CONTINUOUS
 10
0.786476
 20
0.165754
  0
VERTEX
  8
EBENE_1
 62
    39
  6
CONTINUOUS
 10
0.791343
 20
0.165835
  0
SEQEND
  8
0
  0
POLYLINE
  8
EBENE_1
 62
    39
  6
CONTINUOUS
 66
     1
 40
0.003000
 41
0.003000
  0
VERTEX
  8
EBENE_1
 62
    39
  6
CONTINUOUS
 10
0.791343
 20
0.165835
  0
VERTEX
  8
EBENE_1
 62
    39
  6
CONTINUOUS
 10
0.795734
 20
0.168319
  0
VERTEX
  8
EBENE_1
 62
    39
  6
CONTINUOUS
 10
0.798379
 20
0.172392
  0
VERTEX
  8
EBENE_1
 62
    39
  6
CONTINUOUS
 10
0.798484
 20
0.177260
  0
SEQEND
  8
0
  0
POLYLINE
  8
EBENE_1
 62
    39
  6
CONTINUOUS
 66
     1
 40
0.003000
 41
0.003000
  0
VERTEX
  8
EBENE_1
 62
    39
  6
CONTINUOUS
 10
0.798484
 20
0.177260
  0
VERTEX
  8
EBENE_1
 62
    39
  6
CONTINUOUS
 10
0.795814
 20
0.181651
  0
VERTEX
  8
EBENE_1
 62
    39
  6
CONTINUOUS
 10
0.791396
 20
0.184296
  0
VERTEX
  8
EBENE_1
 62
    39
  6
CONTINUOUS
 10
0.786343
 20
0.184402
  0
SEQEND
  8
0
  0
POLYLINE
  8
EBENE_1
 62
    39
  6
CONTINUOUS
 66
     1
 40
0.003000
 41
0.003000
 70
     1
  0
VERTEX
  8
EBENE_1
 62
    39
  6
CONTINUOUS
 10
1.058449
 20
0.130122
  0
VERTEX
  8
EBENE_1
 62
    39
  6
CONTINUOUS
 10
0.864906
 20
0.078701
  0
VERTEX
  8
EBENE_1
 62
    39
  6
CONTINUOUS
 10
0.845739
 20
0.075618
  0
VERTEX
  8
EBENE_1
 62
    39
  6
CONTINUOUS
 10
0.828224
 20
0.075584
  0
VERTEX
  8
EBENE_1
 62
    39
  6
CONTINUOUS
 10
0.812346
 20
0.078490
  0
VERTEX
  8
EBENE_1
 62
    39
  6
CONTINUOUS
 10
0.798090
 20
0.084230
  0
VERTEX
  8
EBENE_1
 62
    39
  6
CONTINUOUS
 10
0.785440
 20
0.092699
  0
VERTEX
  8
EBENE_1
 62
    39
  6
CONTINUOUS
 10
0.774382
 20
0.103788
  0
VERTEX
  8
EBENE_1
 62
    39
  6
CONTINUOUS
 10
0.764902
 20
0.117392
  0
VERTEX
  8
EBENE_1
 62
    39
  6
CONTINUOUS
 10
0.756984
 20
0.133404
  0
VERTEX
  8
EBENE_1
 62
    39
  6
CONTINUOUS
 10
0.750613
 20
0.151717
  0
VERTEX
  8
EBENE_1
 62
    39
  6
CONTINUOUS
 10
0.745775
 20
0.172225
  0
VERTEX
  8
EBENE_1
 62
    39
  6
CONTINUOUS
 10
0.742455
 20
0.194820
  0
VERTEX
  8
EBENE_1
 62
    39
  6
CONTINUOUS
 10
0.740638
 20
0.219398
  0
VERTEX
  8
EBENE_1
 62
    39
  6
CONTINUOUS
 10
0.740638
 20
0.709327
  0
VERTEX
  8
EBENE_1
 62
    39
  6
CONTINUOUS
 10
0.748075
 20
0.729097
  0
VERTEX
  8
EBENE_1
 62
    39
  6
CONTINUOUS
 10
0.756528
 20
0.747734
  0
VERTEX
  8
EBENE_1
 62
    39
  6
CONTINUOUS
 10
0.765948
 20
0.765291
  0
VERTEX
  8
EBENE_1
 62
    39
  6
CONTINUOUS
 10
0.776288
 20
0.781821
  0
VERTEX
  8
EBENE_1
 62
    39
  6
CONTINUOUS
 10
0.787501
 20
0.797377
  0
VERTEX
  8
EBENE_1
 62
    39
  6
CONTINUOUS
 10
0.799538
 20
0.812012
  0
VERTEX
  8
EBENE_1
 62
    39
  6
CONTINUOUS
 10
0.812353
 20
0.825779
  0
VERTEX
  8
EBENE_1
 62
    39
  6
CONTINUOUS
 10
0.825898
 20
0.838732
  0
VERTEX
  8
EBENE_1
 62
    39
  6
CONTINUOUS
 10
0.840126
 20
0.850924
  0
VERTEX
  8
EBENE_1
 62
    39
  6
CONTINUOUS
 10
0.854989
 20
0.862407
  0
VERTEX
  8
EBENE_1
 62
    39
  6
CONTINUOUS
 10
0.870439
 20
0.873235
  0
VERTEX
  8
EBENE_1
 62
    39
  6
CONTINUOUS
 10
0.886429
 20
0.883461
  0
VERTEX
  8
EBENE_1
 62
    39
  6
CONTINUOUS
 10
0.902912
 20
0.893138
  0
VERTEX
  8
EBENE_1
 62
    39
  6
CONTINUOUS
 10
0.919840
 20
0.902319
  0
VERTEX
  8
EBENE_1
 62
    39
  6
CONTINUOUS
 10
0.937166
 20
0.911058
  0
VERTEX
  8
EBENE_1
 62
    39
  6
CONTINUOUS
 10
0.954842
 20
0.919407
  0
VERTEX
  8
EBENE_1
 62
    39
  6
CONTINUOUS
 10
0.972820
 20
0.927419
  0
VERTEX
  8
EBENE_1
 62
    39
  6
CONTINUOUS
 10
0.991054
 20
0.935148
  0
VERTEX
  8
EBENE_1
 62
    39
  6
CONTINUOUS
 10
1.009495
 20
0.942648
  0
VERTEX
  8
EBENE_1
 62
    39
  6
CONTINUOUS
 10
1.028097
 20
0.949970
  0
VERTEX
  8
EBENE_1
 62
    39
  6
CONTINUOUS
 10
1.046811
 20
0.957168
  0
VERTEX
  8
EBENE_1
 62
    39
  6
CONTINUOUS
 10
1.065591
 20
0.964295
  0
SEQEND
  8
0
  0
POLYLINE
  8
EBENE_1
 62
    39
  6
CONTINUOUS
 66
     1
 40
0.003000
 41
0.003000
 70
     1
  0
VERTEX
  8
EBENE_1
 62
    39
  6
CONTINUOUS
 10
1.053453
 20
0.135122
  0
VERTEX
  8
EBENE_1
 62
    39
  6
CONTINUOUS
 10
0.865618
 20
0.084413
  0
VERTEX
  8
EBENE_1
 62
    39
  6
CONTINUOUS
 10
0.847137
 20
0.081330
  0
VERTEX
  8
EBENE_1
 62
    39
  6
CONTINUOUS
 10
0.830247
 20
0.081286
  0
VERTEX
  8
EBENE_1
 62
    39
  6
CONTINUOUS
 10
0.814934
 20
0.084169
  0
VERTEX
  8
EBENE_1
 62
    39
  6
CONTINUOUS
 10
0.801184
 20
0.089864
  0
VERTEX
  8
EBENE_1
 62
    39
  6
CONTINUOUS
 10
0.788981
 20
0.098256
  0
VERTEX
  8
EBENE_1
 62
    39
  6
CONTINUOUS
 10
0.778310
 20
0.109233
  0
VERTEX
  8
EBENE_1
 62
    39
  6
CONTINUOUS
 10
0.769157
 20
0.122679
  0
VERTEX
  8
EBENE_1
 62
    39
  6
CONTINUOUS
 10
0.761506
 20
0.138482
  0
VERTEX
  8
EBENE_1
 62
    39
  6
CONTINUOUS
 10
0.755344
 20
0.156526
  0
VERTEX
  8
EBENE_1
 62
    39
  6
CONTINUOUS
 10
0.750654
 20
0.176698
  0
VERTEX
  8
EBENE_1
 62
    39
  6
CONTINUOUS
 10
0.747422
 20
0.198883
  0
VERTEX
  8
EBENE_1
 62
    39
  6
CONTINUOUS
 10
0.745634
 20
0.222969
  0
VERTEX
  8
EBENE_1
 62
    39
  6
CONTINUOUS
 10
0.745634
 20
0.706472
  0
VERTEX
  8
EBENE_1
 62
    39
  6
CONTINUOUS
 10
0.752855
 20
0.725963
  0
VERTEX
  8
EBENE_1
 62
    39
  6
CONTINUOUS
 10
0.761051
 20
0.744345
  0
VERTEX
  8
EBENE_1
 62
    39
  6
CONTINUOUS
 10
0.770174
 20
0.761670
  0
VERTEX
  8
EBENE_1
 62
    39
  6
CONTINUOUS
 10
0.780183
 20
0.777987
  0
VERTEX
  8
EBENE_1
 62
    39
  6
CONTINUOUS
 10
0.791030
 20
0.793350
  0
VERTEX
  8
EBENE_1
 62
    39
  6
CONTINUOUS
 10
0.802673
 20
0.807808
  0
VERTEX
  8
EBENE_1
 62
    39
  6
CONTINUOUS
 10
0.815065
 20
0.821413
  0
VERTEX
  8
EBENE_1
 62
    39
  6
CONTINUOUS
 10
0.828163
 20
0.834216
  0
VERTEX
  8
EBENE_1
 62
    39
  6
CONTINUOUS
 10
0.841922
 20
0.846268
  0
VERTEX
  8
EBENE_1
 62
    39
  6
CONTINUOUS
 10
0.856297
 20
0.857621
  0
VERTEX
  8
EBENE_1
 62
    39
  6
CONTINUOUS
 10
0.871243
 20
0.868324
  0
VERTEX
  8
EBENE_1
 62
    39
  6
CONTINUOUS
 10
0.886716
 20
0.878430
  0
VERTEX
  8
EBENE_1
 62
    39
  6
CONTINUOUS
 10
0.902671
 20
0.887990
  0
VERTEX
  8
EBENE_1
 62
    39
  6
CONTINUOUS
 10
0.919064
 20
0.897054
  0
VERTEX
  8
EBENE_1
 62
    39
  6
CONTINUOUS
 10
0.935849
 20
0.905674
  0
VERTEX
  8
EBENE_1
 62
    39
  6
CONTINUOUS
 10
0.952983
 20
0.913900
  0
VERTEX
  8
EBENE_1
 62
    39
  6
CONTINUOUS
 10
0.970419
 20
0.921785
  0
VERTEX
  8
EBENE_1
 62
    39
  6
CONTINUOUS
 10
0.988115
 20
0.929379
  0
VERTEX
  8
EBENE_1
 62
    39
  6
CONTINUOUS
 10
1.006025
 20
0.936732
  0
VERTEX
  8
EBENE_1
 62
    39
  6
CONTINUOUS
 10
1.024103
 20
0.943898
  0
VERTEX
  8
EBENE_1
 62
    39
  6
CONTINUOUS
 10
1.042307
 20
0.950925
  0
VERTEX
  8
EBENE_1
 62
    39
  6
CONTINUOUS
 10
1.060591
 20
0.957866
  0
SEQEND
  8
0
  0
POLYLINE
  8
EBENE_1
 62
    39
  6
CONTINUOUS
 66
     1
 40
0.003000
 41
0.003000
  0
VERTEX
  8
EBENE_1
 62
    39
  6
CONTINUOUS
 10
1.107016
 20
0.254390
  0
VERTEX
  8
EBENE_1
 62
    39
  6
CONTINUOUS
 10
1.102624
 20
0.252222
  0
VERTEX
  8
EBENE_1
 62
    39
  6
CONTINUOUS
 10
1.099979
 20
0.247991
  0
VERTEX
  8
EBENE_1
 62
    39
  6
CONTINUOUS
 10
1.099874
 20
0.242965
  0
SEQEND
  8
0
  0
POLYLINE
  8
EBENE_1
 62
    39
  6
CONTINUOUS
 66
     1
 40
0.003000
 41
0.003000
  0
VERTEX
  8
EBENE_1
 62
    39
  6
CONTINUOUS
 10
1.099874
 20
0.242965
  0
VERTEX
  8
EBENE_1
 62
    39
  6
CONTINUOUS
 10
1.102544
 20
0.238758
  0
VERTEX
  8
EBENE_1
 62
    39
  6
CONTINUOUS
 10
1.106961
 20
0.236456
  0
VERTEX
  8
EBENE_1
 62
    39
  6
CONTINUOUS
 10
1.112012
 20
0.236535
  0
SEQEND
  8
0
  0
POLYLINE
  8
EBENE_1
 62
    39
  6
CONTINUOUS
 66
     1
 40
0.003000
 41
0.003000
  0
VERTEX
  8
EBENE_1
 62
    39
  6
CONTINUOUS
 10
1.112012
 20
0.236535
  0
VERTEX
  8
EBENE_1
 62
    39
  6
CONTINUOUS
 10
1.116218
 20
0.238706
  0
VERTEX
  8
EBENE_1
 62
    39
  6
CONTINUOUS
 10
1.118520
 20
0.242938
  0
VERTEX
  8
EBENE_1
 62
    39
  6
CONTINUOUS
 10
1.118441
 20
0.247965
  0
SEQEND
  8
0
  0
POLYLINE
  8
EBENE_1
 62
    39
  6
CONTINUOUS
 66
     1
 40
0.003000
 41
0.003000
  0
VERTEX
  8
EBENE_1
 62
    39
  6
CONTINUOUS
 10
1.118441
 20
0.247965
  0
VERTEX
  8
EBENE_1
 62
    39
  6
CONTINUOUS
 10
1.115954
 20
0.252170
  0
VERTEX
  8
EBENE_1
 62
    39
  6
CONTINUOUS
 10
1.111881
 20
0.254470
  0
VERTEX
  8
EBENE_1
 62
    39
  6
CONTINUOUS
 10
1.107016
 20
0.254390
  0
SEQEND
  8
0
  0
POLYLINE
  8
EBENE_1
 62
    39
  6
CONTINUOUS
 66
     1
 40
0.003000
 41
0.003000
  0
VERTEX
  8
EBENE_1
 62
    39
  6
CONTINUOUS
 10
1.002028
 20
0.182260
  0
VERTEX
  8
EBENE_1
 62
    39
  6
CONTINUOUS
 10
0.997797
 20
0.180089
  0
VERTEX
  8
EBENE_1
 62
    39
  6
CONTINUOUS
 10
0.995310
 20
0.175857
  0
VERTEX
  8
EBENE_1
 62
    39
  6
CONTINUOUS
 10
0.994886
 20
0.170831
  0
SEQEND
  8
0
  0
POLYLINE
  8
EBENE_1
 62
    39
  6
CONTINUOUS
 66
     1
 40
0.003000
 41
0.003000
  0
VERTEX
  8
EBENE_1
 62
    39
  6
CONTINUOUS
 10
0.994886
 20
0.170831
  0
VERTEX
  8
EBENE_1
 62
    39
  6
CONTINUOUS
 10
0.997558
 20
0.166627
  0
VERTEX
  8
EBENE_1
 62
    39
  6
CONTINUOUS
 10
1.001975
 20
0.164326
  0
VERTEX
  8
EBENE_1
 62
    39
  6
CONTINUOUS
 10
1.007028
 20
0.164406
  0
SEQEND
  8
0
  0
POLYLINE
  8
EBENE_1
 62
    39
  6
CONTINUOUS
 66
     1
 40
0.003000
 41
0.003000
  0
VERTEX
  8
EBENE_1
 62
    39
  6
CONTINUOUS
 10
1.007028
 20
0.164406
  0
VERTEX
  8
EBENE_1
 62
    39
  6
CONTINUOUS
 10
1.011234
 20
0.166573
  0
VERTEX
  8
EBENE_1
 62
    39
  6
CONTINUOUS
 10
1.013536
 20
0.170805
  0
VERTEX
  8
EBENE_1
 62
    39
  6
CONTINUOUS
 10
1.013457
 20
0.175831
  0
SEQEND
  8
0
  0
POLYLINE
  8
EBENE_1
 62
    39
  6
CONTINUOUS
 66
     1
 40
0.003000
 41
0.003000
  0
VERTEX
  8
EBENE_1
 62
    39
  6
CONTINUOUS
 10
1.013457
 20
0.175831
  0
VERTEX
  8
EBENE_1
 62
    39
  6
CONTINUOUS
 10
1.011286
 20
0.180036
  0
VERTEX
  8
EBENE_1
 62
    39
  6
CONTINUOUS
 10
1.007054
 20
0.182338
  0
VERTEX
  8
EBENE_1
 62
    39
  6
CONTINUOUS
 10
1.002028
 20
0.182260
  0
SEQEND
  8
0
  0
POLYLINE
  8
EBENE_1
 62
    39
  6
CONTINUOUS
 66
     1
 40
0.003000
 41
0.003000
  0
VERTEX
  8
EBENE_1
 62
    39
  6
CONTINUOUS
 10
0.949894
 20
0.223681
  0
VERTEX
  8
EBENE_1
 62
    39
  6
CONTINUOUS
 10
0.945687
 20
0.221194
  0
VERTEX
  8
EBENE_1
 62
    39
  6
CONTINUOUS
 10
0.943385
 20
0.217121
  0
VERTEX
  8
EBENE_1
 62
    39
  6
CONTINUOUS
 10
0.943465
 20
0.212256
  0
SEQEND
  8
0
  0
POLYLINE
  8
EBENE_1
 62
    39
  6
CONTINUOUS
 66
     1
 40
0.003000
 41
0.003000
  0
VERTEX
  8
EBENE_1
 62
    39
  6
CONTINUOUS
 10
0.943465
 20
0.212256
  0
VERTEX
  8
EBENE_1
 62
    39
  6
CONTINUOUS
 10
0.945952
 20
0.207864
  0
VERTEX
  8
EBENE_1
 62
    39
  6
CONTINUOUS
 10
0.950026
 20
0.205218
  0
VERTEX
  8
EBENE_1
 62
    39
  6
CONTINUOUS
 10
0.954894
 20
0.205110
  0
SEQEND
  8
0
  0
POLYLINE
  8
EBENE_1
 62
    39
  6
CONTINUOUS
 66
     1
 40
0.003000
 41
0.003000
  0
VERTEX
  8
EBENE_1
 62
    39
  6
CONTINUOUS
 10
0.954894
 20
0.205110
  0
VERTEX
  8
EBENE_1
 62
    39
  6
CONTINUOUS
 10
0.959285
 20
0.207783
  0
VERTEX
  8
EBENE_1
 62
    39
  6
CONTINUOUS
 10
0.961930
 20
0.212201
  0
VERTEX
  8
EBENE_1
 62
    39
  6
CONTINUOUS
 10
0.962035
 20
0.217252
  0
SEQEND
  8
0
  0
POLYLINE
  8
EBENE_1
 62
    39
  6
CONTINUOUS
 66
     1
 40
0.003000
 41
0.003000
  0
VERTEX
  8
EBENE_1
 62
    39
  6
CONTINUOUS
 10
0.962035
 20
0.217252
  0
VERTEX
  8
EBENE_1
 62
    39
  6
CONTINUOUS
 10
0.959364
 20
0.221459
  0
VERTEX
  8
EBENE_1
 62
    39
  6
CONTINUOUS
 10
0.954946
 20
0.223761
  0
VERTEX
  8
EBENE_1
 62
    39
  6
CONTINUOUS
 10
0.949894
 20
0.223681
  0
SEQEND
  8
0
  0
POLYLINE
  8
EBENE_1
 62
    39
  6
CONTINUOUS
 66
     1
 40
0.003000
 41
0.003000
 70
     1
  0
VERTEX
  8
EBENE_1
 62
    39
  6
CONTINUOUS
 10
1.222000
 20
0.169406
  0
VERTEX
  8
EBENE_1
 62
    39
  6
CONTINUOUS
 10
1.028453
 20
0.117980
  0
VERTEX
  8
EBENE_1
 62
    39
  6
CONTINUOUS
 10
1.009286
 20
0.114912
  0
VERTEX
  8
EBENE_1
 62
    39
  6
CONTINUOUS
 10
0.991772
 20
0.114913
  0
VERTEX
  8
EBENE_1
 62
    39
  6
CONTINUOUS
 10
0.975893
 20
0.117870
  0
VERTEX
  8
EBENE_1
 62
    39
  6
CONTINUOUS
 10
0.961637
 20
0.123669
  0
VERTEX
  8
EBENE_1
 62
    39
  6
CONTINUOUS
 10
0.948987
 20
0.132196
  0
VERTEX
  8
EBENE_1
 62
    39
  6
CONTINUOUS
 10
0.937930
 20
0.143336
  0
VERTEX
  8
EBENE_1
 62
    39
  6
CONTINUOUS
 10
0.928449
 20
0.156976
  0
VERTEX
  8
EBENE_1
 62
    39
  6
CONTINUOUS
 10
0.920531
 20
0.173002
  0
VERTEX
  8
EBENE_1
 62
    39
  6
CONTINUOUS
 10
0.914161
 20
0.191299
  0
VERTEX
  8
EBENE_1
 62
    39
  6
CONTINUOUS
 10
0.909323
 20
0.211753
  0
VERTEX
  8
EBENE_1
 62
    39
  6
CONTINUOUS
 10
0.906002
 20
0.234250
  0
VERTEX
  8
EBENE_1
 62
    39
  6
CONTINUOUS
 10
0.904185
 20
0.258677
  0
VERTEX
  8
EBENE_1
 62
    39
  6
CONTINUOUS
 10
0.904185
 20
0.749323
  0
VERTEX
  8
EBENE_1
 62
    39
  6
CONTINUOUS
 10
0.911623
 20
0.769004
  0
VERTEX
  8
EBENE_1
 62
    39
  6
CONTINUOUS
 10
0.920076
 20
0.787568
  0
VERTEX
  8
EBENE_1
 62
    39
  6
CONTINUOUS
 10
0.929497
 20
0.805067
  0
VERTEX
  8
EBENE_1
 62
    39
  6
CONTINUOUS
 10
0.939837
 20
0.821551
  0
VERTEX
  8
EBENE_1
 62
    39
  6
CONTINUOUS
 10
0.951050
 20
0.837073
  0
VERTEX
  8
EBENE_1
 62
    39
  6
CONTINUOUS
 10
0.963088
 20
0.851683
  0
VERTEX
  8
EBENE_1
 62
    39
  6
CONTINUOUS
 10
0.975903
 20
0.865434
  0
VERTEX
  8
EBENE_1
 62
    39
  6
CONTINUOUS
 10
0.989448
 20
0.878377
  0
VERTEX
  8
EBENE_1
 62
    39
  6
CONTINUOUS
 10
1.003676
 20
0.890564
  0
VERTEX
  8
EBENE_1
 62
    39
  6
CONTINUOUS
 10
1.018539
 20
0.902045
  0
VERTEX
  8
EBENE_1
 62
    39
  6
CONTINUOUS
 10
1.033990
 20
0.912873
  0
VERTEX
  8
EBENE_1
 62
    39
  6
CONTINUOUS
 10
1.049980
 20
0.923098
  0
VERTEX
  8
EBENE_1
 62
    39
  6
CONTINUOUS
 10
1.066463
 20
0.932773
  0
VERTEX
  8
EBENE_1
 62
    39
  6
CONTINUOUS
 10
1.083391
 20
0.941949
  0
VERTEX
  8
EBENE_1
 62
    39
  6
CONTINUOUS
 10
1.100717
 20
0.950678
  0
VERTEX
  8
EBENE_1
 62
    39
  6
CONTINUOUS
 10
1.118393
 20
0.959011
  0
VERTEX
  8
EBENE_1
 62
    39
  6
CONTINUOUS
 10
1.136372
 20
0.966999
  0
VERTEX
  8
EBENE_1
 62
    39
  6
CONTINUOUS
 10
1.154605
 20
0.974694
  0
VERTEX
  8
EBENE_1
 62
    39
  6
CONTINUOUS
 10
1.173047
 20
0.982148
  0
VERTEX
  8
EBENE_1
 62
    39
  6
CONTINUOUS
 10
1.191648
 20
0.989411
  0
VERTEX
  8
EBENE_1
 62
    39
  6
CONTINUOUS
 10
1.210362
 20
0.996537
  0
VERTEX
  8
EBENE_1
 62
    39
  6
CONTINUOUS
 10
1.229142
 20
1.003575
  0
SEQEND
  8
0
  0
POLYLINE
  8
EBENE_1
 62
    39
  6
CONTINUOUS
 66
     1
 40
0.003000
 41
0.003000
 70
     1
  0
VERTEX
  8
EBENE_1
 62
    39
  6
CONTINUOUS
 10
1.217000
 20
0.174402
  0
VERTEX
  8
EBENE_1
 62
    39
  6
CONTINUOUS
 10
1.029169
 20
0.123697
  0
VERTEX
  8
EBENE_1
 62
    39
  6
CONTINUOUS
 10
1.010687
 20
0.120763
  0
VERTEX
  8
EBENE_1
 62
    39
  6
CONTINUOUS
 10
0.993796
 20
0.120820
  0
VERTEX
  8
EBENE_1
 62
    39
  6
CONTINUOUS
 10
0.978483
 20
0.123764
  0
VERTEX
  8
EBENE_1
 62
    39
  6
CONTINUOUS
 10
0.964732
 20
0.129490
  0
VERTEX
  8
EBENE_1
 62
    39
  6
CONTINUOUS
 10
0.952529
 20
0.137894
  0
VERTEX
  8
EBENE_1
 62
    39
  6
CONTINUOUS
 10
0.941858
 20
0.148872
  0
VERTEX
  8
EBENE_1
 62
    39
  6
CONTINUOUS
 10
0.932705
 20
0.162320
  0
VERTEX
  8
EBENE_1
 62
    39
  6
CONTINUOUS
 10
0.925055
 20
0.178133
  0
VERTEX
  8
EBENE_1
 62
    39
  6
CONTINUOUS
 10
0.918893
 20
0.196208
  0
VERTEX
  8
EBENE_1
 62
    39
  6
CONTINUOUS
 10
0.914204
 20
0.216441
  0
VERTEX
  8
EBENE_1
 62
    39
  6
CONTINUOUS
 10
0.910973
 20
0.238726
  0
VERTEX
  8
EBENE_1
 62
    39
  6
CONTINUOUS
 10
0.909185
 20
0.262961
  0
VERTEX
  8
EBENE_1
 62
    39
  6
CONTINUOUS
 10
0.909185
 20
0.746465
  0
VERTEX
  8
EBENE_1
 62
    39
  6
CONTINUOUS
 10
0.916407
 20
0.765952
  0
VERTEX
  8
EBENE_1
 62
    39
  6
CONTINUOUS
 10
0.924602
 20
0.784322
  0
VERTEX
  8
EBENE_1
 62
    39
  6
CONTINUOUS
 10
0.933725
 20
0.801629
  0
VERTEX
  8
EBENE_1
 62
    39
  6
CONTINUOUS
 10
0.943733
 20
0.817924
  0
VERTEX
  8
EBENE_1
 62
    39
  6
CONTINUOUS
 10
0.954581
 20
0.833259
  0
VERTEX
  8
EBENE_1
 62
    39
  6
CONTINUOUS
 10
0.966223
 20
0.847687
  0
VERTEX
  8
EBENE_1
 62
    39
  6
CONTINUOUS
 10
0.978615
 20
0.861261
  0
VERTEX
  8
EBENE_1
 62
    39
  6
CONTINUOUS
 10
0.991713
 20
0.874032
  0
VERTEX
  8
EBENE_1
 62
    39
  6
CONTINUOUS
 10
1.005472
 20
0.886052
  0
VERTEX
  8
EBENE_1
 62
    39
  6
CONTINUOUS
 10
1.019847
 20
0.897375
  0
VERTEX
  8
EBENE_1
 62
    39
  6
CONTINUOUS
 10
1.034793
 20
0.908053
  0
VERTEX
  8
EBENE_1
 62
    39
  6
CONTINUOUS
 10
1.050266
 20
0.918137
  0
VERTEX
  8
EBENE_1
 62
    39
  6
CONTINUOUS
 10
1.066221
 20
0.927680
  0
VERTEX
  8
EBENE_1
 62
    39
  6
CONTINUOUS
 10
1.082613
 20
0.936735
  0
VERTEX
  8
EBENE_1
 62
    39
  6
CONTINUOUS
 10
1.099399
 20
0.945353
  0
VERTEX
  8
EBENE_1
 62
    39
  6
CONTINUOUS
 10
1.116532
 20
0.953588
  0
VERTEX
  8
EBENE_1
 62
    39
  6
CONTINUOUS
 10
1.133969
 20
0.961491
  0
VERTEX
  8
EBENE_1
 62
    39
  6
CONTINUOUS
 10
1.151665
 20
0.969114
  0
VERTEX
  8
EBENE_1
 62
    39
  6
CONTINUOUS
 10
1.169574
 20
0.976511
  0
VERTEX
  8
EBENE_1
 62
    39
  6
CONTINUOUS
 10
1.187654
 20
0.983733
  0
VERTEX
  8
EBENE_1
 62
    39
  6
CONTINUOUS
 10
1.205858
 20
0.990833
  0
VERTEX
  8
EBENE_1
 62
    39
  6
CONTINUOUS
 10
1.224142
 20
0.997862
  0
SEQEND
  8
0
  0
POLYLINE
  8
EBENE_1
 62
    39
  6
CONTINUOUS
 66
     1
 40
0.003000
 41
0.003000
  0
VERTEX
  8
EBENE_1
 62
    39
  6
CONTINUOUS
 10
1.436256
 20
-0.080559
  0
VERTEX
  8
EBENE_1
 62
    39
  6
CONTINUOUS
 10
1.432049
 20
-0.083231
  0
VERTEX
  8
EBENE_1
 62
    39
  6
CONTINUOUS
 10
1.429747
 20
-0.087648
  0
VERTEX
  8
EBENE_1
 62
    39
  6
CONTINUOUS
 10
1.429827
 20
-0.092701
  0
SEQEND
  8
0
  0
POLYLINE
  8
EBENE_1
 62
    39
  6
CONTINUOUS
 66
     1
 40
0.003000
 41
0.003000
  0
VERTEX
  8
EBENE_1
 62
    39
  6
CONTINUOUS
 10
1.429827
 20
-0.092701
  0
VERTEX
  8
EBENE_1
 62
    39
  6
CONTINUOUS
 10
1.431995
 20
-0.096906
  0
VERTEX
  8
EBENE_1
 62
    39
  6
CONTINUOUS
 10
1.436229
 20
-0.099206
  0
VERTEX
  8
EBENE_1
 62
    39
  6
CONTINUOUS
 10
1.441256
 20
-0.099126
  0
SEQEND
  8
0
  0
POLYLINE
  8
EBENE_1
 62
    39
  6
CONTINUOUS
 66
     1
 40
0.003000
 41
0.003000
  0
VERTEX
  8
EBENE_1
 62
    39
  6
CONTINUOUS
 10
1.441256
 20
-0.099126
  0
VERTEX
  8
EBENE_1
 62
    39
  6
CONTINUOUS
 10
1.445486
 20
-0.096642
  0
VERTEX
  8
EBENE_1
 62
    39
  6
CONTINUOUS
 10
1.447973
 20
-0.092568
  0
VERTEX
  8
EBENE_1
 62
    39
  6
CONTINUOUS
 10
1.448398
 20
-0.087701
  0
SEQEND
  8
0
  0
POLYLINE
  8
EBENE_1
 62
    39
  6
CONTINUOUS
 66
     1
 40
0.003000
 41
0.003000
  0
VERTEX
  8
EBENE_1
 62
    39
  6
CONTINUOUS
 10
1.448398
 20
-0.087701
  0
VERTEX
  8
EBENE_1
 62
    39
  6
CONTINUOUS
 10
1.445726
 20
-0.083468
  0
VERTEX
  8
EBENE_1
 62
    39
  6
CONTINUOUS
 10
1.441308
 20
-0.080981
  0
VERTEX
  8
EBENE_1
 62
    39
  6
CONTINUOUS
 10
1.436256
 20
-0.080559
  0
SEQEND
  8
0
  0
POLYLINE
  8
EBENE_1
 62
    39
  6
CONTINUOUS
 66
     1
 40
0.003000
 41
0.003000
  0
VERTEX
  8
EBENE_1
 62
    39
  6
CONTINUOUS
 10
1.331268
 20
-0.152693
  0
VERTEX
  8
EBENE_1
 62
    39
  6
CONTINUOUS
 10
1.327064
 20
-0.155365
  0
VERTEX
  8
EBENE_1
 62
    39
  6
CONTINUOUS
 10
1.324763
 20
-0.159782
  0
VERTEX
  8
EBENE_1
 62
    39
  6
CONTINUOUS
 10
1.324843
 20
-0.164835
  0
SEQEND
  8
0
  0
POLYLINE
  8
EBENE_1
 62
    39
  6
CONTINUOUS
 66
     1
 40
0.003000
 41
0.003000
  0
VERTEX
  8
EBENE_1
 62
    39
  6
CONTINUOUS
 10
1.324843
 20
-0.164835
  0
VERTEX
  8
EBENE_1
 62
    39
  6
CONTINUOUS
 10
1.327329
 20
-0.169038
  0
VERTEX
  8
EBENE_1
 62
    39
  6
CONTINUOUS
 10
1.331401
 20
-0.171339
  0
VERTEX
  8
EBENE_1
 62
    39
  6
CONTINUOUS
 10
1.336268
 20
-0.171260
  0
SEQEND
  8
0
  0
POLYLINE
  8
EBENE_1
 62
    39
  6
CONTINUOUS
 66
     1
 40
0.003000
 41
0.003000
  0
VERTEX
  8
EBENE_1
 62
    39
  6
CONTINUOUS
 10
1.336268
 20
-0.171260
  0
VERTEX
  8
EBENE_1
 62
    39
  6
CONTINUOUS
 10
1.340659
 20
-0.168774
  0
VERTEX
  8
EBENE_1
 62
    39
  6
CONTINUOUS
 10
1.343304
 20
-0.164701
  0
VERTEX
  8
EBENE_1
 62
    39
  6
CONTINUOUS
 10
1.343409
 20
-0.159835
  0
SEQEND
  8
0
  0
POLYLINE
  8
EBENE_1
 62
    39
  6
CONTINUOUS
 66
     1
 40
0.003000
 41
0.003000
  0
VERTEX
  8
EBENE_1
 62
    39
  6
CONTINUOUS
 10
1.343409
 20
-0.159835
  0
VERTEX
  8
EBENE_1
 62
    39
  6
CONTINUOUS
 10
1.340739
 20
-0.155602
  0
VERTEX
  8
EBENE_1
 62
    39
  6
CONTINUOUS
 10
1.336321
 20
-0.153115
  0
VERTEX
  8
EBENE_1
 62
    39
  6
CONTINUOUS
 10
1.331268
 20
-0.152693
  0
SEQEND
  8
0
  0
POLYLINE
  8
EBENE_1
 62
    39
  6
CONTINUOUS
 66
     1
 40
0.003000
 41
0.003000
  0
VERTEX
  8
EBENE_1
 62
    39
  6
CONTINUOUS
 10
1.279134
 20
-0.111984
  0
VERTEX
  8
EBENE_1
 62
    39
  6
CONTINUOUS
 10
1.274927
 20
-0.114469
  0
VERTEX
  8
EBENE_1
 62
    39
  6
CONTINUOUS
 10
1.272625
 20
-0.118542
  0
VERTEX
  8
EBENE_1
 62
    39
  6
CONTINUOUS
 10
1.272705
 20
-0.123409
  0
SEQEND
  8
0
  0
POLYLINE
  8
EBENE_1
 62
    39
  6
CONTINUOUS
 66
     1
 40
0.003000
 41
0.003000
  0
VERTEX
  8
EBENE_1
 62
    39
  6
CONTINUOUS
 10
1.272705
 20
-0.123409
  0
VERTEX
  8
EBENE_1
 62
    39
  6
CONTINUOUS
 10
1.275192
 20
-0.127801
  0
VERTEX
  8
EBENE_1
 62
    39
  6
CONTINUOUS
 10
1.279266
 20
-0.130446
  0
VERTEX
  8
EBENE_1
 62
    39
  6
CONTINUOUS
 10
1.284134
 20
-0.130551
  0
SEQEND
  8
0
  0
POLYLINE
  8
EBENE_1
 62
    39
  6
CONTINUOUS
 66
     1
 40
0.003000
 41
0.003000
  0
VERTEX
  8
EBENE_1
 62
    39
  6
CONTINUOUS
 10
1.284134
 20
-0.130551
  0
VERTEX
  8
EBENE_1
 62
    39
  6
CONTINUOUS
 10
1.288842
 20
-0.127879
  0
VERTEX
  8
EBENE_1
 62
    39
  6
CONTINUOUS
 10
1.291329
 20
-0.123462
  0
VERTEX
  8
EBENE_1
 62
    39
  6
CONTINUOUS
 10
1.291276
 20
-0.118409
  0
SEQEND
  8
0
  0
POLYLINE
  8
EBENE_1
 62
    39
  6
CONTINUOUS
 66
     1
 40
0.003000
 41
0.003000
  0
VERTEX
  8
EBENE_1
 62
    39
  6
CONTINUOUS
 10
1.291276
 20
-0.118409
  0
VERTEX
  8
EBENE_1
 62
    39
  6
CONTINUOUS
 10
1.288762
 20
-0.114204
  0
VERTEX
  8
EBENE_1
 62
    39
  6
CONTINUOUS
 10
1.284503
 20
-0.111904
  0
VERTEX
  8
EBENE_1
 62
    39
  6
CONTINUOUS
 10
1.279134
 20
-0.111984
  0
SEQEND
  8
0
  0
POLYLINE
  8
EBENE_1
 62
    39
  6
CONTINUOUS
 66
     1
 40
0.003000
 41
0.003000
 70
     1
  0
VERTEX
  8
EBENE_1
 62
    39
  6
CONTINUOUS
 10
1.511244
 20
-0.174118
  0
VERTEX
  8
EBENE_1
 62
    39
  6
CONTINUOUS
 10
1.357693
 20
-0.217681
  0
VERTEX
  8
EBENE_1
 62
    39
  6
CONTINUOUS
 10
1.338527
 20
-0.220751
  0
VERTEX
  8
EBENE_1
 62
    39
  6
CONTINUOUS
 10
1.321012
 20
-0.220750
  0
VERTEX
  8
EBENE_1
 62
    39
  6
CONTINUOUS
 10
1.305133
 20
-0.217794
  0
VERTEX
  8
EBENE_1
 62
    39
  6
CONTINUOUS
 10
1.290877
 20
-0.211995
  0
VERTEX
  8
EBENE_1
 62
    39
  6
CONTINUOUS
 10
1.278227
 20
-0.203469
  0
VERTEX
  8
EBENE_1
 62
    39
  6
CONTINUOUS
 10
1.267170
 20
-0.192329
  0
VERTEX
  8
EBENE_1
 62
    39
  6
CONTINUOUS
 10
1.257689
 20
-0.178689
  0
VERTEX
  8
EBENE_1
 62
    39
  6
CONTINUOUS
 10
1.249771
 20
-0.162664
  0
VERTEX
  8
EBENE_1
 62
    39
  6
CONTINUOUS
 10
1.243401
 20
-0.144367
  0
VERTEX
  8
EBENE_1
 62
    39
  6
CONTINUOUS
 10
1.238563
 20
-0.123913
  0
VERTEX
  8
EBENE_1
 62
    39
  6
CONTINUOUS
 10
1.235243
 20
-0.101415
  0
VERTEX
  8
EBENE_1
 62
    39
  6
CONTINUOUS
 10
1.233425
 20
-0.076988
  0
VERTEX
  8
EBENE_1
 62
    39
  6
CONTINUOUS
 10
1.233425
 20
0.413654
  0
VERTEX
  8
EBENE_1
 62
    39
  6
CONTINUOUS
 10
1.240833
 20
0.433300
  0
VERTEX
  8
EBENE_1
 62
    39
  6
CONTINUOUS
 10
1.249200
 20
0.451766
  0
VERTEX
  8
EBENE_1
 62
    39
  6
CONTINUOUS
 10
1.258485
 20
0.469108
  0
VERTEX
  8
EBENE_1
 62
    39
  6
CONTINUOUS
 10
1.268646
 20
0.485384
  0
VERTEX
  8
EBENE_1
 62
    39
  6
CONTINUOUS
 10
1.279641
 20
0.500652
  0
VERTEX
  8
EBENE_1
 62
    39
  6
CONTINUOUS
 10
1.291430
 20
0.514971
  0
VERTEX
  8
EBENE_1
 62
    39
  6
CONTINUOUS
 10
1.303970
 20
0.528398
  0
VERTEX
  8
EBENE_1
 62
    39
  6
CONTINUOUS
 10
1.317220
 20
0.540991
  0
VERTEX
  8
EBENE_1
 62
    39
  6
CONTINUOUS
 10
1.331140
 20
0.552808
  0
VERTEX
  8
EBENE_1
 62
    39
  6
CONTINUOUS
 10
1.345687
 20
0.563908
  0
VERTEX
  8
EBENE_1
 62
    39
  6
CONTINUOUS
 10
1.360819
 20
0.574347
  0
VERTEX
  8
EBENE_1
 62
    39
  6
CONTINUOUS
 10
1.376497
 20
0.584184
  0
VERTEX
  8
EBENE_1
 62
    39
  6
CONTINUOUS
 10
1.392677
 20
0.593477
  0
VERTEX
  8
EBENE_1
 62
    39
  6
CONTINUOUS
 10
1.409319
 20
0.602284
  0
VERTEX
  8
EBENE_1
 62
    39
  6
CONTINUOUS
 10
1.426381
 20
0.610663
  0
VERTEX
  8
EBENE_1
 62
    39
  6
CONTINUOUS
 10
1.443822
 20
0.618672
  0
VERTEX
  8
EBENE_1
 62
    39
  6
CONTINUOUS
 10
1.461600
 20
0.626368
  0
VERTEX
  8
EBENE_1
 62
    39
  6
CONTINUOUS
 10
1.479674
 20
0.633810
  0
VERTEX
  8
EBENE_1
 62
    39
  6
CONTINUOUS
 10
1.498002
 20
0.641055
  0
VERTEX
  8
EBENE_1
 62
    39
  6
CONTINUOUS
 10
1.516543
 20
0.648162
  0
VERTEX
  8
EBENE_1
 62
    39
  6
CONTINUOUS
 10
1.535256
 20
0.655189
  0
VERTEX
  8
EBENE_1
 62
    39
  6
CONTINUOUS
 10
1.554098
 20
0.662193
  0
VERTEX
  8
EBENE_1
 62
    39
  6
CONTINUOUS
 10
1.551953
 20
-0.099843
  0
VERTEX
  8
EBENE_1
 62
    39
  6
CONTINUOUS
 10
1.551619
 20
-0.127315
  0
VERTEX
  8
EBENE_1
 62
    39
  6
CONTINUOUS
 10
1.547133
 20
-0.145549
  0
VERTEX
  8
EBENE_1
 62
    39
  6
CONTINUOUS
 10
1.534880
 20
-0.159499
  0
SEQEND
  8
0
  0
POLYLINE
  8
EBENE_1
 62
    39
  6
CONTINUOUS
 66
     1
 40
0.003000
 41
0.003000
 70
     1
  0
VERTEX
  8
EBENE_1
 62
    39
  6
CONTINUOUS
 10
1.494819
 20
-0.173406
  0
VERTEX
  8
EBENE_1
 62
    39
  6
CONTINUOUS
 10
1.359122
 20
-0.211969
  0
VERTEX
  8
EBENE_1
 62
    39
  6
CONTINUOUS
 10
1.340476
 20
-0.214902
  0
VERTEX
  8
EBENE_1
 62
    39
  6
CONTINUOUS
 10
1.323452
 20
-0.214845
  0
VERTEX
  8
EBENE_1
 62
    39
  6
CONTINUOUS
 10
1.308035
 20
-0.211902
  0
VERTEX
  8
EBENE_1
 62
    39
  6
CONTINUOUS
 10
1.294210
 20
-0.206176
  0
VERTEX
  8
EBENE_1
 62
    39
  6
CONTINUOUS
 10
1.281962
 20
-0.197772
  0
VERTEX
  8
EBENE_1
 62
    39
  6
CONTINUOUS
 10
1.271277
 20
-0.186794
  0
VERTEX
  8
EBENE_1
 62
    39
  6
CONTINUOUS
 10
1.262138
 20
-0.173346
  0
VERTEX
  8
EBENE_1
 62
    39
  6
CONTINUOUS
 10
1.254533
 20
-0.157533
  0
VERTEX
  8
EBENE_1
 62
    39
  6
CONTINUOUS
 10
1.248445
 20
-0.139457
  0
VERTEX
  8
EBENE_1
 62
    39
  6
CONTINUOUS
 10
1.243859
 20
-0.119224
  0
VERTEX
  8
EBENE_1
 62
    39
  6
CONTINUOUS
 10
1.240762
 20
-0.096937
  0
VERTEX
  8
EBENE_1
 62
    39
  6
CONTINUOUS
 10
1.239138
 20
-0.072701
  0
VERTEX
  8
EBENE_1
 62
    39
  6
CONTINUOUS
 10
1.238425
 20
0.410799
  0
VERTEX
  8
EBENE_1
 62
    39
  6
CONTINUOUS
 10
1.245651
 20
0.430286
  0
VERTEX
  8
EBENE_1
 62
    39
  6
CONTINUOUS
 10
1.253858
 20
0.448656
  0
VERTEX
  8
EBENE_1
 62
    39
  6
CONTINUOUS
 10
1.263000
 20
0.465962
  0
VERTEX
  8
EBENE_1
 62
    39
  6
CONTINUOUS
 10
1.273031
 20
0.482256
  0
VERTEX
  8
EBENE_1
 62
    39
  6
CONTINUOUS
 10
1.283906
 20
0.497591
  0
VERTEX
  8
EBENE_1
 62
    39
  6
CONTINUOUS
 10
1.295579
 20
0.512019
  0
VERTEX
  8
EBENE_1
 62
    39
  6
CONTINUOUS
 10
1.308003
 20
0.525593
  0
VERTEX
  8
EBENE_1
 62
    39
  6
CONTINUOUS
 10
1.321133
 20
0.538363
  0
VERTEX
  8
EBENE_1
 62
    39
  6
CONTINUOUS
 10
1.334923
 20
0.550384
  0
VERTEX
  8
EBENE_1
 62
    39
  6
CONTINUOUS
 10
1.349328
 20
0.561707
  0
VERTEX
  8
EBENE_1
 62
    39
  6
CONTINUOUS
 10
1.364300
 20
0.572384
  0
VERTEX
  8
EBENE_1
 62
    39
  6
CONTINUOUS
 10
1.379795
 20
0.582468
  0
VERTEX
  8
EBENE_1
 62
    39
  6
CONTINUOUS
 10
1.395766
 20
0.592011
  0
VERTEX
  8
EBENE_1
 62
    39
  6
CONTINUOUS
 10
1.412168
 20
0.601066
  0
VERTEX
  8
EBENE_1
 62
    39
  6
CONTINUOUS
 10
1.428955
 20
0.609684
  0
VERTEX
  8
EBENE_1
 62
    39
  6
CONTINUOUS
 10
1.446081
 20
0.617919
  0
VERTEX
  8
EBENE_1
 62
    39
  6
CONTINUOUS
 10
1.463499
 20
0.625822
  0
VERTEX
  8
EBENE_1
 62
    39
  6
CONTINUOUS
 10
1.481165
 20
0.633445
  0
VERTEX
  8
EBENE_1
 62
    39
  6
CONTINUOUS
 10
1.499032
 20
0.640842
  0
VERTEX
  8
EBENE_1
 62
    39
  6
CONTINUOUS
 10
1.517054
 20
0.648064
  0
VERTEX
  8
EBENE_1
 62
    39
  6
CONTINUOUS
 10
1.535186
 20
0.655163
  0
VERTEX
  8
EBENE_1
 62
    39
  6
CONTINUOUS
 10
1.553382
 20
0.662193
  0
VERTEX
  8
EBENE_1
 62
    39
  6
CONTINUOUS
 10
1.553382
 20
-0.100555
  0
VERTEX
  8
EBENE_1
 62
    39
  6
CONTINUOUS
 10
1.544833
 20
-0.130518
  0
VERTEX
  8
EBENE_1
 62
    39
  6
CONTINUOUS
 10
1.533205
 20
-0.150638
  0
VERTEX
  8
EBENE_1
 62
    39
  6
CONTINUOUS
 10
1.517025
 20
-0.163930
  0
SEQEND
  8
0
  0
POLYLINE
  8
EBENE_1
 62
    39
  6
CONTINUOUS
 66
     1
 40
0.003000
 41
0.003000
 70
     1
  0
VERTEX
  8
EBENE_1
 62
    39
  6
CONTINUOUS
 10
1.446252
 20
0.559350
  0
VERTEX
  8
EBENE_1
 62
    39
  6
CONTINUOUS
 10
1.451385
 20
0.560672
  0
VERTEX
  8
EBENE_1
 62
    39
  6
CONTINUOUS
 10
1.454930
 20
0.564216
  0
VERTEX
  8
EBENE_1
 62
    39
  6
CONTINUOUS
 10
1.456252
 20
0.569346
  0
VERTEX
  8
EBENE_1
 62
    39
  6
CONTINUOUS
 10
1.454930
 20
0.573977
  0
VERTEX
  8
EBENE_1
 62
    39
  6
CONTINUOUS
 10
1.451385
 20
0.577337
  0
VERTEX
  8
EBENE_1
 62
    39
  6
CONTINUOUS
 10
1.446252
 20
0.578634
  0
VERTEX
  8
EBENE_1
 62
    39
  6
CONTINUOUS
 10
1.441625
 20
0.577337
  0
VERTEX
  8
EBENE_1
 62
    39
  6
CONTINUOUS
 10
1.438265
 20
0.573977
  0
VERTEX
  8
EBENE_1
 62
    39
  6
CONTINUOUS
 10
1.436969
 20
0.569346
  0
VERTEX
  8
EBENE_1
 62
    39
  6
CONTINUOUS
 10
1.438265
 20
0.564216
  0
VERTEX
  8
EBENE_1
 62
    39
  6
CONTINUOUS
 10
1.441625
 20
0.560672
  0
SEQEND
  8
0
  0
POLYLINE
  8
EBENE_1
 62
    39
  6
CONTINUOUS
 66
     1
 40
0.003000
 41
0.003000
 70
     1
  0
VERTEX
  8
EBENE_1
 62
    39
  6
CONTINUOUS
 10
1.514102
 20
0.560063
  0
VERTEX
  8
EBENE_1
 62
    39
  6
CONTINUOUS
 10
1.519234
 20
0.561360
  0
VERTEX
  8
EBENE_1
 62
    39
  6
CONTINUOUS
 10
1.522779
 20
0.564719
  0
VERTEX
  8
EBENE_1
 62
    39
  6
CONTINUOUS
 10
1.524102
 20
0.569346
  0
VERTEX
  8
EBENE_1
 62
    39
  6
CONTINUOUS
 10
1.522779
 20
0.573977
  0
VERTEX
  8
EBENE_1
 62
    39
  6
CONTINUOUS
 10
1.519234
 20
0.577337
  0
VERTEX
  8
EBENE_1
 62
    39
  6
CONTINUOUS
 10
1.514102
 20
0.578634
  0
VERTEX
  8
EBENE_1
 62
    39
  6
CONTINUOUS
 10
1.509473
 20
0.577337
  0
VERTEX
  8
EBENE_1
 62
    39
  6
CONTINUOUS
 10
1.506115
 20
0.573977
  0
VERTEX
  8
EBENE_1
 62
    39
  6
CONTINUOUS
 10
1.504819
 20
0.569346
  0
VERTEX
  8
EBENE_1
 62
    39
  6
CONTINUOUS
 10
1.506115
 20
0.564719
  0
VERTEX
  8
EBENE_1
 62
    39
  6
CONTINUOUS
 10
1.509473
 20
0.561360
  0
SEQEND
  8
0
  0
POLYLINE
  8
EBENE_1
 62
    39
  6
CONTINUOUS
 66
     1
 40
0.003000
 41
0.003000
 70
     1
  0
VERTEX
  8
EBENE_1
 62
    39
  6
CONTINUOUS
 10
1.514102
 20
0.430083
  0
VERTEX
  8
EBENE_1
 62
    39
  6
CONTINUOUS
 10
1.519234
 20
0.431378
  0
VERTEX
  8
EBENE_1
 62
    39
  6
CONTINUOUS
 10
1.522779
 20
0.434737
  0
VERTEX
  8
EBENE_1
 62
    39
  6
CONTINUOUS
 10
1.524102
 20
0.439366
  0
VERTEX
  8
EBENE_1
 62
    39
  6
CONTINUOUS
 10
1.522779
 20
0.444498
  0
VERTEX
  8
EBENE_1
 62
    39
  6
CONTINUOUS
 10
1.519234
 20
0.448043
  0
VERTEX
  8
EBENE_1
 62
    39
  6
CONTINUOUS
 10
1.514102
 20
0.449366
  0
VERTEX
  8
EBENE_1
 62
    39
  6
CONTINUOUS
 10
1.509473
 20
0.448043
  0
VERTEX
  8
EBENE_1
 62
    39
  6
CONTINUOUS
 10
1.506115
 20
0.444498
  0
VERTEX
  8
EBENE_1
 62
    39
  6
CONTINUOUS
 10
1.504819
 20
0.439366
  0
VERTEX
  8
EBENE_1
 62
    39
  6
CONTINUOUS
 10
1.506115
 20
0.434737
  0
VERTEX
  8
EBENE_1
 62
    39
  6
CONTINUOUS
 10
1.509473
 20
0.431378
  0
SEQEND
  8
0
  0
POLYLINE
  8
EBENE_1
 62
    39
  6
CONTINUOUS
 66
     1
 40
0.003000
 41
0.003000
  0
VERTEX
  8
EBENE_1
 62
    39
  6
CONTINUOUS
 10
1.270563
 20
0.294386
  0
VERTEX
  8
EBENE_1
 62
    39
  6
CONTINUOUS
 10
1.266172
 20
0.291899
  0
VERTEX
  8
EBENE_1
 62
    39
  6
CONTINUOUS
 10
1.263527
 20
0.287826
  0
VERTEX
  8
EBENE_1
 62
    39
  6
CONTINUOUS
 10
1.263421
 20
0.282961
  0
SEQEND
  8
0
  0
POLYLINE
  8
EBENE_1
 62
    39
  6
CONTINUOUS
 66
     1
 40
0.003000
 41
0.003000
  0
VERTEX
  8
EBENE_1
 62
    39
  6
CONTINUOUS
 10
1.263421
 20
0.282961
  0
VERTEX
  8
EBENE_1
 62
    39
  6
CONTINUOUS
 10
1.266093
 20
0.278251
  0
VERTEX
  8
EBENE_1
 62
    39
  6
CONTINUOUS
 10
1.270510
 20
0.275765
  0
VERTEX
  8
EBENE_1
 62
    39
  6
CONTINUOUS
 10
1.275563
 20
0.275819
  0
SEQEND
  8
0
  0
POLYLINE
  8
EBENE_1
 62
    39
  6
CONTINUOUS
 66
     1
 40
0.003000
 41
0.003000
  0
VERTEX
  8
EBENE_1
 62
    39
  6
CONTINUOUS
 10
1.275563
 20
0.275819
  0
VERTEX
  8
EBENE_1
 62
    39
  6
CONTINUOUS
 10
1.279769
 20
0.278303
  0
VERTEX
  8
EBENE_1
 62
    39
  6
CONTINUOUS
 10
1.282070
 20
0.282376
  0
VERTEX
  8
EBENE_1
 62
    39
  6
CONTINUOUS
 10
1.281992
 20
0.287244
  0
SEQEND
  8
0
  0
POLYLINE
  8
EBENE_1
 62
    39
  6
CONTINUOUS
 66
     1
 40
0.003000
 41
0.003000
  0
VERTEX
  8
EBENE_1
 62
    39
  6
CONTINUOUS
 10
1.281992
 20
0.287244
  0
VERTEX
  8
EBENE_1
 62
    39
  6
CONTINUOUS
 10
1.279505
 20
0.291952
  0
VERTEX
  8
EBENE_1
 62
    39
  6
CONTINUOUS
 10
1.275431
 20
0.294439
  0
VERTEX
  8
EBENE_1
 62
    39
  6
CONTINUOUS
 10
1.270563
 20
0.294386
  0
SEQEND
  8
0
  0
POLYLINE
  8
EBENE_1
 62
    39
  6
CONTINUOUS
 66
     1
 40
0.003000
 41
0.003000
  0
VERTEX
  8
EBENE_1
 62
    39
  6
CONTINUOUS
 10
1.165579
 20
0.222252
  0
VERTEX
  8
EBENE_1
 62
    39
  6
CONTINUOUS
 10
1.161346
 20
0.219766
  0
VERTEX
  8
EBENE_1
 62
    39
  6
CONTINUOUS
 10
1.158859
 20
0.215693
  0
VERTEX
  8
EBENE_1
 62
    39
  6
CONTINUOUS
 10
1.158437
 20
0.210827
  0
SEQEND
  8
0
  0
POLYLINE
  8
EBENE_1
 62
    39
  6
CONTINUOUS
 66
     1
 40
0.003000
 41
0.003000
  0
VERTEX
  8
EBENE_1
 62
    39
  6
CONTINUOUS
 10
1.158437
 20
0.210827
  0
VERTEX
  8
EBENE_1
 62
    39
  6
CONTINUOUS
 10
1.161109
 20
0.206117
  0
VERTEX
  8
EBENE_1
 62
    39
  6
CONTINUOUS
 10
1.165526
 20
0.203631
  0
VERTEX
  8
EBENE_1
 62
    39
  6
CONTINUOUS
 10
1.170579
 20
0.203685
  0
SEQEND
  8
0
  0
POLYLINE
  8
EBENE_1
 62
    39
  6
CONTINUOUS
 66
     1
 40
0.003000
 41
0.003000
  0
VERTEX
  8
EBENE_1
 62
    39
  6
CONTINUOUS
 10
1.170579
 20
0.203685
  0
VERTEX
  8
EBENE_1
 62
    39
  6
CONTINUOUS
 10
1.174783
 20
0.206169
  0
VERTEX
  8
EBENE_1
 62
    39
  6
CONTINUOUS
 10
1.177084
 20
0.210243
  0
VERTEX
  8
EBENE_1
 62
    39
  6
CONTINUOUS
 10
1.177004
 20
0.215110
  0
SEQEND
  8
0
  0
POLYLINE
  8
EBENE_1
 62
    39
  6
CONTINUOUS
 66
     1
 40
0.003000
 41
0.003000
  0
VERTEX
  8
EBENE_1
 62
    39
  6
CONTINUOUS
 10
1.177004
 20
0.215110
  0
VERTEX
  8
EBENE_1
 62
    39
  6
CONTINUOUS
 10
1.174836
 20
0.219818
  0
VERTEX
  8
EBENE_1
 62
    39
  6
CONTINUOUS
 10
1.170605
 20
0.222305
  0
VERTEX
  8
EBENE_1
 62
    39
  6
CONTINUOUS
 10
1.165579
 20
0.222252
  0
SEQEND
  8
0
  0
POLYLINE
  8
EBENE_1
 62
    39
  6
CONTINUOUS
 66
     1
 40
0.003000
 41
0.003000
  0
VERTEX
  8
EBENE_1
 62
    39
  6
CONTINUOUS
 10
1.113441
 20
0.263677
  0
VERTEX
  8
EBENE_1
 62
    39
  6
CONTINUOUS
 10
1.109235
 20
0.261164
  0
VERTEX
  8
EBENE_1
 62
    39
  6
CONTINUOUS
 10
1.106935
 20
0.256905
  0
VERTEX
  8
EBENE_1
 62
    39
  6
CONTINUOUS
 10
1.107016
 20
0.251535
  0
SEQEND
  8
0
  0
POLYLINE
  8
EBENE_1
 62
    39
  6
CONTINUOUS
 66
     1
 40
0.003000
 41
0.003000
  0
VERTEX
  8
EBENE_1
 62
    39
  6
CONTINUOUS
 10
1.107016
 20
0.251535
  0
VERTEX
  8
EBENE_1
 62
    39
  6
CONTINUOUS
 10
1.109500
 20
0.247329
  0
VERTEX
  8
EBENE_1
 62
    39
  6
CONTINUOUS
 10
1.113573
 20
0.245027
  0
VERTEX
  8
EBENE_1
 62
    39
  6
CONTINUOUS
 10
1.118441
 20
0.245106
  0
SEQEND
  8
0
  0
POLYLINE
  8
EBENE_1
 62
    39
  6
CONTINUOUS
 66
     1
 40
0.003000
 41
0.003000
  0
VERTEX
  8
EBENE_1
 62
    39
  6
CONTINUOUS
 10
1.118441
 20
0.245106
  0
VERTEX
  8
EBENE_1
 62
    39
  6
CONTINUOUS
 10
1.122832
 20
0.247593
  0
VERTEX
  8
EBENE_1
 62
    39
  6
CONTINUOUS
 10
1.125477
 20
0.251668
  0
VERTEX
  8
EBENE_1
 62
    39
  6
CONTINUOUS
 10
1.125583
 20
0.256535
  0
SEQEND
  8
0
  0
POLYLINE
  8
EBENE_1
 62
    39
  6
CONTINUOUS
 66
     1
 40
0.003000
 41
0.003000
  0
VERTEX
  8
EBENE_1
 62
    39
  6
CONTINUOUS
 10
1.125583
 20
0.256535
  0
VERTEX
  8
EBENE_1
 62
    39
  6
CONTINUOUS
 10
1.122911
 20
0.260924
  0
VERTEX
  8
EBENE_1
 62
    39
  6
CONTINUOUS
 10
1.118493
 20
0.263569
  0
VERTEX
  8
EBENE_1
 62
    39
  6
CONTINUOUS
 10
1.113441
 20
0.263677
  0
SEQEND
  8
0
  0
POLYLINE
  8
EBENE_1
 62
    39
  6
CONTINUOUS
 66
     1
 40
0.003000
 41
0.003000
 70
     1
  0
VERTEX
  8
EBENE_1
 62
    39
  6
CONTINUOUS
 10
1.385547
 20
0.209398
  0
VERTEX
  8
EBENE_1
 62
    39
  6
CONTINUOUS
 10
1.192004
 20
0.157976
  0
VERTEX
  8
EBENE_1
 62
    39
  6
CONTINUOUS
 10
1.172837
 20
0.154894
  0
VERTEX
  8
EBENE_1
 62
    39
  6
CONTINUOUS
 10
1.155321
 20
0.154859
  0
VERTEX
  8
EBENE_1
 62
    39
  6
CONTINUOUS
 10
1.139443
 20
0.157765
  0
VERTEX
  8
EBENE_1
 62
    39
  6
CONTINUOUS
 10
1.125186
 20
0.163506
  0
VERTEX
  8
EBENE_1
 62
    39
  6
CONTINUOUS
 10
1.112536
 20
0.171974
  0
VERTEX
  8
EBENE_1
 62
    39
  6
CONTINUOUS
 10
1.101479
 20
0.183063
  0
VERTEX
  8
EBENE_1
 62
    39
  6
CONTINUOUS
 10
1.091998
 20
0.196667
  0
VERTEX
  8
EBENE_1
 62
    39
  6
CONTINUOUS
 10
1.084080
 20
0.212679
  0
VERTEX
  8
EBENE_1
 62
    39
  6
CONTINUOUS
 10
1.077710
 20
0.230992
  0
VERTEX
  8
EBENE_1
 62
    39
  6
CONTINUOUS
 10
1.072871
 20
0.251500
  0
VERTEX
  8
EBENE_1
 62
    39
  6
CONTINUOUS
 10
1.069550
 20
0.274096
  0
VERTEX
  8
EBENE_1
 62
    39
  6
CONTINUOUS
 10
1.067732
 20
0.298673
  0
VERTEX
  8
EBENE_1
 62
    39
  6
CONTINUOUS
 10
1.067732
 20
0.788602
  0
VERTEX
  8
EBENE_1
 62
    39
  6
CONTINUOUS
 10
1.075170
 20
0.808373
  0
VERTEX
  8
EBENE_1
 62
    39
  6
CONTINUOUS
 10
1.083623
 20
0.827010
  0
VERTEX
  8
EBENE_1
 62
    39
  6
CONTINUOUS
 10
1.093044
 20
0.844567
  0
VERTEX
  8
EBENE_1
 62
    39
  6
CONTINUOUS
 10
1.103384
 20
0.861096
  0
VERTEX
  8
EBENE_1
 62
    39
  6
CONTINUOUS
 10
1.114597
 20
0.876652
  0
VERTEX
  8
EBENE_1
 62
    39
  6
CONTINUOUS
 10
1.126635
 20
0.891287
  0
VERTEX
  8
EBENE_1
 62
    39
  6
CONTINUOUS
 10
1.139450
 20
0.905055
  0
VERTEX
  8
EBENE_1
 62
    39
  6
CONTINUOUS
 10
1.152996
 20
0.918008
  0
VERTEX
  8
EBENE_1
 62
    39
  6
CONTINUOUS
 10
1.167224
 20
0.930199
  0
VERTEX
  8
EBENE_1
 62
    39
  6
CONTINUOUS
 10
1.182086
 20
0.941682
  0
VERTEX
  8
EBENE_1
 62
    39
  6
CONTINUOUS
 10
1.197537
 20
0.952510
  0
VERTEX
  8
EBENE_1
 62
    39
  6
CONTINUOUS
 10
1.213527
 20
0.962736
  0
VERTEX
  8
EBENE_1
 62
    39
  6
CONTINUOUS
 10
1.230011
 20
0.972413
  0
VERTEX
  8
EBENE_1
 62
    39
  6
CONTINUOUS
 10
1.246939
 20
0.981594
  0
VERTEX
  8
EBENE_1
 62
    39
  6
CONTINUOUS
 10
1.264264
 20
0.990332
  0
VERTEX
  8
EBENE_1
 62
    39
  6
CONTINUOUS
 10
1.281940
 20
0.998681
  0
VERTEX
  8
EBENE_1
 62
    39
  6
CONTINUOUS
 10
1.299919
 20
1.006693
  0
VERTEX
  8
EBENE_1
 62
    39
  6
CONTINUOUS
 10
1.318153
 20
1.014422
  0
VERTEX
  8
EBENE_1
 62
    39
  6
CONTINUOUS
 10
1.336594
 20
1.021921
  0
VERTEX
  8
EBENE_1
 62
    39
  6
CONTINUOUS
 10
1.355195
 20
1.029242
  0
VERTEX
  8
EBENE_1
 62
    39
  6
CONTINUOUS
 10
1.373910
 20
1.036440
  0
VERTEX
  8
EBENE_1
 62
    39
  6
CONTINUOUS
 10
1.392689
 20
1.043567
  0
SEQEND
  8
0
  0
POLYLINE
  8
EBENE_1
 62
    39
  6
CONTINUOUS
 66
     1
 40
0.003000
 41
0.003000
 70
     1
  0
VERTEX
  8
EBENE_1
 62
    39
  6
CONTINUOUS
 10
1.380547
 20
0.214398
  0
VERTEX
  8
EBENE_1
 62
    39
  6
CONTINUOUS
 10
1.192717
 20
0.163689
  0
VERTEX
  8
EBENE_1
 62
    39
  6
CONTINUOUS
 10
1.174235
 20
0.160605
  0
VERTEX
  8
EBENE_1
 62
    39
  6
CONTINUOUS
 10
1.157345
 20
0.160562
  0
VERTEX
  8
EBENE_1
 62
    39
  6
CONTINUOUS
 10
1.142033
 20
0.163444
  0
VERTEX
  8
EBENE_1
 62
    39
  6
CONTINUOUS
 10
1.128282
 20
0.169139
  0
VERTEX
  8
EBENE_1
 62
    39
  6
CONTINUOUS
 10
1.116079
 20
0.177532
  0
VERTEX
  8
EBENE_1
 62
    39
  6
CONTINUOUS
 10
1.105408
 20
0.188508
  0
VERTEX
  8
EBENE_1
 62
    39
  6
CONTINUOUS
 10
1.096255
 20
0.201955
  0
VERTEX
  8
EBENE_1
 62
    39
  6
CONTINUOUS
 10
1.088605
 20
0.217757
  0
VERTEX
  8
EBENE_1
 62
    39
  6
CONTINUOUS
 10
1.082442
 20
0.235801
  0
VERTEX
  8
EBENE_1
 62
    39
  6
CONTINUOUS
 10
1.077752
 20
0.255973
  0
VERTEX
  8
EBENE_1
 62
    39
  6
CONTINUOUS
 10
1.074521
 20
0.278159
  0
VERTEX
  8
EBENE_1
 62
    39
  6
CONTINUOUS
 10
1.072732
 20
0.302244
  0
VERTEX
  8
EBENE_1
 62
    39
  6
CONTINUOUS
 10
1.072732
 20
0.786461
  0
VERTEX
  8
EBENE_1
 62
    39
  6
CONTINUOUS
 10
1.079954
 20
0.805859
  0
VERTEX
  8
EBENE_1
 62
    39
  6
CONTINUOUS
 10
1.088149
 20
0.824156
  0
VERTEX
  8
EBENE_1
 62
    39
  6
CONTINUOUS
 10
1.097273
 20
0.841404
  0
VERTEX
  8
EBENE_1
 62
    39
  6
CONTINUOUS
 10
1.107281
 20
0.857653
  0
VERTEX
  8
EBENE_1
 62
    39
  6
CONTINUOUS
 10
1.118128
 20
0.872954
  0
VERTEX
  8
EBENE_1
 62
    39
  6
CONTINUOUS
 10
1.129770
 20
0.887358
  0
VERTEX
  8
EBENE_1
 62
    39
  6
CONTINUOUS
 10
1.142163
 20
0.900915
  0
VERTEX
  8
EBENE_1
 62
    39
  6
CONTINUOUS
 10
1.155261
 20
0.913676
  0
VERTEX
  8
EBENE_1
 62
    39
  6
CONTINUOUS
 10
1.169019
 20
0.925691
  0
VERTEX
  8
EBENE_1
 62
    39
  6
CONTINUOUS
 10
1.183394
 20
0.937012
  0
VERTEX
  8
EBENE_1
 62
    39
  6
CONTINUOUS
 10
1.198340
 20
0.947689
  0
VERTEX
  8
EBENE_1
 62
    39
  6
CONTINUOUS
 10
1.213813
 20
0.957773
  0
VERTEX
  8
EBENE_1
 62
    39
  6
CONTINUOUS
 10
1.229768
 20
0.967314
  0
VERTEX
  8
EBENE_1
 62
    39
  6
CONTINUOUS
 10
1.246161
 20
0.976364
  0
VERTEX
  8
EBENE_1
 62
    39
  6
CONTINUOUS
 10
1.262946
 20
0.984972
  0
VERTEX
  8
EBENE_1
 62
    39
  6
CONTINUOUS
 10
1.280079
 20
0.993190
  0
VERTEX
  8
EBENE_1
 62
    39
  6
CONTINUOUS
 10
1.297516
 20
1.001069
  0
VERTEX
  8
EBENE_1
 62
    39
  6
CONTINUOUS
 10
1.315212
 20
1.008658
  0
VERTEX
  8
EBENE_1
 62
    39
  6
CONTINUOUS
 10
1.333122
 20
1.016010
  0
VERTEX
  8
EBENE_1
 62
    39
  6
CONTINUOUS
 10
1.351201
 20
1.023174
  0
VERTEX
  8
EBENE_1
 62
    39
  6
CONTINUOUS
 10
1.369405
 20
1.030201
  0
VERTEX
  8
EBENE_1
 62
    39
  6
CONTINUOUS
 10
1.387689
 20
1.037142
  0
SEQEND
  8
0
  0
POLYLINE
  8
EBENE_1
 62
    39
  6
CONTINUOUS
 66
     1
 40
0.003000
 41
0.003000
  0
VERTEX
  8
EBENE_1
 62
    39
  6
CONTINUOUS
 10
1.434110
 20
0.334382
  0
VERTEX
  8
EBENE_1
 62
    39
  6
CONTINUOUS
 10
1.429721
 20
0.331710
  0
VERTEX
  8
EBENE_1
 62
    39
  6
CONTINUOUS
 10
1.427076
 20
0.327293
  0
VERTEX
  8
EBENE_1
 62
    39
  6
CONTINUOUS
 10
1.426969
 20
0.322240
  0
SEQEND
  8
0
  0
POLYLINE
  8
EBENE_1
 62
    39
  6
CONTINUOUS
 66
     1
 40
0.003000
 41
0.003000
  0
VERTEX
  8
EBENE_1
 62
    39
  6
CONTINUOUS
 10
1.426969
 20
0.322240
  0
VERTEX
  8
EBENE_1
 62
    39
  6
CONTINUOUS
 10
1.429640
 20
0.318034
  0
VERTEX
  8
EBENE_1
 62
    39
  6
CONTINUOUS
 10
1.434058
 20
0.315732
  0
VERTEX
  8
EBENE_1
 62
    39
  6
CONTINUOUS
 10
1.439110
 20
0.315811
  0
SEQEND
  8
0
  0
POLYLINE
  8
EBENE_1
 62
    39
  6
CONTINUOUS
 66
     1
 40
0.003000
 41
0.003000
  0
VERTEX
  8
EBENE_1
 62
    39
  6
CONTINUOUS
 10
1.439110
 20
0.315811
  0
VERTEX
  8
EBENE_1
 62
    39
  6
CONTINUOUS
 10
1.443317
 20
0.317981
  0
VERTEX
  8
EBENE_1
 62
    39
  6
CONTINUOUS
 10
1.445619
 20
0.322214
  0
VERTEX
  8
EBENE_1
 62
    39
  6
CONTINUOUS
 10
1.445539
 20
0.327240
  0
SEQEND
  8
0
  0
POLYLINE
  8
EBENE_1
 62
    39
  6
CONTINUOUS
 66
     1
 40
0.003000
 41
0.003000
  0
VERTEX
  8
EBENE_1
 62
    39
  6
CONTINUOUS
 10
1.445539
 20
0.327240
  0
VERTEX
  8
EBENE_1
 62
    39
  6
CONTINUOUS
 10
1.443052
 20
0.331472
  0
VERTEX
  8
EBENE_1
 62
    39
  6
CONTINUOUS
 10
1.438978
 20
0.333958
  0
VERTEX
  8
EBENE_1
 62
    39
  6
CONTINUOUS
 10
1.434110
 20
0.334382
  0
SEQEND
  8
0
  0
POLYLINE
  8
EBENE_1
 62
    39
  6
CONTINUOUS
 66
     1
 40
0.003000
 41
0.003000
  0
VERTEX
  8
EBENE_1
 62
    39
  6
CONTINUOUS
 10
1.329126
 20
0.262248
  0
VERTEX
  8
EBENE_1
 62
    39
  6
CONTINUOUS
 10
1.324920
 20
0.259576
  0
VERTEX
  8
EBENE_1
 62
    39
  6
CONTINUOUS
 10
1.322620
 20
0.255159
  0
VERTEX
  8
EBENE_1
 62
    39
  6
CONTINUOUS
 10
1.322701
 20
0.250106
  0
SEQEND
  8
0
  0
POLYLINE
  8
EBENE_1
 62
    39
  6
CONTINUOUS
 66
     1
 40
0.003000
 41
0.003000
  0
VERTEX
  8
EBENE_1
 62
    39
  6
CONTINUOUS
 10
1.322701
 20
0.250106
  0
VERTEX
  8
EBENE_1
 62
    39
  6
CONTINUOUS
 10
1.324868
 20
0.245901
  0
VERTEX
  8
EBENE_1
 62
    39
  6
CONTINUOUS
 10
1.329100
 20
0.243599
  0
VERTEX
  8
EBENE_1
 62
    39
  6
CONTINUOUS
 10
1.334126
 20
0.243677
  0
SEQEND
  8
0
  0
POLYLINE
  8
EBENE_1
 62
    39
  6
CONTINUOUS
 66
     1
 40
0.003000
 41
0.003000
  0
VERTEX
  8
EBENE_1
 62
    39
  6
CONTINUOUS
 10
1.334126
 20
0.243677
  0
VERTEX
  8
EBENE_1
 62
    39
  6
CONTINUOUS
 10
1.338333
 20
0.245848
  0
VERTEX
  8
EBENE_1
 62
    39
  6
CONTINUOUS
 10
1.340635
 20
0.250080
  0
VERTEX
  8
EBENE_1
 62
    39
  6
CONTINUOUS
 10
1.340555
 20
0.255106
  0
SEQEND
  8
0
  0
POLYLINE
  8
EBENE_1
 62
    39
  6
CONTINUOUS
 66
     1
 40
0.003000
 41
0.003000
  0
VERTEX
  8
EBENE_1
 62
    39
  6
CONTINUOUS
 10
1.340555
 20
0.255106
  0
VERTEX
  8
EBENE_1
 62
    39
  6
CONTINUOUS
 10
1.338385
 20
0.259338
  0
VERTEX
  8
EBENE_1
 62
    39
  6
CONTINUOUS
 10
1.334152
 20
0.261824
  0
VERTEX
  8
EBENE_1
 62
    39
  6
CONTINUOUS
 10
1.329126
 20
0.262248
  0
SEQEND
  8
0
  0
POLYLINE
  8
EBENE_1
 62
    39
  6
CONTINUOUS
 66
     1
 40
0.003000
 41
0.003000
  0
VERTEX
  8
EBENE_1
 62
    39
  6
CONTINUOUS
 10
1.276992
 20
0.302957
  0
VERTEX
  8
EBENE_1
 62
    39
  6
CONTINUOUS
 10
1.272786
 20
0.300470
  0
VERTEX
  8
EBENE_1
 62
    39
  6
CONTINUOUS
 10
1.270484
 20
0.296395
  0
VERTEX
  8
EBENE_1
 62
    39
  6
CONTINUOUS
 10
1.270563
 20
0.291528
  0
SEQEND
  8
0
  0
POLYLINE
  8
EBENE_1
 62
    39
  6
CONTINUOUS
 66
     1
 40
0.003000
 41
0.003000
  0
VERTEX
  8
EBENE_1
 62
    39
  6
CONTINUOUS
 10
1.270563
 20
0.291528
  0
VERTEX
  8
EBENE_1
 62
    39
  6
CONTINUOUS
 10
1.273050
 20
0.287139
  0
VERTEX
  8
EBENE_1
 62
    39
  6
CONTINUOUS
 10
1.277124
 20
0.284494
  0
VERTEX
  8
EBENE_1
 62
    39
  6
CONTINUOUS
 10
1.281992
 20
0.284386
  0
SEQEND
  8
0
  0
POLYLINE
  8
EBENE_1
 62
    39
  6
CONTINUOUS
 66
     1
 40
0.003000
 41
0.003000
  0
VERTEX
  8
EBENE_1
 62
    39
  6
CONTINUOUS
 10
1.281992
 20
0.284386
  0
VERTEX
  8
EBENE_1
 62
    39
  6
CONTINUOUS
 10
1.286381
 20
0.287058
  0
VERTEX
  8
EBENE_1
 62
    39
  6
CONTINUOUS
 10
1.289026
 20
0.291475
  0
VERTEX
  8
EBENE_1
 62
    39
  6
CONTINUOUS
 10
1.289134
 20
0.296528
  0
SEQEND
  8
0
  0
POLYLINE
  8
EBENE_1
 62
    39
  6
CONTINUOUS
 66
     1
 40
0.003000
 41
0.003000
  0
VERTEX
  8
EBENE_1
 62
    39
  6
CONTINUOUS
 10
1.289134
 20
0.296528
  0
VERTEX
  8
EBENE_1
 62
    39
  6
CONTINUOUS
 10
1.286462
 20
0.300734
  0
VERTEX
  8
EBENE_1
 62
    39
  6
CONTINUOUS
 10
1.282045
 20
0.303036
  0
VERTEX
  8
EBENE_1
 62
    39
  6
CONTINUOUS
 10
1.276992
 20
0.302957
  0
SEQEND
  8
0
  0
POLYLINE
  8
EBENE_1
 62
    39
  6
CONTINUOUS
 66
     1
 40
0.003000
 41
0.003000
 70
     1
  0
VERTEX
  8
EBENE_1
 62
    39
  6
CONTINUOUS
 10
1.508390
 20
0.240823
  0
VERTEX
  8
EBENE_1
 62
    39
  6
CONTINUOUS
 10
1.355551
 20
0.197256
  0
VERTEX
  8
EBENE_1
 62
    39
  6
CONTINUOUS
 10
1.336385
 20
0.194186
  0
VERTEX
  8
EBENE_1
 62
    39
  6
CONTINUOUS
 10
1.318870
 20
0.194187
  0
VERTEX
  8
EBENE_1
 62
    39
  6
CONTINUOUS
 10
1.302992
 20
0.197143
  0
VERTEX
  8
EBENE_1
 62
    39
  6
CONTINUOUS
 10
1.288735
 20
0.202942
  0
VERTEX
  8
EBENE_1
 62
    39
  6
CONTINUOUS
 10
1.276086
 20
0.211468
  0
VERTEX
  8
EBENE_1
 62
    39
  6
CONTINUOUS
 10
1.265028
 20
0.222609
  0
VERTEX
  8
EBENE_1
 62
    39
  6
CONTINUOUS
 10
1.255548
 20
0.236249
  0
VERTEX
  8
EBENE_1
 62
    39
  6
CONTINUOUS
 10
1.247630
 20
0.252275
  0
VERTEX
  8
EBENE_1
 62
    39
  6
CONTINUOUS
 10
1.241259
 20
0.270572
  0
VERTEX
  8
EBENE_1
 62
    39
  6
CONTINUOUS
 10
1.236421
 20
0.291027
  0
VERTEX
  8
EBENE_1
 62
    39
  6
CONTINUOUS
 10
1.233101
 20
0.313525
  0
VERTEX
  8
EBENE_1
 62
    39
  6
CONTINUOUS
 10
1.231283
 20
0.337953
  0
VERTEX
  8
EBENE_1
 62
    39
  6
CONTINUOUS
 10
1.231283
 20
0.828598
  0
VERTEX
  8
EBENE_1
 62
    39
  6
CONTINUOUS
 10
1.238692
 20
0.848245
  0
VERTEX
  8
EBENE_1
 62
    39
  6
CONTINUOUS
 10
1.247059
 20
0.866711
  0
VERTEX
  8
EBENE_1
 62
    39
  6
CONTINUOUS
 10
1.256343
 20
0.884052
  0
VERTEX
  8
EBENE_1
 62
    39
  6
CONTINUOUS
 10
1.266504
 20
0.900329
  0
VERTEX
  8
EBENE_1
 62
    39
  6
CONTINUOUS
 10
1.277499
 20
0.915597
  0
VERTEX
  8
EBENE_1
 62
    39
  6
CONTINUOUS
 10
1.289288
 20
0.929916
  0
VERTEX
  8
EBENE_1
 62
    39
  6
CONTINUOUS
 10
1.301828
 20
0.943343
  0
VERTEX
  8
EBENE_1
 62
    39
  6
CONTINUOUS
 10
1.315079
 20
0.955936
  0
VERTEX
  8
EBENE_1
 62
    39
  6
CONTINUOUS
 10
1.328998
 20
0.967753
  0
VERTEX
  8
EBENE_1
 62
    39
  6
CONTINUOUS
 10
1.343545
 20
0.978852
  0
VERTEX
  8
EBENE_1
 62
    39
  6
CONTINUOUS
 10
1.358677
 20
0.989291
  0
VERTEX
  8
EBENE_1
 62
    39
  6
CONTINUOUS
 10
1.374354
 20
0.999128
  0
VERTEX
  8
EBENE_1
 62
    39
  6
CONTINUOUS
 10
1.390534
 20
1.008421
  0
VERTEX
  8
EBENE_1
 62
    39
  6
CONTINUOUS
 10
1.407176
 20
1.017228
  0
VERTEX
  8
EBENE_1
 62
    39
  6
CONTINUOUS
 10
1.424238
 20
1.025607
  0
VERTEX
  8
EBENE_1
 62
    39
  6
CONTINUOUS
 10
1.441678
 20
1.033615
  0
VERTEX
  8
EBENE_1
 62
    39
  6
CONTINUOUS
 10
1.459456
 20
1.041311
  0
VERTEX
  8
EBENE_1
 62
    39
  6
CONTINUOUS
 10
1.477530
 20
1.048753
  0
VERTEX
  8
EBENE_1
 62
    39
  6
CONTINUOUS
 10
1.495858
 20
1.055998
  0
VERTEX
  8
EBENE_1
 62
    39
  6
CONTINUOUS
 10
1.514398
 20
1.063104
  0
VERTEX
  8
EBENE_1
 62
    39
  6
CONTINUOUS
 10
1.533111
 20
1.070130
  0
VERTEX
  8
EBENE_1
 62
    39
  6
CONTINUOUS
 10
1.551953
 20
1.077134
  0
VERTEX
  8
EBENE_1
 62
    39
  6
CONTINUOUS
 10
1.549098
 20
0.315098
  0
VERTEX
  8
EBENE_1
 62
    39
  6
CONTINUOUS
 10
1.549164
 20
0.287623
  0
VERTEX
  8
EBENE_1
 62
    39
  6
CONTINUOUS
 10
1.544812
 20
0.269389
  0
VERTEX
  8
EBENE_1
 62
    39
  6
CONTINUOUS
 10
1.532426
 20
0.255440
  0
SEQEND
  8
0
  0
POLYLINE
  8
EBENE_1
 62
    39
  6
CONTINUOUS
 66
     1
 40
0.003000
 41
0.003000
 70
     1
  0
VERTEX
  8
EBENE_1
 62
    39
  6
CONTINUOUS
 10
1.491961
 20
0.241535
  0
VERTEX
  8
EBENE_1
 62
    39
  6
CONTINUOUS
 10
1.356268
 20
0.202969
  0
VERTEX
  8
EBENE_1
 62
    39
  6
CONTINUOUS
 10
1.337785
 20
0.200035
  0
VERTEX
  8
EBENE_1
 62
    39
  6
CONTINUOUS
 10
1.320895
 20
0.200092
  0
VERTEX
  8
EBENE_1
 62
    39
  6
CONTINUOUS
 10
1.305582
 20
0.203036
  0
VERTEX
  8
EBENE_1
 62
    39
  6
CONTINUOUS
 10
1.291831
 20
0.208762
  0
VERTEX
  8
EBENE_1
 62
    39
  6
CONTINUOUS
 10
1.279627
 20
0.217166
  0
VERTEX
  8
EBENE_1
 62
    39
  6
CONTINUOUS
 10
1.268957
 20
0.228144
  0
VERTEX
  8
EBENE_1
 62
    39
  6
CONTINUOUS
 10
1.259804
 20
0.241592
  0
VERTEX
  8
EBENE_1
 62
    39
  6
CONTINUOUS
 10
1.252153
 20
0.257406
  0
VERTEX
  8
EBENE_1
 62
    39
  6
CONTINUOUS
 10
1.245991
 20
0.275482
  0
VERTEX
  8
EBENE_1
 62
    39
  6
CONTINUOUS
 10
1.241302
 20
0.295715
  0
VERTEX
  8
EBENE_1
 62
    39
  6
CONTINUOUS
 10
1.238071
 20
0.318001
  0
VERTEX
  8
EBENE_1
 62
    39
  6
CONTINUOUS
 10
1.236283
 20
0.342236
  0
VERTEX
  8
EBENE_1
 62
    39
  6
CONTINUOUS
 10
1.236283
 20
0.825740
  0
VERTEX
  8
EBENE_1
 62
    39
  6
CONTINUOUS
 10
1.243505
 20
0.845227
  0
VERTEX
  8
EBENE_1
 62
    39
  6
CONTINUOUS
 10
1.251700
 20
0.863598
  0
VERTEX
  8
EBENE_1
 62
    39
  6
CONTINUOUS
 10
1.260824
 20
0.880904
  0
VERTEX
  8
EBENE_1
 62
    39
  6
CONTINUOUS
 10
1.270832
 20
0.897199
  0
VERTEX
  8
EBENE_1
 62
    39
  6
CONTINUOUS
 10
1.281679
 20
0.912534
  0
VERTEX
  8
EBENE_1
 62
    39
  6
CONTINUOUS
 10
1.293322
 20
0.926963
  0
VERTEX
  8
EBENE_1
 62
    39
  6
CONTINUOUS
 10
1.305714
 20
0.940536
  0
VERTEX
  8
EBENE_1
 62
    39
  6
CONTINUOUS
 10
1.318812
 20
0.953307
  0
VERTEX
  8
EBENE_1
 62
    39
  6
CONTINUOUS
 10
1.332570
 20
0.965328
  0
VERTEX
  8
EBENE_1
 62
    39
  6
CONTINUOUS
 10
1.346945
 20
0.976650
  0
VERTEX
  8
EBENE_1
 62
    39
  6
CONTINUOUS
 10
1.361891
 20
0.987328
  0
VERTEX
  8
EBENE_1
 62
    39
  6
CONTINUOUS
 10
1.377364
 20
0.997412
  0
VERTEX
  8
EBENE_1
 62
    39
  6
CONTINUOUS
 10
1.393319
 20
1.006955
  0
VERTEX
  8
EBENE_1
 62
    39
  6
CONTINUOUS
 10
1.409712
 20
1.016009
  0
VERTEX
  8
EBENE_1
 62
    39
  6
CONTINUOUS
 10
1.426497
 20
1.024628
  0
VERTEX
  8
EBENE_1
 62
    39
  6
CONTINUOUS
 10
1.443631
 20
1.032862
  0
VERTEX
  8
EBENE_1
 62
    39
  6
CONTINUOUS
 10
1.461067
 20
1.040765
  0
VERTEX
  8
EBENE_1
 62
    39
  6
CONTINUOUS
 10
1.478763
 20
1.048388
  0
VERTEX
  8
EBENE_1
 62
    39
  6
CONTINUOUS
 10
1.496673
 20
1.055784
  0
VERTEX
  8
EBENE_1
 62
    39
  6
CONTINUOUS
 10
1.514752
 20
1.063006
  0
VERTEX
  8
EBENE_1
 62
    39
  6
CONTINUOUS
 10
1.532956
 20
1.070105
  0
VERTEX
  8
EBENE_1
 62
    39
  6
CONTINUOUS
 10
1.551240
 20
1.077134
  0
VERTEX
  8
EBENE_1
 62
    39
  6
CONTINUOUS
 10
1.551240
 20
0.314382
  0
VERTEX
  8
EBENE_1
 62
    39
  6
CONTINUOUS
 10
1.542680
 20
0.284420
  0
VERTEX
  8
EBENE_1
 62
    39
  6
CONTINUOUS
 10
1.530974
 20
0.264301
  0
VERTEX
  8
EBENE_1
 62
    39
  6
CONTINUOUS
 10
1.514581
 20
0.251010
  0
SEQEND
  8
0
  0
POLYLINE
  8
EBENE_1
 62
    39
  6
CONTINUOUS
 66
     1
 40
0.003000
 41
0.003000
 70
     1
  0
VERTEX
  8
EBENE_1
 62
    39
  6
CONTINUOUS
 10
1.444110
 20
0.974291
  0
VERTEX
  8
EBENE_1
 62
    39
  6
CONTINUOUS
 10
1.448739
 20
0.975614
  0
VERTEX
  8
EBENE_1
 62
    39
  6
CONTINUOUS
 10
1.452098
 20
0.979160
  0
VERTEX
  8
EBENE_1
 62
    39
  6
CONTINUOUS
 10
1.453394
 20
0.984291
  0
VERTEX
  8
EBENE_1
 62
    39
  6
CONTINUOUS
 10
1.452098
 20
0.988920
  0
VERTEX
  8
EBENE_1
 62
    39
  6
CONTINUOUS
 10
1.448739
 20
0.992279
  0
VERTEX
  8
EBENE_1
 62
    39
  6
CONTINUOUS
 10
1.444110
 20
0.993575
  0
VERTEX
  8
EBENE_1
 62
    39
  6
CONTINUOUS
 10
1.439481
 20
0.992279
  0
VERTEX
  8
EBENE_1
 62
    39
  6
CONTINUOUS
 10
1.436122
 20
0.988920
  0
VERTEX
  8
EBENE_1
 62
    39
  6
CONTINUOUS
 10
1.434827
 20
0.984291
  0
VERTEX
  8
EBENE_1
 62
    39
  6
CONTINUOUS
 10
1.436122
 20
0.979160
  0
VERTEX
  8
EBENE_1
 62
    39
  6
CONTINUOUS
 10
1.439481
 20
0.975614
  0
SEQEND
  8
0
  0
POLYLINE
  8
EBENE_1
 62
    39
  6
CONTINUOUS
 66
     1
 40
0.003000
 41
0.003000
 70
     1
  0
VERTEX
  8
EBENE_1
 62
    39
  6
CONTINUOUS
 10
1.511961
 20
0.975008
  0
VERTEX
  8
EBENE_1
 62
    39
  6
CONTINUOUS
 10
1.517091
 20
0.976304
  0
VERTEX
  8
EBENE_1
 62
    39
  6
CONTINUOUS
 10
1.520635
 20
0.979662
  0
VERTEX
  8
EBENE_1
 62
    39
  6
CONTINUOUS
 10
1.521957
 20
0.984291
  0
VERTEX
  8
EBENE_1
 62
    39
  6
CONTINUOUS
 10
1.520635
 20
0.988920
  0
VERTEX
  8
EBENE_1
 62
    39
  6
CONTINUOUS
 10
1.517091
 20
0.992279
  0
VERTEX
  8
EBENE_1
 62
    39
  6
CONTINUOUS
 10
1.511961
 20
0.993575
  0
VERTEX
  8
EBENE_1
 62
    39
  6
CONTINUOUS
 10
1.507331
 20
0.992279
  0
VERTEX
  8
EBENE_1
 62
    39
  6
CONTINUOUS
 10
1.503970
 20
0.988920
  0
VERTEX
  8
EBENE_1
 62
    39
  6
CONTINUOUS
 10
1.502673
 20
0.984291
  0
VERTEX
  8
EBENE_1
 62
    39
  6
CONTINUOUS
 10
1.503970
 20
0.979662
  0
VERTEX
  8
EBENE_1
 62
    39
  6
CONTINUOUS
 10
1.507331
 20
0.976304
  0
SEQEND
  8
0
  0
POLYLINE
  8
EBENE_1
 62
    39
  6
CONTINUOUS
 66
     1
 40
0.003000
 41
0.003000
 70
     1
  0
VERTEX
  8
EBENE_1
 62
    39
  6
CONTINUOUS
 10
1.511961
 20
0.845024
  0
VERTEX
  8
EBENE_1
 62
    39
  6
CONTINUOUS
 10
1.517091
 20
0.846320
  0
VERTEX
  8
EBENE_1
 62
    39
  6
CONTINUOUS
 10
1.520635
 20
0.849681
  0
VERTEX
  8
EBENE_1
 62
    39
  6
CONTINUOUS
 10
1.521957
 20
0.854311
  0
VERTEX
  8
EBENE_1
 62
    39
  6
CONTINUOUS
 10
1.520635
 20
0.859442
  0
VERTEX
  8
EBENE_1
 62
    39
  6
CONTINUOUS
 10
1.517091
 20
0.862985
  0
VERTEX
  8
EBENE_1
 62
    39
  6
CONTINUOUS
 10
1.511961
 20
0.864307
  0
VERTEX
  8
EBENE_1
 62
    39
  6
CONTINUOUS
 10
1.507331
 20
0.862985
  0
VERTEX
  8
EBENE_1
 62
    39
  6
CONTINUOUS
 10
1.503970
 20
0.859442
  0
VERTEX
  8
EBENE_1
 62
    39
  6
CONTINUOUS
 10
1.502673
 20
0.854311
  0
VERTEX
  8
EBENE_1
 62
    39
  6
CONTINUOUS
 10
1.503970
 20
0.849681
  0
VERTEX
  8
EBENE_1
 62
    39
  6
CONTINUOUS
 10
1.507331
 20
0.846320
  0
SEQEND
  8
0
  0
ENDSEC
  0
EOF
