  0
SECTION
  2
HEADER
  9
$ACADVER
  1
AC1006
  9
$EXTMIN
 10
-3.227445
 20
-5.242512
  9
$EXTMAX
 10
2.654138
 20
5.276752
  9
$LTSCALE
 40
0.000394
  9
$PDMODE
 70
    35
  9
$PDSIZE
 40
0.000315
  0
ENDSEC
  0
SECTION
  2
TABLES
  0
TABLE
  2
LTYPE
 70
     9
  0
LTYPE
  2
CONTINUOUS
 70
    64
  3
Solid line
 72
    65
 73
     0
 40
0.000000
  0
LTYPE
  2
DASHED
 70
    64
  3
__ __ __ __ __ __ __ __ __ __ __ __ __ __ __
 72
    65
 73
     2
 40
0.000003
 49
0.000002
 49
-0.000001
  0
LTYPE
  2
HIDDEN
 70
    64
  3
 _ _ _ _ _ _ _ _ _ _ _ _ _ _ _ _ _ _ _ _ _ _
 72
    65
 73
     2
 40
0.000001
 49
0.000001
 49
-0.000000
  0
LTYPE
  2
CENTER
 70
    64
  3
____ _ ____ _ ____ _ ____ _ ____ _ ____ _ ____
 72
    65
 73
     4
 40
0.000008
 49
0.000005
 49
-0.000001
 49
0.000001
 49
-0.000001
  0
LTYPE
  2
PHANTOM
 70
    64
  3
_____ _ _ _____ _ _ _____ _ _ _____ _ _ ____
 72
    65
 73
     6
 40
0.000010
 49
0.000005
 49
-0.000001
 49
0.000001
 49
-0.000001
 49
0.000001
 49
-0.000001
  0
LTYPE
  2
DOT
 70
    64
  3
...............................................
 72
    65
 73
     2
 40
0.000001
 49
0.000000
 49
-0.000001
  0
LTYPE
  2
DASHDOT
 70
    64
  3
__ . __ . __ . __ . __ . __ . __ . __ . __ . __
 72
    65
 73
     4
 40
0.000004
 49
0.000002
 49
-0.000001
 49
0.000000
 49
-0.000001
  0
LTYPE
  2
BORDER
 70
    64
  3
__ __ . __ __ . __ __ . __ __ . __ __ . __ __
 72
    65
 73
     6
 40
0.000007
 49
0.000002
 49
-0.000001
 49
0.000002
 49
-0.000001
 49
0.000000
 49
-0.000001
  0
LTYPE
  2
DIVIDE
 70
    64
  3
__ . . __ . . __ . . __ . . __ . . __ . . __
 72
    65
 73
     6
 40
0.000005
 49
0.000002
 49
-0.000001
 49
0.000000
 49
-0.000001
 49
0.000000
 49
-0.000001
  0
LTYPE
  2
DOTDOT
 70
    64
  3
 . .  . .  . .  . .  . .  . . 
 72
    65
 73
     5
 40
0.000002
 49
-0.000001
 49
0.000000
 49
-0.000001
 49
0.000000
 49
-0.000001
  0
ENDTAB
  0
TABLE
  2
STYLE
 70
     2
  0
STYLE
 70
     0
  2
SN0
 40
0.000000
 41
0.000004
 50
0.000000
 71
     0
 42
0.000000
  3
SCRIPTS
  0
STYLE
 70
    68
  2
SV0
 40
0.000000
 41
0.000004
 50
0.000000
 71
     0
 42
0.000000
  3
SCRIPTS
  0
ENDTAB
  0
TABLE
  2
LAYER
 70
     3
  0
LAYER
  2
FOREGROUND
 70
    64
 62
     7
  6
CONTINUOUS
  0
LAYER
  2
BACKGROUND
 70
    65
 62
    -7
  6
CONTINUOUS
  0
LAYER
  2
EBENE_1
 70
    64
 62
     7
  6
CONTINUOUS
  0
ENDTAB
  0
ENDSEC
  0
SECTION
  2
ENTITIES
  0
POLYLINE
  8
EBENE_1
 62
    39
  6
CONTINUOUS
 66
     1
 40
0.010000
 41
0.010000
 70
     1
  0
VERTEX
  8
EBENE_1
 62
    39
  6
CONTINUOUS
 10
-2.306902
 20
-0.555346
  0
VERTEX
  8
EBENE_1
 62
    39
  6
CONTINUOUS
 10
-2.299628
 20
-0.603948
  0
VERTEX
  8
EBENE_1
 62
    39
  6
CONTINUOUS
 10
-2.283524
 20
-0.659037
  0
VERTEX
  8
EBENE_1
 62
    39
  6
CONTINUOUS
 10
-2.258177
 20
-0.718294
  0
VERTEX
  8
EBENE_1
 62
    39
  6
CONTINUOUS
 10
-2.223177
 20
-0.779402
  0
VERTEX
  8
EBENE_1
 62
    39
  6
CONTINUOUS
 10
-2.178113
 20
-0.840043
  0
VERTEX
  8
EBENE_1
 62
    39
  6
CONTINUOUS
 10
-2.122575
 20
-0.897896
  0
VERTEX
  8
EBENE_1
 62
    39
  6
CONTINUOUS
 10
-2.056150
 20
-0.950646
  0
VERTEX
  8
EBENE_1
 62
    39
  6
CONTINUOUS
 10
-1.503232
 20
-0.938059
  0
VERTEX
  8
EBENE_1
 62
    39
  6
CONTINUOUS
 10
-1.517126
 20
-0.142126
  0
VERTEX
  8
EBENE_1
 62
    39
  6
CONTINUOUS
 10
-2.313059
 20
-0.156020
  0
SEQEND
  8
0
  0
POLYLINE
  8
EBENE_1
 62
    39
  6
CONTINUOUS
 66
     1
 40
0.003000
 41
0.003000
 70
     1
  0
VERTEX
  8
EBENE_1
 62
    39
  6
CONTINUOUS
 10
-2.298232
 20
-0.551303
  0
VERTEX
  8
EBENE_1
 62
    39
  6
CONTINUOUS
 10
-2.291077
 20
-0.599462
  0
VERTEX
  8
EBENE_1
 62
    39
  6
CONTINUOUS
 10
-2.275242
 20
-0.654049
  0
VERTEX
  8
EBENE_1
 62
    39
  6
CONTINUOUS
 10
-2.250322
 20
-0.712769
  0
VERTEX
  8
EBENE_1
 62
    39
  6
CONTINUOUS
 10
-2.215916
 20
-0.773324
  0
VERTEX
  8
EBENE_1
 62
    39
  6
CONTINUOUS
 10
-2.171618
 20
-0.833417
  0
VERTEX
  8
EBENE_1
 62
    39
  6
CONTINUOUS
 10
-2.117026
 20
-0.890750
  0
VERTEX
  8
EBENE_1
 62
    39
  6
CONTINUOUS
 10
-2.051736
 20
-0.943028
  0
VERTEX
  8
EBENE_1
 62
    39
  6
CONTINUOUS
 10
-1.508327
 20
-0.930634
  0
VERTEX
  8
EBENE_1
 62
    39
  6
CONTINUOUS
 10
-1.522094
 20
-0.141969
  0
VERTEX
  8
EBENE_1
 62
    39
  6
CONTINUOUS
 10
-2.304339
 20
-0.155622
  0
SEQEND
  8
0
  0
POLYLINE
  8
EBENE_1
 62
    39
  6
CONTINUOUS
 66
     1
 40
0.003000
 41
0.003000
 70
     1
  0
VERTEX
  8
EBENE_1
 62
    39
  6
CONTINUOUS
 10
-1.579240
 20
-0.414445
  0
VERTEX
  8
EBENE_1
 62
    39
  6
CONTINUOUS
 10
-1.576388
 20
-0.415427
  0
VERTEX
  8
EBENE_1
 62
    39
  6
CONTINUOUS
 10
-1.574320
 20
-0.418098
  0
VERTEX
  8
EBENE_1
 62
    39
  6
CONTINUOUS
 10
-1.573484
 20
-0.421886
  0
VERTEX
  8
EBENE_1
 62
    39
  6
CONTINUOUS
 10
-1.574187
 20
-0.425700
  0
VERTEX
  8
EBENE_1
 62
    39
  6
CONTINUOUS
 10
-1.576161
 20
-0.428442
  0
VERTEX
  8
EBENE_1
 62
    39
  6
CONTINUOUS
 10
-1.578976
 20
-0.429524
  0
VERTEX
  8
EBENE_1
 62
    39
  6
CONTINUOUS
 10
-1.581830
 20
-0.428542
  0
VERTEX
  8
EBENE_1
 62
    39
  6
CONTINUOUS
 10
-1.583898
 20
-0.425870
  0
VERTEX
  8
EBENE_1
 62
    39
  6
CONTINUOUS
 10
-1.584736
 20
-0.422083
  0
VERTEX
  8
EBENE_1
 62
    39
  6
CONTINUOUS
 10
-1.584031
 20
-0.418269
  0
VERTEX
  8
EBENE_1
 62
    39
  6
CONTINUOUS
 10
-1.582058
 20
-0.415527
  0
SEQEND
  8
0
  0
POLYLINE
  8
EBENE_1
 62
    39
  6
CONTINUOUS
 66
     1
 40
0.003000
 41
0.003000
 70
     1
  0
VERTEX
  8
EBENE_1
 62
    39
  6
CONTINUOUS
 10
-1.574394
 20
-0.548772
  0
VERTEX
  8
EBENE_1
 62
    39
  6
CONTINUOUS
 10
-1.571543
 20
-0.549755
  0
VERTEX
  8
EBENE_1
 62
    39
  6
CONTINUOUS
 10
-1.569476
 20
-0.552427
  0
VERTEX
  8
EBENE_1
 62
    39
  6
CONTINUOUS
 10
-1.568638
 20
-0.556217
  0
VERTEX
  8
EBENE_1
 62
    39
  6
CONTINUOUS
 10
-1.569343
 20
-0.560028
  0
VERTEX
  8
EBENE_1
 62
    39
  6
CONTINUOUS
 10
-1.571316
 20
-0.562769
  0
VERTEX
  8
EBENE_1
 62
    39
  6
CONTINUOUS
 10
-1.574134
 20
-0.563850
  0
VERTEX
  8
EBENE_1
 62
    39
  6
CONTINUOUS
 10
-1.576987
 20
-0.562869
  0
VERTEX
  8
EBENE_1
 62
    39
  6
CONTINUOUS
 10
-1.579055
 20
-0.560198
  0
VERTEX
  8
EBENE_1
 62
    39
  6
CONTINUOUS
 10
-1.579890
 20
-0.556413
  0
VERTEX
  8
EBENE_1
 62
    39
  6
CONTINUOUS
 10
-1.579188
 20
-0.552597
  0
VERTEX
  8
EBENE_1
 62
    39
  6
CONTINUOUS
 10
-1.577214
 20
-0.549853
  0
SEQEND
  8
0
  0
POLYLINE
  8
EBENE_1
 62
    39
  6
CONTINUOUS
 66
     1
 40
0.003000
 41
0.003000
 70
     1
  0
VERTEX
  8
EBENE_1
 62
    39
  6
CONTINUOUS
 10
-1.835937
 20
-0.180055
  0
VERTEX
  8
EBENE_1
 62
    39
  6
CONTINUOUS
 10
-1.833085
 20
-0.181037
  0
VERTEX
  8
EBENE_1
 62
    39
  6
CONTINUOUS
 10
-1.831017
 20
-0.183709
  0
VERTEX
  8
EBENE_1
 62
    39
  6
CONTINUOUS
 10
-1.830181
 20
-0.187496
  0
VERTEX
  8
EBENE_1
 62
    39
  6
CONTINUOUS
 10
-1.830886
 20
-0.191310
  0
VERTEX
  8
EBENE_1
 62
    39
  6
CONTINUOUS
 10
-1.832858
 20
-0.194052
  0
VERTEX
  8
EBENE_1
 62
    39
  6
CONTINUOUS
 10
-1.835673
 20
-0.195134
  0
VERTEX
  8
EBENE_1
 62
    39
  6
CONTINUOUS
 10
-1.838528
 20
-0.194150
  0
VERTEX
  8
EBENE_1
 62
    39
  6
CONTINUOUS
 10
-1.840597
 20
-0.191479
  0
VERTEX
  8
EBENE_1
 62
    39
  6
CONTINUOUS
 10
-1.841433
 20
-0.187693
  0
VERTEX
  8
EBENE_1
 62
    39
  6
CONTINUOUS
 10
-1.840728
 20
-0.183879
  0
VERTEX
  8
EBENE_1
 62
    39
  6
CONTINUOUS
 10
-1.838755
 20
-0.181137
  0
SEQEND
  8
0
  0
POLYLINE
  8
EBENE_1
 62
    39
  6
CONTINUOUS
 66
     1
 40
0.003000
 41
0.003000
 70
     1
  0
VERTEX
  8
EBENE_1
 62
    39
  6
CONTINUOUS
 10
-1.990917
 20
-0.185205
  0
VERTEX
  8
EBENE_1
 62
    39
  6
CONTINUOUS
 10
-1.988066
 20
-0.186186
  0
VERTEX
  8
EBENE_1
 62
    39
  6
CONTINUOUS
 10
-1.985999
 20
-0.188858
  0
VERTEX
  8
EBENE_1
 62
    39
  6
CONTINUOUS
 10
-1.985161
 20
-0.192646
  0
VERTEX
  8
EBENE_1
 62
    39
  6
CONTINUOUS
 10
-1.985866
 20
-0.196460
  0
VERTEX
  8
EBENE_1
 62
    39
  6
CONTINUOUS
 10
-1.987840
 20
-0.199202
  0
VERTEX
  8
EBENE_1
 62
    39
  6
CONTINUOUS
 10
-1.990657
 20
-0.200283
  0
VERTEX
  8
EBENE_1
 62
    39
  6
CONTINUOUS
 10
-1.993511
 20
-0.199300
  0
VERTEX
  8
EBENE_1
 62
    39
  6
CONTINUOUS
 10
-1.995578
 20
-0.196629
  0
VERTEX
  8
EBENE_1
 62
    39
  6
CONTINUOUS
 10
-1.996413
 20
-0.192843
  0
VERTEX
  8
EBENE_1
 62
    39
  6
CONTINUOUS
 10
-1.995711
 20
-0.189029
  0
VERTEX
  8
EBENE_1
 62
    39
  6
CONTINUOUS
 10
-1.993738
 20
-0.186286
  0
SEQEND
  8
0
  0
POLYLINE
  8
EBENE_1
 62
    39
  6
CONTINUOUS
 66
     1
 40
0.010000
 41
0.010000
 70
     1
  0
VERTEX
  8
EBENE_1
 62
    39
  6
CONTINUOUS
 10
-1.755681
 20
-0.554677
  0
VERTEX
  8
EBENE_1
 62
    39
  6
CONTINUOUS
 10
-1.748408
 20
-0.603278
  0
VERTEX
  8
EBENE_1
 62
    39
  6
CONTINUOUS
 10
-1.732303
 20
-0.658367
  0
VERTEX
  8
EBENE_1
 62
    39
  6
CONTINUOUS
 10
-1.706956
 20
-0.717624
  0
VERTEX
  8
EBENE_1
 62
    39
  6
CONTINUOUS
 10
-1.671957
 20
-0.778731
  0
VERTEX
  8
EBENE_1
 62
    39
  6
CONTINUOUS
 10
-1.626893
 20
-0.839372
  0
VERTEX
  8
EBENE_1
 62
    39
  6
CONTINUOUS
 10
-1.571354
 20
-0.897226
  0
VERTEX
  8
EBENE_1
 62
    39
  6
CONTINUOUS
 10
-1.504929
 20
-0.949976
  0
VERTEX
  8
EBENE_1
 62
    39
  6
CONTINUOUS
 10
-1.504929
 20
-0.949976
  0
VERTEX
  8
EBENE_1
 62
    39
  6
CONTINUOUS
 10
-0.952012
 20
-0.937390
  0
VERTEX
  8
EBENE_1
 62
    39
  6
CONTINUOUS
 10
-0.965906
 20
-0.141457
  0
VERTEX
  8
EBENE_1
 62
    39
  6
CONTINUOUS
 10
-1.761839
 20
-0.155350
  0
SEQEND
  8
0
  0
POLYLINE
  8
EBENE_1
 62
    39
  6
CONTINUOUS
 66
     1
 40
0.003000
 41
0.003000
 70
     1
  0
VERTEX
  8
EBENE_1
 62
    39
  6
CONTINUOUS
 10
-1.747012
 20
-0.550634
  0
VERTEX
  8
EBENE_1
 62
    39
  6
CONTINUOUS
 10
-1.739857
 20
-0.598791
  0
VERTEX
  8
EBENE_1
 62
    39
  6
CONTINUOUS
 10
-1.724021
 20
-0.653378
  0
VERTEX
  8
EBENE_1
 62
    39
  6
CONTINUOUS
 10
-1.699102
 20
-0.712098
  0
VERTEX
  8
EBENE_1
 62
    39
  6
CONTINUOUS
 10
-1.664695
 20
-0.772653
  0
VERTEX
  8
EBENE_1
 62
    39
  6
CONTINUOUS
 10
-1.620398
 20
-0.832747
  0
VERTEX
  8
EBENE_1
 62
    39
  6
CONTINUOUS
 10
-1.565806
 20
-0.890081
  0
VERTEX
  8
EBENE_1
 62
    39
  6
CONTINUOUS
 10
-1.500516
 20
-0.942358
  0
VERTEX
  8
EBENE_1
 62
    39
  6
CONTINUOUS
 10
-1.500516
 20
-0.942358
  0
VERTEX
  8
EBENE_1
 62
    39
  6
CONTINUOUS
 10
-0.957106
 20
-0.929965
  0
VERTEX
  8
EBENE_1
 62
    39
  6
CONTINUOUS
 10
-0.970874
 20
-0.141299
  0
VERTEX
  8
EBENE_1
 62
    39
  6
CONTINUOUS
 10
-1.753118
 20
-0.154953
  0
SEQEND
  8
0
  0
POLYLINE
  8
EBENE_1
 62
    39
  6
CONTINUOUS
 66
     1
 40
0.003000
 41
0.003000
 70
     1
  0
VERTEX
  8
EBENE_1
 62
    39
  6
CONTINUOUS
 10
-1.028020
 20
-0.413776
  0
VERTEX
  8
EBENE_1
 62
    39
  6
CONTINUOUS
 10
-1.025166
 20
-0.414757
  0
VERTEX
  8
EBENE_1
 62
    39
  6
CONTINUOUS
 10
-1.023099
 20
-0.417429
  0
VERTEX
  8
EBENE_1
 62
    39
  6
CONTINUOUS
 10
-1.022264
 20
-0.421217
  0
VERTEX
  8
EBENE_1
 62
    39
  6
CONTINUOUS
 10
-1.022967
 20
-0.425030
  0
VERTEX
  8
EBENE_1
 62
    39
  6
CONTINUOUS
 10
-1.024940
 20
-0.427772
  0
VERTEX
  8
EBENE_1
 62
    39
  6
CONTINUOUS
 10
-1.027756
 20
-0.428850
  0
VERTEX
  8
EBENE_1
 62
    39
  6
CONTINUOUS
 10
-1.030610
 20
-0.427870
  0
VERTEX
  8
EBENE_1
 62
    39
  6
CONTINUOUS
 10
-1.032678
 20
-0.425200
  0
VERTEX
  8
EBENE_1
 62
    39
  6
CONTINUOUS
 10
-1.033516
 20
-0.421413
  0
VERTEX
  8
EBENE_1
 62
    39
  6
CONTINUOUS
 10
-1.032811
 20
-0.417599
  0
VERTEX
  8
EBENE_1
 62
    39
  6
CONTINUOUS
 10
-1.030837
 20
-0.414855
  0
SEQEND
  8
0
  0
POLYLINE
  8
EBENE_1
 62
    39
  6
CONTINUOUS
 66
     1
 40
0.003000
 41
0.003000
 70
     1
  0
VERTEX
  8
EBENE_1
 62
    39
  6
CONTINUOUS
 10
-1.023173
 20
-0.548102
  0
VERTEX
  8
EBENE_1
 62
    39
  6
CONTINUOUS
 10
-1.020322
 20
-0.549084
  0
VERTEX
  8
EBENE_1
 62
    39
  6
CONTINUOUS
 10
-1.018255
 20
-0.551756
  0
VERTEX
  8
EBENE_1
 62
    39
  6
CONTINUOUS
 10
-1.017417
 20
-0.555543
  0
VERTEX
  8
EBENE_1
 62
    39
  6
CONTINUOUS
 10
-1.018122
 20
-0.559357
  0
VERTEX
  8
EBENE_1
 62
    39
  6
CONTINUOUS
 10
-1.020096
 20
-0.562099
  0
VERTEX
  8
EBENE_1
 62
    39
  6
CONTINUOUS
 10
-1.022913
 20
-0.563181
  0
VERTEX
  8
EBENE_1
 62
    39
  6
CONTINUOUS
 10
-1.025767
 20
-0.562199
  0
VERTEX
  8
EBENE_1
 62
    39
  6
CONTINUOUS
 10
-1.027834
 20
-0.559528
  0
VERTEX
  8
EBENE_1
 62
    39
  6
CONTINUOUS
 10
-1.028669
 20
-0.555740
  0
VERTEX
  8
EBENE_1
 62
    39
  6
CONTINUOUS
 10
-1.027966
 20
-0.551926
  0
VERTEX
  8
EBENE_1
 62
    39
  6
CONTINUOUS
 10
-1.025992
 20
-0.549184
  0
SEQEND
  8
0
  0
POLYLINE
  8
EBENE_1
 62
    39
  6
CONTINUOUS
 66
     1
 40
0.003000
 41
0.003000
 70
     1
  0
VERTEX
  8
EBENE_1
 62
    39
  6
CONTINUOUS
 10
-1.284717
 20
-0.179386
  0
VERTEX
  8
EBENE_1
 62
    39
  6
CONTINUOUS
 10
-1.281865
 20
-0.180367
  0
VERTEX
  8
EBENE_1
 62
    39
  6
CONTINUOUS
 10
-1.279797
 20
-0.183039
  0
VERTEX
  8
EBENE_1
 62
    39
  6
CONTINUOUS
 10
-1.278961
 20
-0.186827
  0
VERTEX
  8
EBENE_1
 62
    39
  6
CONTINUOUS
 10
-1.279665
 20
-0.190639
  0
VERTEX
  8
EBENE_1
 62
    39
  6
CONTINUOUS
 10
-1.281638
 20
-0.193381
  0
VERTEX
  8
EBENE_1
 62
    39
  6
CONTINUOUS
 10
-1.284453
 20
-0.194461
  0
VERTEX
  8
EBENE_1
 62
    39
  6
CONTINUOUS
 10
-1.287307
 20
-0.193479
  0
VERTEX
  8
EBENE_1
 62
    39
  6
CONTINUOUS
 10
-1.289376
 20
-0.190808
  0
VERTEX
  8
EBENE_1
 62
    39
  6
CONTINUOUS
 10
-1.290213
 20
-0.187024
  0
VERTEX
  8
EBENE_1
 62
    39
  6
CONTINUOUS
 10
-1.289508
 20
-0.183207
  0
VERTEX
  8
EBENE_1
 62
    39
  6
CONTINUOUS
 10
-1.287534
 20
-0.180465
  0
SEQEND
  8
0
  0
POLYLINE
  8
EBENE_1
 62
    39
  6
CONTINUOUS
 66
     1
 40
0.003000
 41
0.003000
 70
     1
  0
VERTEX
  8
EBENE_1
 62
    39
  6
CONTINUOUS
 10
-1.439697
 20
-0.184535
  0
VERTEX
  8
EBENE_1
 62
    39
  6
CONTINUOUS
 10
-1.436846
 20
-0.185516
  0
VERTEX
  8
EBENE_1
 62
    39
  6
CONTINUOUS
 10
-1.434779
 20
-0.188187
  0
VERTEX
  8
EBENE_1
 62
    39
  6
CONTINUOUS
 10
-1.433941
 20
-0.191976
  0
VERTEX
  8
EBENE_1
 62
    39
  6
CONTINUOUS
 10
-1.434646
 20
-0.195788
  0
VERTEX
  8
EBENE_1
 62
    39
  6
CONTINUOUS
 10
-1.436619
 20
-0.198530
  0
VERTEX
  8
EBENE_1
 62
    39
  6
CONTINUOUS
 10
-1.439437
 20
-0.199610
  0
VERTEX
  8
EBENE_1
 62
    39
  6
CONTINUOUS
 10
-1.442291
 20
-0.198629
  0
VERTEX
  8
EBENE_1
 62
    39
  6
CONTINUOUS
 10
-1.444358
 20
-0.195958
  0
VERTEX
  8
EBENE_1
 62
    39
  6
CONTINUOUS
 10
-1.445193
 20
-0.192173
  0
VERTEX
  8
EBENE_1
 62
    39
  6
CONTINUOUS
 10
-1.444491
 20
-0.188357
  0
VERTEX
  8
EBENE_1
 62
    39
  6
CONTINUOUS
 10
-1.442517
 20
-0.185614
  0
SEQEND
  8
0
  0
POLYLINE
  8
EBENE_1
 62
    39
  6
CONTINUOUS
 66
     1
 40
0.010000
 41
0.010000
 70
     1
  0
VERTEX
  8
EBENE_1
 62
    39
  6
CONTINUOUS
 10
-1.204461
 20
-0.554004
  0
VERTEX
  8
EBENE_1
 62
    39
  6
CONTINUOUS
 10
-1.197187
 20
-0.602605
  0
VERTEX
  8
EBENE_1
 62
    39
  6
CONTINUOUS
 10
-1.181082
 20
-0.657694
  0
VERTEX
  8
EBENE_1
 62
    39
  6
CONTINUOUS
 10
-1.155735
 20
-0.716952
  0
VERTEX
  8
EBENE_1
 62
    39
  6
CONTINUOUS
 10
-1.120735
 20
-0.778061
  0
VERTEX
  8
EBENE_1
 62
    39
  6
CONTINUOUS
 10
-1.075671
 20
-0.838701
  0
VERTEX
  8
EBENE_1
 62
    39
  6
CONTINUOUS
 10
-1.020132
 20
-0.896556
  0
VERTEX
  8
EBENE_1
 62
    39
  6
CONTINUOUS
 10
-0.953709
 20
-0.949307
  0
VERTEX
  8
EBENE_1
 62
    39
  6
CONTINUOUS
 10
-0.400791
 20
-0.936720
  0
VERTEX
  8
EBENE_1
 62
    39
  6
CONTINUOUS
 10
-0.414685
 20
-0.140787
  0
VERTEX
  8
EBENE_1
 62
    39
  6
CONTINUOUS
 10
-1.210618
 20
-0.154681
  0
SEQEND
  8
0
  0
POLYLINE
  8
EBENE_1
 62
    39
  6
CONTINUOUS
 66
     1
 40
0.003000
 41
0.003000
 70
     1
  0
VERTEX
  8
EBENE_1
 62
    39
  6
CONTINUOUS
 10
-1.195791
 20
-0.549961
  0
VERTEX
  8
EBENE_1
 62
    39
  6
CONTINUOUS
 10
-1.188635
 20
-0.598119
  0
VERTEX
  8
EBENE_1
 62
    39
  6
CONTINUOUS
 10
-1.172798
 20
-0.652707
  0
VERTEX
  8
EBENE_1
 62
    39
  6
CONTINUOUS
 10
-1.147878
 20
-0.711427
  0
VERTEX
  8
EBENE_1
 62
    39
  6
CONTINUOUS
 10
-1.113471
 20
-0.771982
  0
VERTEX
  8
EBENE_1
 62
    39
  6
CONTINUOUS
 10
-1.069173
 20
-0.832075
  0
VERTEX
  8
EBENE_1
 62
    39
  6
CONTINUOUS
 10
-1.014581
 20
-0.889410
  0
VERTEX
  8
EBENE_1
 62
    39
  6
CONTINUOUS
 10
-0.949291
 20
-0.941689
  0
VERTEX
  8
EBENE_1
 62
    39
  6
CONTINUOUS
 10
-0.405886
 20
-0.929295
  0
VERTEX
  8
EBENE_1
 62
    39
  6
CONTINUOUS
 10
-0.419654
 20
-0.140626
  0
VERTEX
  8
EBENE_1
 62
    39
  6
CONTINUOUS
 10
-1.201898
 20
-0.154280
  0
SEQEND
  8
0
  0
POLYLINE
  8
EBENE_1
 62
    39
  6
CONTINUOUS
 66
     1
 40
0.003000
 41
0.003000
 70
     1
  0
VERTEX
  8
EBENE_1
 62
    39
  6
CONTINUOUS
 10
-0.476799
 20
-0.413102
  0
VERTEX
  8
EBENE_1
 62
    39
  6
CONTINUOUS
 10
-0.473946
 20
-0.414086
  0
VERTEX
  8
EBENE_1
 62
    39
  6
CONTINUOUS
 10
-0.471879
 20
-0.416758
  0
VERTEX
  8
EBENE_1
 62
    39
  6
CONTINUOUS
 10
-0.471043
 20
-0.420547
  0
VERTEX
  8
EBENE_1
 62
    39
  6
CONTINUOUS
 10
-0.471746
 20
-0.424358
  0
VERTEX
  8
EBENE_1
 62
    39
  6
CONTINUOUS
 10
-0.473720
 20
-0.427100
  0
VERTEX
  8
EBENE_1
 62
    39
  6
CONTINUOUS
 10
-0.476535
 20
-0.428181
  0
VERTEX
  8
EBENE_1
 62
    39
  6
CONTINUOUS
 10
-0.479389
 20
-0.427200
  0
VERTEX
  8
EBENE_1
 62
    39
  6
CONTINUOUS
 10
-0.481457
 20
-0.424529
  0
VERTEX
  8
EBENE_1
 62
    39
  6
CONTINUOUS
 10
-0.482295
 20
-0.420744
  0
VERTEX
  8
EBENE_1
 62
    39
  6
CONTINUOUS
 10
-0.481590
 20
-0.416927
  0
VERTEX
  8
EBENE_1
 62
    39
  6
CONTINUOUS
 10
-0.479617
 20
-0.414184
  0
SEQEND
  8
0
  0
POLYLINE
  8
EBENE_1
 62
    39
  6
CONTINUOUS
 66
     1
 40
0.003000
 41
0.003000
 70
     1
  0
VERTEX
  8
EBENE_1
 62
    39
  6
CONTINUOUS
 10
-0.471953
 20
-0.547433
  0
VERTEX
  8
EBENE_1
 62
    39
  6
CONTINUOUS
 10
-0.469102
 20
-0.548415
  0
VERTEX
  8
EBENE_1
 62
    39
  6
CONTINUOUS
 10
-0.467035
 20
-0.551087
  0
VERTEX
  8
EBENE_1
 62
    39
  6
CONTINUOUS
 10
-0.466197
 20
-0.554874
  0
VERTEX
  8
EBENE_1
 62
    39
  6
CONTINUOUS
 10
-0.466902
 20
-0.558688
  0
VERTEX
  8
EBENE_1
 62
    39
  6
CONTINUOUS
 10
-0.468874
 20
-0.561430
  0
VERTEX
  8
EBENE_1
 62
    39
  6
CONTINUOUS
 10
-0.471689
 20
-0.562512
  0
VERTEX
  8
EBENE_1
 62
    39
  6
CONTINUOUS
 10
-0.474545
 20
-0.561528
  0
VERTEX
  8
EBENE_1
 62
    39
  6
CONTINUOUS
 10
-0.476613
 20
-0.558857
  0
VERTEX
  8
EBENE_1
 62
    39
  6
CONTINUOUS
 10
-0.477449
 20
-0.555071
  0
VERTEX
  8
EBENE_1
 62
    39
  6
CONTINUOUS
 10
-0.476746
 20
-0.551257
  0
VERTEX
  8
EBENE_1
 62
    39
  6
CONTINUOUS
 10
-0.474771
 20
-0.548515
  0
SEQEND
  8
0
  0
POLYLINE
  8
EBENE_1
 62
    39
  6
CONTINUOUS
 66
     1
 40
0.003000
 41
0.003000
 70
     1
  0
VERTEX
  8
EBENE_1
 62
    39
  6
CONTINUOUS
 10
-0.733496
 20
-0.178713
  0
VERTEX
  8
EBENE_1
 62
    39
  6
CONTINUOUS
 10
-0.730644
 20
-0.179696
  0
VERTEX
  8
EBENE_1
 62
    39
  6
CONTINUOUS
 10
-0.728576
 20
-0.182368
  0
VERTEX
  8
EBENE_1
 62
    39
  6
CONTINUOUS
 10
-0.727740
 20
-0.186157
  0
VERTEX
  8
EBENE_1
 62
    39
  6
CONTINUOUS
 10
-0.728445
 20
-0.189969
  0
VERTEX
  8
EBENE_1
 62
    39
  6
CONTINUOUS
 10
-0.730417
 20
-0.192710
  0
VERTEX
  8
EBENE_1
 62
    39
  6
CONTINUOUS
 10
-0.733232
 20
-0.193791
  0
VERTEX
  8
EBENE_1
 62
    39
  6
CONTINUOUS
 10
-0.736086
 20
-0.192810
  0
VERTEX
  8
EBENE_1
 62
    39
  6
CONTINUOUS
 10
-0.738154
 20
-0.190138
  0
VERTEX
  8
EBENE_1
 62
    39
  6
CONTINUOUS
 10
-0.738992
 20
-0.186350
  0
VERTEX
  8
EBENE_1
 62
    39
  6
CONTINUOUS
 10
-0.738287
 20
-0.182536
  0
VERTEX
  8
EBENE_1
 62
    39
  6
CONTINUOUS
 10
-0.736314
 20
-0.179794
  0
SEQEND
  8
0
  0
POLYLINE
  8
EBENE_1
 62
    39
  6
CONTINUOUS
 66
     1
 40
0.003000
 41
0.003000
 70
     1
  0
VERTEX
  8
EBENE_1
 62
    39
  6
CONTINUOUS
 10
-0.888476
 20
-0.183862
  0
VERTEX
  8
EBENE_1
 62
    39
  6
CONTINUOUS
 10
-0.885625
 20
-0.184846
  0
VERTEX
  8
EBENE_1
 62
    39
  6
CONTINUOUS
 10
-0.883558
 20
-0.187517
  0
VERTEX
  8
EBENE_1
 62
    39
  6
CONTINUOUS
 10
-0.882720
 20
-0.191303
  0
VERTEX
  8
EBENE_1
 62
    39
  6
CONTINUOUS
 10
-0.883425
 20
-0.195117
  0
VERTEX
  8
EBENE_1
 62
    39
  6
CONTINUOUS
 10
-0.885399
 20
-0.197859
  0
VERTEX
  8
EBENE_1
 62
    39
  6
CONTINUOUS
 10
-0.888217
 20
-0.198941
  0
VERTEX
  8
EBENE_1
 62
    39
  6
CONTINUOUS
 10
-0.891070
 20
-0.197959
  0
VERTEX
  8
EBENE_1
 62
    39
  6
CONTINUOUS
 10
-0.893137
 20
-0.195287
  0
VERTEX
  8
EBENE_1
 62
    39
  6
CONTINUOUS
 10
-0.893972
 20
-0.191500
  0
VERTEX
  8
EBENE_1
 62
    39
  6
CONTINUOUS
 10
-0.893269
 20
-0.187686
  0
VERTEX
  8
EBENE_1
 62
    39
  6
CONTINUOUS
 10
-0.891295
 20
-0.184944
  0
SEQEND
  8
0
  0
POLYLINE
  8
EBENE_1
 62
    39
  6
CONTINUOUS
 66
     1
 40
0.010000
 41
0.010000
 70
     1
  0
VERTEX
  8
EBENE_1
 62
    39
  6
CONTINUOUS
 10
-0.653240
 20
-0.553335
  0
VERTEX
  8
EBENE_1
 62
    39
  6
CONTINUOUS
 10
-0.645966
 20
-0.601936
  0
VERTEX
  8
EBENE_1
 62
    39
  6
CONTINUOUS
 10
-0.629861
 20
-0.657025
  0
VERTEX
  8
EBENE_1
 62
    39
  6
CONTINUOUS
 10
-0.604514
 20
-0.716282
  0
VERTEX
  8
EBENE_1
 62
    39
  6
CONTINUOUS
 10
-0.569514
 20
-0.777390
  0
VERTEX
  8
EBENE_1
 62
    39
  6
CONTINUOUS
 10
-0.524450
 20
-0.838031
  0
VERTEX
  8
EBENE_1
 62
    39
  6
CONTINUOUS
 10
-0.468912
 20
-0.895885
  0
VERTEX
  8
EBENE_1
 62
    39
  6
CONTINUOUS
 10
-0.402488
 20
-0.948634
  0
VERTEX
  8
EBENE_1
 62
    39
  6
CONTINUOUS
 10
0.150429
 20
-0.936047
  0
VERTEX
  8
EBENE_1
 62
    39
  6
CONTINUOUS
 10
0.136535
 20
-0.140118
  0
VERTEX
  8
EBENE_1
 62
    39
  6
CONTINUOUS
 10
-0.659398
 20
-0.154008
  0
SEQEND
  8
0
  0
POLYLINE
  8
EBENE_1
 62
    39
  6
CONTINUOUS
 66
     1
 40
0.003000
 41
0.003000
 70
     1
  0
VERTEX
  8
EBENE_1
 62
    39
  6
CONTINUOUS
 10
-0.644571
 20
-0.549291
  0
VERTEX
  8
EBENE_1
 62
    39
  6
CONTINUOUS
 10
-0.637414
 20
-0.597450
  0
VERTEX
  8
EBENE_1
 62
    39
  6
CONTINUOUS
 10
-0.621578
 20
-0.652038
  0
VERTEX
  8
EBENE_1
 62
    39
  6
CONTINUOUS
 10
-0.596658
 20
-0.710758
  0
VERTEX
  8
EBENE_1
 62
    39
  6
CONTINUOUS
 10
-0.562251
 20
-0.771313
  0
VERTEX
  8
EBENE_1
 62
    39
  6
CONTINUOUS
 10
-0.517953
 20
-0.831406
  0
VERTEX
  8
EBENE_1
 62
    39
  6
CONTINUOUS
 10
-0.463361
 20
-0.888741
  0
VERTEX
  8
EBENE_1
 62
    39
  6
CONTINUOUS
 10
-0.398071
 20
-0.941020
  0
VERTEX
  8
EBENE_1
 62
    39
  6
CONTINUOUS
 10
0.145335
 20
-0.928626
  0
VERTEX
  8
EBENE_1
 62
    39
  6
CONTINUOUS
 10
0.131567
 20
-0.139957
  0
VERTEX
  8
EBENE_1
 62
    39
  6
CONTINUOUS
 10
-0.650677
 20
-0.153610
  0
SEQEND
  8
0
  0
POLYLINE
  8
EBENE_1
 62
    39
  6
CONTINUOUS
 66
     1
 40
0.003000
 41
0.003000
 70
     1
  0
VERTEX
  8
EBENE_1
 62
    39
  6
CONTINUOUS
 10
0.074421
 20
-0.412433
  0
VERTEX
  8
EBENE_1
 62
    39
  6
CONTINUOUS
 10
0.077275
 20
-0.413415
  0
VERTEX
  8
EBENE_1
 62
    39
  6
CONTINUOUS
 10
0.079342
 20
-0.416087
  0
VERTEX
  8
EBENE_1
 62
    39
  6
CONTINUOUS
 10
0.080177
 20
-0.419874
  0
VERTEX
  8
EBENE_1
 62
    39
  6
CONTINUOUS
 10
0.079474
 20
-0.423688
  0
VERTEX
  8
EBENE_1
 62
    39
  6
CONTINUOUS
 10
0.077501
 20
-0.426430
  0
VERTEX
  8
EBENE_1
 62
    39
  6
CONTINUOUS
 10
0.074685
 20
-0.427512
  0
VERTEX
  8
EBENE_1
 62
    39
  6
CONTINUOUS
 10
0.071831
 20
-0.426530
  0
VERTEX
  8
EBENE_1
 62
    39
  6
CONTINUOUS
 10
0.069763
 20
-0.423858
  0
VERTEX
  8
EBENE_1
 62
    39
  6
CONTINUOUS
 10
0.068925
 20
-0.420071
  0
VERTEX
  8
EBENE_1
 62
    39
  6
CONTINUOUS
 10
0.069630
 20
-0.416257
  0
VERTEX
  8
EBENE_1
 62
    39
  6
CONTINUOUS
 10
0.071604
 20
-0.413515
  0
SEQEND
  8
0
  0
POLYLINE
  8
EBENE_1
 62
    39
  6
CONTINUOUS
 66
     1
 40
0.003000
 41
0.003000
 70
     1
  0
VERTEX
  8
EBENE_1
 62
    39
  6
CONTINUOUS
 10
0.079268
 20
-0.546764
  0
VERTEX
  8
EBENE_1
 62
    39
  6
CONTINUOUS
 10
0.082119
 20
-0.547745
  0
VERTEX
  8
EBENE_1
 62
    39
  6
CONTINUOUS
 10
0.084186
 20
-0.550416
  0
VERTEX
  8
EBENE_1
 62
    39
  6
CONTINUOUS
 10
0.085024
 20
-0.554205
  0
VERTEX
  8
EBENE_1
 62
    39
  6
CONTINUOUS
 10
0.084319
 20
-0.558017
  0
VERTEX
  8
EBENE_1
 62
    39
  6
CONTINUOUS
 10
0.082346
 20
-0.560759
  0
VERTEX
  8
EBENE_1
 62
    39
  6
CONTINUOUS
 10
0.079531
 20
-0.561839
  0
VERTEX
  8
EBENE_1
 62
    39
  6
CONTINUOUS
 10
0.076677
 20
-0.560857
  0
VERTEX
  8
EBENE_1
 62
    39
  6
CONTINUOUS
 10
0.074608
 20
-0.558186
  0
VERTEX
  8
EBENE_1
 62
    39
  6
CONTINUOUS
 10
0.073772
 20
-0.554402
  0
VERTEX
  8
EBENE_1
 62
    39
  6
CONTINUOUS
 10
0.074475
 20
-0.550585
  0
VERTEX
  8
EBENE_1
 62
    39
  6
CONTINUOUS
 10
0.076449
 20
-0.547843
  0
SEQEND
  8
0
  0
POLYLINE
  8
EBENE_1
 62
    39
  6
CONTINUOUS
 66
     1
 40
0.003000
 41
0.003000
 70
     1
  0
VERTEX
  8
EBENE_1
 62
    39
  6
CONTINUOUS
 10
-0.182276
 20
-0.178043
  0
VERTEX
  8
EBENE_1
 62
    39
  6
CONTINUOUS
 10
-0.179424
 20
-0.179025
  0
VERTEX
  8
EBENE_1
 62
    39
  6
CONTINUOUS
 10
-0.177356
 20
-0.181697
  0
VERTEX
  8
EBENE_1
 62
    39
  6
CONTINUOUS
 10
-0.176520
 20
-0.185484
  0
VERTEX
  8
EBENE_1
 62
    39
  6
CONTINUOUS
 10
-0.177223
 20
-0.189298
  0
VERTEX
  8
EBENE_1
 62
    39
  6
CONTINUOUS
 10
-0.179196
 20
-0.192040
  0
VERTEX
  8
EBENE_1
 62
    39
  6
CONTINUOUS
 10
-0.182012
 20
-0.193122
  0
VERTEX
  8
EBENE_1
 62
    39
  6
CONTINUOUS
 10
-0.184866
 20
-0.192139
  0
VERTEX
  8
EBENE_1
 62
    39
  6
CONTINUOUS
 10
-0.186934
 20
-0.189468
  0
VERTEX
  8
EBENE_1
 62
    39
  6
CONTINUOUS
 10
-0.187772
 20
-0.185681
  0
VERTEX
  8
EBENE_1
 62
    39
  6
CONTINUOUS
 10
-0.187067
 20
-0.181867
  0
VERTEX
  8
EBENE_1
 62
    39
  6
CONTINUOUS
 10
-0.185093
 20
-0.179125
  0
SEQEND
  8
0
  0
POLYLINE
  8
EBENE_1
 62
    39
  6
CONTINUOUS
 66
     1
 40
0.003000
 41
0.003000
 70
     1
  0
VERTEX
  8
EBENE_1
 62
    39
  6
CONTINUOUS
 10
-0.337256
 20
-0.183193
  0
VERTEX
  8
EBENE_1
 62
    39
  6
CONTINUOUS
 10
-0.334405
 20
-0.184175
  0
VERTEX
  8
EBENE_1
 62
    39
  6
CONTINUOUS
 10
-0.332338
 20
-0.186846
  0
VERTEX
  8
EBENE_1
 62
    39
  6
CONTINUOUS
 10
-0.331500
 20
-0.190634
  0
VERTEX
  8
EBENE_1
 62
    39
  6
CONTINUOUS
 10
-0.332205
 20
-0.194448
  0
VERTEX
  8
EBENE_1
 62
    39
  6
CONTINUOUS
 10
-0.334177
 20
-0.197190
  0
VERTEX
  8
EBENE_1
 62
    39
  6
CONTINUOUS
 10
-0.336992
 20
-0.198272
  0
VERTEX
  8
EBENE_1
 62
    39
  6
CONTINUOUS
 10
-0.339848
 20
-0.197288
  0
VERTEX
  8
EBENE_1
 62
    39
  6
CONTINUOUS
 10
-0.341917
 20
-0.194617
  0
VERTEX
  8
EBENE_1
 62
    39
  6
CONTINUOUS
 10
-0.342752
 20
-0.190831
  0
VERTEX
  8
EBENE_1
 62
    39
  6
CONTINUOUS
 10
-0.342049
 20
-0.187017
  0
VERTEX
  8
EBENE_1
 62
    39
  6
CONTINUOUS
 10
-0.340075
 20
-0.184275
  0
SEQEND
  8
0
  0
POLYLINE
  8
EBENE_1
 62
    39
  6
CONTINUOUS
 66
     1
 40
0.010000
 41
0.010000
 70
     1
  0
VERTEX
  8
EBENE_1
 62
    39
  6
CONTINUOUS
 10
-0.102020
 20
-0.552665
  0
VERTEX
  8
EBENE_1
 62
    39
  6
CONTINUOUS
 10
-0.094746
 20
-0.601267
  0
VERTEX
  8
EBENE_1
 62
    39
  6
CONTINUOUS
 10
-0.078641
 20
-0.656355
  0
VERTEX
  8
EBENE_1
 62
    39
  6
CONTINUOUS
 10
-0.053294
 20
-0.715612
  0
VERTEX
  8
EBENE_1
 62
    39
  6
CONTINUOUS
 10
-0.018294
 20
-0.776720
  0
VERTEX
  8
EBENE_1
 62
    39
  6
CONTINUOUS
 10
0.026770
 20
-0.837360
  0
VERTEX
  8
EBENE_1
 62
    39
  6
CONTINUOUS
 10
0.082309
 20
-0.895214
  0
VERTEX
  8
EBENE_1
 62
    39
  6
CONTINUOUS
 10
0.148732
 20
-0.947965
  0
VERTEX
  8
EBENE_1
 62
    39
  6
CONTINUOUS
 10
0.701650
 20
-0.935378
  0
VERTEX
  8
EBENE_1
 62
    39
  6
CONTINUOUS
 10
0.687756
 20
-0.139445
  0
VERTEX
  8
EBENE_1
 62
    39
  6
CONTINUOUS
 10
-0.108177
 20
-0.153339
  0
SEQEND
  8
0
  0
POLYLINE
  8
EBENE_1
 62
    39
  6
CONTINUOUS
 66
     1
 40
0.003000
 41
0.003000
 70
     1
  0
VERTEX
  8
EBENE_1
 62
    39
  6
CONTINUOUS
 10
-0.093350
 20
-0.548622
  0
VERTEX
  8
EBENE_1
 62
    39
  6
CONTINUOUS
 10
-0.086194
 20
-0.596781
  0
VERTEX
  8
EBENE_1
 62
    39
  6
CONTINUOUS
 10
-0.070357
 20
-0.651368
  0
VERTEX
  8
EBENE_1
 62
    39
  6
CONTINUOUS
 10
-0.045437
 20
-0.710088
  0
VERTEX
  8
EBENE_1
 62
    39
  6
CONTINUOUS
 10
-0.011030
 20
-0.770643
  0
VERTEX
  8
EBENE_1
 62
    39
  6
CONTINUOUS
 10
0.033268
 20
-0.830735
  0
VERTEX
  8
EBENE_1
 62
    39
  6
CONTINUOUS
 10
0.087860
 20
-0.888069
  0
VERTEX
  8
EBENE_1
 62
    39
  6
CONTINUOUS
 10
0.153150
 20
-0.940346
  0
VERTEX
  8
EBENE_1
 62
    39
  6
CONTINUOUS
 10
0.696555
 20
-0.927953
  0
VERTEX
  8
EBENE_1
 62
    39
  6
CONTINUOUS
 10
0.682791
 20
-0.139287
  0
VERTEX
  8
EBENE_1
 62
    39
  6
CONTINUOUS
 10
-0.099457
 20
-0.152941
  0
SEQEND
  8
0
  0
POLYLINE
  8
EBENE_1
 62
    39
  6
CONTINUOUS
 66
     1
 40
0.003000
 41
0.003000
 70
     1
  0
VERTEX
  8
EBENE_1
 62
    39
  6
CONTINUOUS
 10
0.625642
 20
-0.411764
  0
VERTEX
  8
EBENE_1
 62
    39
  6
CONTINUOUS
 10
0.628495
 20
-0.412745
  0
VERTEX
  8
EBENE_1
 62
    39
  6
CONTINUOUS
 10
0.630562
 20
-0.415417
  0
VERTEX
  8
EBENE_1
 62
    39
  6
CONTINUOUS
 10
0.631398
 20
-0.419205
  0
VERTEX
  8
EBENE_1
 62
    39
  6
CONTINUOUS
 10
0.630696
 20
-0.423019
  0
VERTEX
  8
EBENE_1
 62
    39
  6
CONTINUOUS
 10
0.628723
 20
-0.425761
  0
VERTEX
  8
EBENE_1
 62
    39
  6
CONTINUOUS
 10
0.625906
 20
-0.426843
  0
VERTEX
  8
EBENE_1
 62
    39
  6
CONTINUOUS
 10
0.623052
 20
-0.425859
  0
VERTEX
  8
EBENE_1
 62
    39
  6
CONTINUOUS
 10
0.620984
 20
-0.423188
  0
VERTEX
  8
EBENE_1
 62
    39
  6
CONTINUOUS
 10
0.620146
 20
-0.419402
  0
VERTEX
  8
EBENE_1
 62
    39
  6
CONTINUOUS
 10
0.620851
 20
-0.415588
  0
VERTEX
  8
EBENE_1
 62
    39
  6
CONTINUOUS
 10
0.622824
 20
-0.412845
  0
SEQEND
  8
0
  0
POLYLINE
  8
EBENE_1
 62
    39
  6
CONTINUOUS
 66
     1
 40
0.003000
 41
0.003000
 70
     1
  0
VERTEX
  8
EBENE_1
 62
    39
  6
CONTINUOUS
 10
0.630488
 20
-0.546091
  0
VERTEX
  8
EBENE_1
 62
    39
  6
CONTINUOUS
 10
0.633339
 20
-0.547074
  0
VERTEX
  8
EBENE_1
 62
    39
  6
CONTINUOUS
 10
0.635406
 20
-0.549746
  0
VERTEX
  8
EBENE_1
 62
    39
  6
CONTINUOUS
 10
0.636244
 20
-0.553535
  0
VERTEX
  8
EBENE_1
 62
    39
  6
CONTINUOUS
 10
0.635539
 20
-0.557347
  0
VERTEX
  8
EBENE_1
 62
    39
  6
CONTINUOUS
 10
0.633567
 20
-0.560088
  0
VERTEX
  8
EBENE_1
 62
    39
  6
CONTINUOUS
 10
0.630752
 20
-0.561169
  0
VERTEX
  8
EBENE_1
 62
    39
  6
CONTINUOUS
 10
0.627897
 20
-0.560188
  0
VERTEX
  8
EBENE_1
 62
    39
  6
CONTINUOUS
 10
0.625828
 20
-0.557516
  0
VERTEX
  8
EBENE_1
 62
    39
  6
CONTINUOUS
 10
0.624992
 20
-0.553728
  0
VERTEX
  8
EBENE_1
 62
    39
  6
CONTINUOUS
 10
0.625697
 20
-0.549914
  0
VERTEX
  8
EBENE_1
 62
    39
  6
CONTINUOUS
 10
0.627670
 20
-0.547172
  0
SEQEND
  8
0
  0
POLYLINE
  8
EBENE_1
 62
    39
  6
CONTINUOUS
 66
     1
 40
0.003000
 41
0.003000
 70
     1
  0
VERTEX
  8
EBENE_1
 62
    39
  6
CONTINUOUS
 10
0.368945
 20
-0.177374
  0
VERTEX
  8
EBENE_1
 62
    39
  6
CONTINUOUS
 10
0.371798
 20
-0.178356
  0
VERTEX
  8
EBENE_1
 62
    39
  6
CONTINUOUS
 10
0.373866
 20
-0.181028
  0
VERTEX
  8
EBENE_1
 62
    39
  6
CONTINUOUS
 10
0.374701
 20
-0.184815
  0
VERTEX
  8
EBENE_1
 62
    39
  6
CONTINUOUS
 10
0.373998
 20
-0.188629
  0
VERTEX
  8
EBENE_1
 62
    39
  6
CONTINUOUS
 10
0.372024
 20
-0.191370
  0
VERTEX
  8
EBENE_1
 62
    39
  6
CONTINUOUS
 10
0.369209
 20
-0.192449
  0
VERTEX
  8
EBENE_1
 62
    39
  6
CONTINUOUS
 10
0.366355
 20
-0.191467
  0
VERTEX
  8
EBENE_1
 62
    39
  6
CONTINUOUS
 10
0.364287
 20
-0.188796
  0
VERTEX
  8
EBENE_1
 62
    39
  6
CONTINUOUS
 10
0.363449
 20
-0.185012
  0
VERTEX
  8
EBENE_1
 62
    39
  6
CONTINUOUS
 10
0.364154
 20
-0.181197
  0
VERTEX
  8
EBENE_1
 62
    39
  6
CONTINUOUS
 10
0.366127
 20
-0.178454
  0
SEQEND
  8
0
  0
POLYLINE
  8
EBENE_1
 62
    39
  6
CONTINUOUS
 66
     1
 40
0.003000
 41
0.003000
 70
     1
  0
VERTEX
  8
EBENE_1
 62
    39
  6
CONTINUOUS
 10
0.213965
 20
-0.182524
  0
VERTEX
  8
EBENE_1
 62
    39
  6
CONTINUOUS
 10
0.216816
 20
-0.183505
  0
VERTEX
  8
EBENE_1
 62
    39
  6
CONTINUOUS
 10
0.218883
 20
-0.186177
  0
VERTEX
  8
EBENE_1
 62
    39
  6
CONTINUOUS
 10
0.219720
 20
-0.189965
  0
VERTEX
  8
EBENE_1
 62
    39
  6
CONTINUOUS
 10
0.219016
 20
-0.193778
  0
VERTEX
  8
EBENE_1
 62
    39
  6
CONTINUOUS
 10
0.217043
 20
-0.196520
  0
VERTEX
  8
EBENE_1
 62
    39
  6
CONTINUOUS
 10
0.214228
 20
-0.197598
  0
VERTEX
  8
EBENE_1
 62
    39
  6
CONTINUOUS
 10
0.211374
 20
-0.196617
  0
VERTEX
  8
EBENE_1
 62
    39
  6
CONTINUOUS
 10
0.209305
 20
-0.193946
  0
VERTEX
  8
EBENE_1
 62
    39
  6
CONTINUOUS
 10
0.208469
 20
-0.190161
  0
VERTEX
  8
EBENE_1
 62
    39
  6
CONTINUOUS
 10
0.209172
 20
-0.186345
  0
VERTEX
  8
EBENE_1
 62
    39
  6
CONTINUOUS
 10
0.211146
 20
-0.183603
  0
SEQEND
  8
0
  0
POLYLINE
  8
EBENE_1
 62
    39
  6
CONTINUOUS
 66
     1
 40
0.010000
 41
0.010000
 70
     1
  0
VERTEX
  8
EBENE_1
 62
    39
  6
CONTINUOUS
 10
0.449201
 20
-0.551996
  0
VERTEX
  8
EBENE_1
 62
    39
  6
CONTINUOUS
 10
0.456474
 20
-0.600596
  0
VERTEX
  8
EBENE_1
 62
    39
  6
CONTINUOUS
 10
0.472579
 20
-0.655684
  0
VERTEX
  8
EBENE_1
 62
    39
  6
CONTINUOUS
 10
0.497927
 20
-0.714941
  0
VERTEX
  8
EBENE_1
 62
    39
  6
CONTINUOUS
 10
0.532927
 20
-0.776049
  0
VERTEX
  8
EBENE_1
 62
    39
  6
CONTINUOUS
 10
0.577991
 20
-0.836690
  0
VERTEX
  8
EBENE_1
 62
    39
  6
CONTINUOUS
 10
0.633529
 20
-0.894545
  0
VERTEX
  8
EBENE_1
 62
    39
  6
CONTINUOUS
 10
0.699953
 20
-0.947295
  0
VERTEX
  8
EBENE_1
 62
    39
  6
CONTINUOUS
 10
1.252870
 20
-0.934709
  0
VERTEX
  8
EBENE_1
 62
    39
  6
CONTINUOUS
 10
1.238980
 20
-0.138776
  0
VERTEX
  8
EBENE_1
 62
    39
  6
CONTINUOUS
 10
0.443043
 20
-0.152669
  0
SEQEND
  8
0
  0
POLYLINE
  8
EBENE_1
 62
    39
  6
CONTINUOUS
 66
     1
 40
0.003000
 41
0.003000
 70
     1
  0
VERTEX
  8
EBENE_1
 62
    39
  6
CONTINUOUS
 10
0.457870
 20
-0.547949
  0
VERTEX
  8
EBENE_1
 62
    39
  6
CONTINUOUS
 10
0.465027
 20
-0.596108
  0
VERTEX
  8
EBENE_1
 62
    39
  6
CONTINUOUS
 10
0.480863
 20
-0.650696
  0
VERTEX
  8
EBENE_1
 62
    39
  6
CONTINUOUS
 10
0.505783
 20
-0.709416
  0
VERTEX
  8
EBENE_1
 62
    39
  6
CONTINUOUS
 10
0.540190
 20
-0.769972
  0
VERTEX
  8
EBENE_1
 62
    39
  6
CONTINUOUS
 10
0.584488
 20
-0.830065
  0
VERTEX
  8
EBENE_1
 62
    39
  6
CONTINUOUS
 10
0.639080
 20
-0.887399
  0
VERTEX
  8
EBENE_1
 62
    39
  6
CONTINUOUS
 10
0.704370
 20
-0.939677
  0
VERTEX
  8
EBENE_1
 62
    39
  6
CONTINUOUS
 10
1.247776
 20
-0.927283
  0
VERTEX
  8
EBENE_1
 62
    39
  6
CONTINUOUS
 10
1.234012
 20
-0.138614
  0
VERTEX
  8
EBENE_1
 62
    39
  6
CONTINUOUS
 10
0.451764
 20
-0.152268
  0
SEQEND
  8
0
  0
POLYLINE
  8
EBENE_1
 62
    39
  6
CONTINUOUS
 66
     1
 40
0.003000
 41
0.003000
 70
     1
  0
VERTEX
  8
EBENE_1
 62
    39
  6
CONTINUOUS
 10
1.176862
 20
-0.411094
  0
VERTEX
  8
EBENE_1
 62
    39
  6
CONTINUOUS
 10
1.179716
 20
-0.412075
  0
VERTEX
  8
EBENE_1
 62
    39
  6
CONTINUOUS
 10
1.181783
 20
-0.414746
  0
VERTEX
  8
EBENE_1
 62
    39
  6
CONTINUOUS
 10
1.182618
 20
-0.418535
  0
VERTEX
  8
EBENE_1
 62
    39
  6
CONTINUOUS
 10
1.181916
 20
-0.422347
  0
VERTEX
  8
EBENE_1
 62
    39
  6
CONTINUOUS
 10
1.179944
 20
-0.425090
  0
VERTEX
  8
EBENE_1
 62
    39
  6
CONTINUOUS
 10
1.177126
 20
-0.426169
  0
VERTEX
  8
EBENE_1
 62
    39
  6
CONTINUOUS
 10
1.174272
 20
-0.425188
  0
VERTEX
  8
EBENE_1
 62
    39
  6
CONTINUOUS
 10
1.172204
 20
-0.422517
  0
VERTEX
  8
EBENE_1
 62
    39
  6
CONTINUOUS
 10
1.171366
 20
-0.418732
  0
VERTEX
  8
EBENE_1
 62
    39
  6
CONTINUOUS
 10
1.172071
 20
-0.414916
  0
VERTEX
  8
EBENE_1
 62
    39
  6
CONTINUOUS
 10
1.174044
 20
-0.412174
  0
SEQEND
  8
0
  0
POLYLINE
  8
EBENE_1
 62
    39
  6
CONTINUOUS
 66
     1
 40
0.003000
 41
0.003000
 70
     1
  0
VERTEX
  8
EBENE_1
 62
    39
  6
CONTINUOUS
 10
1.181709
 20
-0.545421
  0
VERTEX
  8
EBENE_1
 62
    39
  6
CONTINUOUS
 10
1.184561
 20
-0.546403
  0
VERTEX
  8
EBENE_1
 62
    39
  6
CONTINUOUS
 10
1.186628
 20
-0.549075
  0
VERTEX
  8
EBENE_1
 62
    39
  6
CONTINUOUS
 10
1.187465
 20
-0.552862
  0
VERTEX
  8
EBENE_1
 62
    39
  6
CONTINUOUS
 10
1.186760
 20
-0.556676
  0
VERTEX
  8
EBENE_1
 62
    39
  6
CONTINUOUS
 10
1.184787
 20
-0.559418
  0
VERTEX
  8
EBENE_1
 62
    39
  6
CONTINUOUS
 10
1.181972
 20
-0.560500
  0
VERTEX
  8
EBENE_1
 62
    39
  6
CONTINUOUS
 10
1.179118
 20
-0.559517
  0
VERTEX
  8
EBENE_1
 62
    39
  6
CONTINUOUS
 10
1.177049
 20
-0.556846
  0
VERTEX
  8
EBENE_1
 62
    39
  6
CONTINUOUS
 10
1.176213
 20
-0.553059
  0
VERTEX
  8
EBENE_1
 62
    39
  6
CONTINUOUS
 10
1.176917
 20
-0.549245
  0
VERTEX
  8
EBENE_1
 62
    39
  6
CONTINUOUS
 10
1.178891
 20
-0.546503
  0
SEQEND
  8
0
  0
POLYLINE
  8
EBENE_1
 62
    39
  6
CONTINUOUS
 66
     1
 40
0.003000
 41
0.003000
 70
     1
  0
VERTEX
  8
EBENE_1
 62
    39
  6
CONTINUOUS
 10
0.920165
 20
-0.176701
  0
VERTEX
  8
EBENE_1
 62
    39
  6
CONTINUOUS
 10
0.923019
 20
-0.177684
  0
VERTEX
  8
EBENE_1
 62
    39
  6
CONTINUOUS
 10
0.925086
 20
-0.180356
  0
VERTEX
  8
EBENE_1
 62
    39
  6
CONTINUOUS
 10
0.925921
 20
-0.184146
  0
VERTEX
  8
EBENE_1
 62
    39
  6
CONTINUOUS
 10
0.925218
 20
-0.187957
  0
VERTEX
  8
EBENE_1
 62
    39
  6
CONTINUOUS
 10
0.923245
 20
-0.190698
  0
VERTEX
  8
EBENE_1
 62
    39
  6
CONTINUOUS
 10
0.920429
 20
-0.191780
  0
VERTEX
  8
EBENE_1
 62
    39
  6
CONTINUOUS
 10
0.917575
 20
-0.190798
  0
VERTEX
  8
EBENE_1
 62
    39
  6
CONTINUOUS
 10
0.915507
 20
-0.188127
  0
VERTEX
  8
EBENE_1
 62
    39
  6
CONTINUOUS
 10
0.914669
 20
-0.184343
  0
VERTEX
  8
EBENE_1
 62
    39
  6
CONTINUOUS
 10
0.915374
 20
-0.180526
  0
VERTEX
  8
EBENE_1
 62
    39
  6
CONTINUOUS
 10
0.917348
 20
-0.177783
  0
SEQEND
  8
0
  0
POLYLINE
  8
EBENE_1
 62
    39
  6
CONTINUOUS
 66
     1
 40
0.003000
 41
0.003000
 70
     1
  0
VERTEX
  8
EBENE_1
 62
    39
  6
CONTINUOUS
 10
0.765185
 20
-0.181850
  0
VERTEX
  8
EBENE_1
 62
    39
  6
CONTINUOUS
 10
0.768036
 20
-0.182834
  0
VERTEX
  8
EBENE_1
 62
    39
  6
CONTINUOUS
 10
0.770103
 20
-0.185506
  0
VERTEX
  8
EBENE_1
 62
    39
  6
CONTINUOUS
 10
0.770941
 20
-0.189295
  0
VERTEX
  8
EBENE_1
 62
    39
  6
CONTINUOUS
 10
0.770236
 20
-0.193106
  0
VERTEX
  8
EBENE_1
 62
    39
  6
CONTINUOUS
 10
0.768264
 20
-0.195848
  0
VERTEX
  8
EBENE_1
 62
    39
  6
CONTINUOUS
 10
0.765449
 20
-0.196929
  0
VERTEX
  8
EBENE_1
 62
    39
  6
CONTINUOUS
 10
0.762594
 20
-0.195948
  0
VERTEX
  8
EBENE_1
 62
    39
  6
CONTINUOUS
 10
0.760525
 20
-0.193276
  0
VERTEX
  8
EBENE_1
 62
    39
  6
CONTINUOUS
 10
0.759689
 20
-0.189488
  0
VERTEX
  8
EBENE_1
 62
    39
  6
CONTINUOUS
 10
0.760394
 20
-0.185674
  0
VERTEX
  8
EBENE_1
 62
    39
  6
CONTINUOUS
 10
0.762367
 20
-0.182932
  0
SEQEND
  8
0
  0
POLYLINE
  8
EBENE_1
 62
    39
  6
CONTINUOUS
 66
     1
 40
0.010000
 41
0.010000
 70
     1
  0
VERTEX
  8
EBENE_1
 62
    39
  6
CONTINUOUS
 10
1.000421
 20
-0.551323
  0
VERTEX
  8
EBENE_1
 62
    39
  6
CONTINUOUS
 10
1.007695
 20
-0.599924
  0
VERTEX
  8
EBENE_1
 62
    39
  6
CONTINUOUS
 10
1.023800
 20
-0.655013
  0
VERTEX
  8
EBENE_1
 62
    39
  6
CONTINUOUS
 10
1.049147
 20
-0.714271
  0
VERTEX
  8
EBENE_1
 62
    39
  6
CONTINUOUS
 10
1.084148
 20
-0.775379
  0
VERTEX
  8
EBENE_1
 62
    39
  6
CONTINUOUS
 10
1.129212
 20
-0.836020
  0
VERTEX
  8
EBENE_1
 62
    39
  6
CONTINUOUS
 10
1.184752
 20
-0.893875
  0
VERTEX
  8
EBENE_1
 62
    39
  6
CONTINUOUS
 10
1.251177
 20
-0.946626
  0
VERTEX
  8
EBENE_1
 62
    39
  6
CONTINUOUS
 10
1.804091
 20
-0.934039
  0
VERTEX
  8
EBENE_1
 62
    39
  6
CONTINUOUS
 10
1.790201
 20
-0.138106
  0
VERTEX
  8
EBENE_1
 62
    39
  6
CONTINUOUS
 10
0.994264
 20
-0.152000
  0
SEQEND
  8
0
  0
POLYLINE
  8
EBENE_1
 62
    39
  6
CONTINUOUS
 66
     1
 40
0.003000
 41
0.003000
 70
     1
  0
VERTEX
  8
EBENE_1
 62
    39
  6
CONTINUOUS
 10
1.009094
 20
-0.547280
  0
VERTEX
  8
EBENE_1
 62
    39
  6
CONTINUOUS
 10
1.016250
 20
-0.595438
  0
VERTEX
  8
EBENE_1
 62
    39
  6
CONTINUOUS
 10
1.032085
 20
-0.650026
  0
VERTEX
  8
EBENE_1
 62
    39
  6
CONTINUOUS
 10
1.057004
 20
-0.708746
  0
VERTEX
  8
EBENE_1
 62
    39
  6
CONTINUOUS
 10
1.091411
 20
-0.769301
  0
VERTEX
  8
EBENE_1
 62
    39
  6
CONTINUOUS
 10
1.135709
 20
-0.829394
  0
VERTEX
  8
EBENE_1
 62
    39
  6
CONTINUOUS
 10
1.190301
 20
-0.886729
  0
VERTEX
  8
EBENE_1
 62
    39
  6
CONTINUOUS
 10
1.255591
 20
-0.939008
  0
VERTEX
  8
EBENE_1
 62
    39
  6
CONTINUOUS
 10
1.798996
 20
-0.926614
  0
VERTEX
  8
EBENE_1
 62
    39
  6
CONTINUOUS
 10
1.785232
 20
-0.137945
  0
VERTEX
  8
EBENE_1
 62
    39
  6
CONTINUOUS
 10
1.002984
 20
-0.151598
  0
SEQEND
  8
0
  0
POLYLINE
  8
EBENE_1
 62
    39
  6
CONTINUOUS
 66
     1
 40
0.003000
 41
0.003000
 70
     1
  0
VERTEX
  8
EBENE_1
 62
    39
  6
CONTINUOUS
 10
1.728083
 20
-0.410421
  0
VERTEX
  8
EBENE_1
 62
    39
  6
CONTINUOUS
 10
1.730936
 20
-0.411405
  0
VERTEX
  8
EBENE_1
 62
    39
  6
CONTINUOUS
 10
1.733003
 20
-0.414077
  0
VERTEX
  8
EBENE_1
 62
    39
  6
CONTINUOUS
 10
1.733839
 20
-0.417866
  0
VERTEX
  8
EBENE_1
 62
    39
  6
CONTINUOUS
 10
1.733136
 20
-0.421677
  0
VERTEX
  8
EBENE_1
 62
    39
  6
CONTINUOUS
 10
1.731164
 20
-0.424418
  0
VERTEX
  8
EBENE_1
 62
    39
  6
CONTINUOUS
 10
1.728346
 20
-0.425500
  0
VERTEX
  8
EBENE_1
 62
    39
  6
CONTINUOUS
 10
1.725493
 20
-0.424518
  0
VERTEX
  8
EBENE_1
 62
    39
  6
CONTINUOUS
 10
1.723426
 20
-0.421846
  0
VERTEX
  8
EBENE_1
 62
    39
  6
CONTINUOUS
 10
1.722591
 20
-0.418059
  0
VERTEX
  8
EBENE_1
 62
    39
  6
CONTINUOUS
 10
1.723293
 20
-0.414245
  0
VERTEX
  8
EBENE_1
 62
    39
  6
CONTINUOUS
 10
1.725265
 20
-0.411503
  0
SEQEND
  8
0
  0
POLYLINE
  8
EBENE_1
 62
    39
  6
CONTINUOUS
 66
     1
 40
0.003000
 41
0.003000
 70
     1
  0
VERTEX
  8
EBENE_1
 62
    39
  6
CONTINUOUS
 10
1.732929
 20
-0.544752
  0
VERTEX
  8
EBENE_1
 62
    39
  6
CONTINUOUS
 10
1.735781
 20
-0.545734
  0
VERTEX
  8
EBENE_1
 62
    39
  6
CONTINUOUS
 10
1.737849
 20
-0.548406
  0
VERTEX
  8
EBENE_1
 62
    39
  6
CONTINUOUS
 10
1.738685
 20
-0.552193
  0
VERTEX
  8
EBENE_1
 62
    39
  6
CONTINUOUS
 10
1.737980
 20
-0.556007
  0
VERTEX
  8
EBENE_1
 62
    39
  6
CONTINUOUS
 10
1.736008
 20
-0.558748
  0
VERTEX
  8
EBENE_1
 62
    39
  6
CONTINUOUS
 10
1.733193
 20
-0.559827
  0
VERTEX
  8
EBENE_1
 62
    39
  6
CONTINUOUS
 10
1.730338
 20
-0.558845
  0
VERTEX
  8
EBENE_1
 62
    39
  6
CONTINUOUS
 10
1.728269
 20
-0.556174
  0
VERTEX
  8
EBENE_1
 62
    39
  6
CONTINUOUS
 10
1.727433
 20
-0.552390
  0
VERTEX
  8
EBENE_1
 62
    39
  6
CONTINUOUS
 10
1.728138
 20
-0.548573
  0
VERTEX
  8
EBENE_1
 62
    39
  6
CONTINUOUS
 10
1.730111
 20
-0.545831
  0
SEQEND
  8
0
  0
POLYLINE
  8
EBENE_1
 62
    39
  6
CONTINUOUS
 66
     1
 40
0.003000
 41
0.003000
 70
     1
  0
VERTEX
  8
EBENE_1
 62
    39
  6
CONTINUOUS
 10
1.471386
 20
-0.176031
  0
VERTEX
  8
EBENE_1
 62
    39
  6
CONTINUOUS
 10
1.474239
 20
-0.177013
  0
VERTEX
  8
EBENE_1
 62
    39
  6
CONTINUOUS
 10
1.476307
 20
-0.179685
  0
VERTEX
  8
EBENE_1
 62
    39
  6
CONTINUOUS
 10
1.477142
 20
-0.183472
  0
VERTEX
  8
EBENE_1
 62
    39
  6
CONTINUOUS
 10
1.476440
 20
-0.187286
  0
VERTEX
  8
EBENE_1
 62
    39
  6
CONTINUOUS
 10
1.474467
 20
-0.190029
  0
VERTEX
  8
EBENE_1
 62
    39
  6
CONTINUOUS
 10
1.471650
 20
-0.191110
  0
VERTEX
  8
EBENE_1
 62
    39
  6
CONTINUOUS
 10
1.468796
 20
-0.190129
  0
VERTEX
  8
EBENE_1
 62
    39
  6
CONTINUOUS
 10
1.466728
 20
-0.187457
  0
VERTEX
  8
EBENE_1
 62
    39
  6
CONTINUOUS
 10
1.465890
 20
-0.183669
  0
VERTEX
  8
EBENE_1
 62
    39
  6
CONTINUOUS
 10
1.466595
 20
-0.179855
  0
VERTEX
  8
EBENE_1
 62
    39
  6
CONTINUOUS
 10
1.468568
 20
-0.177113
  0
SEQEND
  8
0
  0
POLYLINE
  8
EBENE_1
 62
    39
  6
CONTINUOUS
 66
     1
 40
0.003000
 41
0.003000
 70
     1
  0
VERTEX
  8
EBENE_1
 62
    39
  6
CONTINUOUS
 10
1.316406
 20
-0.181181
  0
VERTEX
  8
EBENE_1
 62
    39
  6
CONTINUOUS
 10
1.319257
 20
-0.182163
  0
VERTEX
  8
EBENE_1
 62
    39
  6
CONTINUOUS
 10
1.321325
 20
-0.184835
  0
VERTEX
  8
EBENE_1
 62
    39
  6
CONTINUOUS
 10
1.322161
 20
-0.188622
  0
VERTEX
  8
EBENE_1
 62
    39
  6
CONTINUOUS
 10
1.321457
 20
-0.192436
  0
VERTEX
  8
EBENE_1
 62
    39
  6
CONTINUOUS
 10
1.319484
 20
-0.195178
  0
VERTEX
  8
EBENE_1
 62
    39
  6
CONTINUOUS
 10
1.316669
 20
-0.196260
  0
VERTEX
  8
EBENE_1
 62
    39
  6
CONTINUOUS
 10
1.313815
 20
-0.195276
  0
VERTEX
  8
EBENE_1
 62
    39
  6
CONTINUOUS
 10
1.311746
 20
-0.192605
  0
VERTEX
  8
EBENE_1
 62
    39
  6
CONTINUOUS
 10
1.310909
 20
-0.188819
  0
VERTEX
  8
EBENE_1
 62
    39
  6
CONTINUOUS
 10
1.311614
 20
-0.185005
  0
VERTEX
  8
EBENE_1
 62
    39
  6
CONTINUOUS
 10
1.313588
 20
-0.182263
  0
SEQEND
  8
0
  0
POLYLINE
  8
EBENE_1
 62
    39
  6
CONTINUOUS
 66
     1
 40
0.010000
 41
0.010000
 70
     1
  0
VERTEX
  8
EBENE_1
 62
    39
  6
CONTINUOUS
 10
1.551642
 20
-0.550654
  0
VERTEX
  8
EBENE_1
 62
    39
  6
CONTINUOUS
 10
1.558915
 20
-0.599255
  0
VERTEX
  8
EBENE_1
 62
    39
  6
CONTINUOUS
 10
1.575021
 20
-0.654343
  0
VERTEX
  8
EBENE_1
 62
    39
  6
CONTINUOUS
 10
1.600368
 20
-0.713600
  0
VERTEX
  8
EBENE_1
 62
    39
  6
CONTINUOUS
 10
1.635368
 20
-0.774708
  0
VERTEX
  8
EBENE_1
 62
    39
  6
CONTINUOUS
 10
1.680433
 20
-0.835348
  0
VERTEX
  8
EBENE_1
 62
    39
  6
CONTINUOUS
 10
1.735972
 20
-0.893202
  0
VERTEX
  8
EBENE_1
 62
    39
  6
CONTINUOUS
 10
1.802398
 20
-0.945953
  0
VERTEX
  8
EBENE_1
 62
    39
  6
CONTINUOUS
 10
2.355315
 20
-0.933366
  0
VERTEX
  8
EBENE_1
 62
    39
  6
CONTINUOUS
 10
2.341421
 20
-0.137433
  0
VERTEX
  8
EBENE_1
 62
    39
  6
CONTINUOUS
 10
1.545484
 20
-0.151327
  0
SEQEND
  8
0
  0
POLYLINE
  8
EBENE_1
 62
    39
  6
CONTINUOUS
 66
     1
 40
0.003000
 41
0.003000
 70
     1
  0
VERTEX
  8
EBENE_1
 62
    39
  6
CONTINUOUS
 10
1.560315
 20
-0.546610
  0
VERTEX
  8
EBENE_1
 62
    39
  6
CONTINUOUS
 10
1.567470
 20
-0.594769
  0
VERTEX
  8
EBENE_1
 62
    39
  6
CONTINUOUS
 10
1.583305
 20
-0.649356
  0
VERTEX
  8
EBENE_1
 62
    39
  6
CONTINUOUS
 10
1.608225
 20
-0.708076
  0
VERTEX
  8
EBENE_1
 62
    39
  6
CONTINUOUS
 10
1.642632
 20
-0.768631
  0
VERTEX
  8
EBENE_1
 62
    39
  6
CONTINUOUS
 10
1.686929
 20
-0.828724
  0
VERTEX
  8
EBENE_1
 62
    39
  6
CONTINUOUS
 10
1.741521
 20
-0.886057
  0
VERTEX
  8
EBENE_1
 62
    39
  6
CONTINUOUS
 10
1.806811
 20
-0.938335
  0
VERTEX
  8
EBENE_1
 62
    39
  6
CONTINUOUS
 10
2.350217
 20
-0.925941
  0
VERTEX
  8
EBENE_1
 62
    39
  6
CONTINUOUS
 10
2.336453
 20
-0.137276
  0
VERTEX
  8
EBENE_1
 62
    39
  6
CONTINUOUS
 10
1.554205
 20
-0.150929
  0
SEQEND
  8
0
  0
POLYLINE
  8
EBENE_1
 62
    39
  6
CONTINUOUS
 66
     1
 40
0.003000
 41
0.003000
 70
     1
  0
VERTEX
  8
EBENE_1
 62
    39
  6
CONTINUOUS
 10
2.279303
 20
-0.409752
  0
VERTEX
  8
EBENE_1
 62
    39
  6
CONTINUOUS
 10
2.282157
 20
-0.410734
  0
VERTEX
  8
EBENE_1
 62
    39
  6
CONTINUOUS
 10
2.284225
 20
-0.413406
  0
VERTEX
  8
EBENE_1
 62
    39
  6
CONTINUOUS
 10
2.285063
 20
-0.417193
  0
VERTEX
  8
EBENE_1
 62
    39
  6
CONTINUOUS
 10
2.284358
 20
-0.421007
  0
VERTEX
  8
EBENE_1
 62
    39
  6
CONTINUOUS
 10
2.282385
 20
-0.423749
  0
VERTEX
  8
EBENE_1
 62
    39
  6
CONTINUOUS
 10
2.279567
 20
-0.424831
  0
VERTEX
  8
EBENE_1
 62
    39
  6
CONTINUOUS
 10
2.276713
 20
-0.423847
  0
VERTEX
  8
EBENE_1
 62
    39
  6
CONTINUOUS
 10
2.274646
 20
-0.421176
  0
VERTEX
  8
EBENE_1
 62
    39
  6
CONTINUOUS
 10
2.273811
 20
-0.417390
  0
VERTEX
  8
EBENE_1
 62
    39
  6
CONTINUOUS
 10
2.274513
 20
-0.413576
  0
VERTEX
  8
EBENE_1
 62
    39
  6
CONTINUOUS
 10
2.276486
 20
-0.410834
  0
SEQEND
  8
0
  0
POLYLINE
  8
EBENE_1
 62
    39
  6
CONTINUOUS
 66
     1
 40
0.003000
 41
0.003000
 70
     1
  0
VERTEX
  8
EBENE_1
 62
    39
  6
CONTINUOUS
 10
2.284150
 20
-0.544079
  0
VERTEX
  8
EBENE_1
 62
    39
  6
CONTINUOUS
 10
2.287001
 20
-0.545062
  0
VERTEX
  8
EBENE_1
 62
    39
  6
CONTINUOUS
 10
2.289069
 20
-0.547734
  0
VERTEX
  8
EBENE_1
 62
    39
  6
CONTINUOUS
 10
2.289906
 20
-0.551524
  0
VERTEX
  8
EBENE_1
 62
    39
  6
CONTINUOUS
 10
2.289203
 20
-0.555335
  0
VERTEX
  8
EBENE_1
 62
    39
  6
CONTINUOUS
 10
2.287229
 20
-0.558076
  0
VERTEX
  8
EBENE_1
 62
    39
  6
CONTINUOUS
 10
2.284413
 20
-0.559157
  0
VERTEX
  8
EBENE_1
 62
    39
  6
CONTINUOUS
 10
2.281560
 20
-0.558176
  0
VERTEX
  8
EBENE_1
 62
    39
  6
CONTINUOUS
 10
2.279492
 20
-0.555505
  0
VERTEX
  8
EBENE_1
 62
    39
  6
CONTINUOUS
 10
2.278654
 20
-0.551720
  0
VERTEX
  8
EBENE_1
 62
    39
  6
CONTINUOUS
 10
2.279358
 20
-0.547904
  0
VERTEX
  8
EBENE_1
 62
    39
  6
CONTINUOUS
 10
2.281332
 20
-0.545161
  0
SEQEND
  8
0
  0
POLYLINE
  8
EBENE_1
 62
    39
  6
CONTINUOUS
 66
     1
 40
0.003000
 41
0.003000
 70
     1
  0
VERTEX
  8
EBENE_1
 62
    39
  6
CONTINUOUS
 10
2.022606
 20
-0.175362
  0
VERTEX
  8
EBENE_1
 62
    39
  6
CONTINUOUS
 10
2.025460
 20
-0.176344
  0
VERTEX
  8
EBENE_1
 62
    39
  6
CONTINUOUS
 10
2.027527
 20
-0.179016
  0
VERTEX
  8
EBENE_1
 62
    39
  6
CONTINUOUS
 10
2.028362
 20
-0.182803
  0
VERTEX
  8
EBENE_1
 62
    39
  6
CONTINUOUS
 10
2.027660
 20
-0.186617
  0
VERTEX
  8
EBENE_1
 62
    39
  6
CONTINUOUS
 10
2.025688
 20
-0.189358
  0
VERTEX
  8
EBENE_1
 62
    39
  6
CONTINUOUS
 10
2.022870
 20
-0.190437
  0
VERTEX
  8
EBENE_1
 62
    39
  6
CONTINUOUS
 10
2.020016
 20
-0.189456
  0
VERTEX
  8
EBENE_1
 62
    39
  6
CONTINUOUS
 10
2.017948
 20
-0.186786
  0
VERTEX
  8
EBENE_1
 62
    39
  6
CONTINUOUS
 10
2.017110
 20
-0.183000
  0
VERTEX
  8
EBENE_1
 62
    39
  6
CONTINUOUS
 10
2.017815
 20
-0.179186
  0
VERTEX
  8
EBENE_1
 62
    39
  6
CONTINUOUS
 10
2.019789
 20
-0.176444
  0
SEQEND
  8
0
  0
POLYLINE
  8
EBENE_1
 62
    39
  6
CONTINUOUS
 66
     1
 40
0.003000
 41
0.003000
 70
     1
  0
VERTEX
  8
EBENE_1
 62
    39
  6
CONTINUOUS
 10
1.867626
 20
-0.180512
  0
VERTEX
  8
EBENE_1
 62
    39
  6
CONTINUOUS
 10
1.870478
 20
-0.181493
  0
VERTEX
  8
EBENE_1
 62
    39
  6
CONTINUOUS
 10
1.872546
 20
-0.184165
  0
VERTEX
  8
EBENE_1
 62
    39
  6
CONTINUOUS
 10
1.873382
 20
-0.187953
  0
VERTEX
  8
EBENE_1
 62
    39
  6
CONTINUOUS
 10
1.872677
 20
-0.191767
  0
VERTEX
  8
EBENE_1
 62
    39
  6
CONTINUOUS
 10
1.870705
 20
-0.194508
  0
VERTEX
  8
EBENE_1
 62
    39
  6
CONTINUOUS
 10
1.867890
 20
-0.195587
  0
VERTEX
  8
EBENE_1
 62
    39
  6
CONTINUOUS
 10
1.865035
 20
-0.194606
  0
VERTEX
  8
EBENE_1
 62
    39
  6
CONTINUOUS
 10
1.862966
 20
-0.191936
  0
VERTEX
  8
EBENE_1
 62
    39
  6
CONTINUOUS
 10
1.862130
 20
-0.188150
  0
VERTEX
  8
EBENE_1
 62
    39
  6
CONTINUOUS
 10
1.862835
 20
-0.184335
  0
VERTEX
  8
EBENE_1
 62
    39
  6
CONTINUOUS
 10
1.864808
 20
-0.181592
  0
SEQEND
  8
0
  0
POLYLINE
  8
EBENE_1
 62
    39
  6
CONTINUOUS
 66
     1
 40
0.010000
 41
0.010000
 70
     1
  0
VERTEX
  8
EBENE_1
 62
    39
  6
CONTINUOUS
 10
-2.014839
 20
0.015728
  0
VERTEX
  8
EBENE_1
 62
    39
  6
CONTINUOUS
 10
-2.007565
 20
-0.032872
  0
VERTEX
  8
EBENE_1
 62
    39
  6
CONTINUOUS
 10
-1.991460
 20
-0.087959
  0
VERTEX
  8
EBENE_1
 62
    39
  6
CONTINUOUS
 10
-1.966112
 20
-0.147216
  0
VERTEX
  8
EBENE_1
 62
    39
  6
CONTINUOUS
 10
-1.931112
 20
-0.208325
  0
VERTEX
  8
EBENE_1
 62
    39
  6
CONTINUOUS
 10
-1.886047
 20
-0.268965
  0
VERTEX
  8
EBENE_1
 62
    39
  6
CONTINUOUS
 10
-1.830508
 20
-0.326820
  0
VERTEX
  8
EBENE_1
 62
    39
  6
CONTINUOUS
 10
-1.764083
 20
-0.379571
  0
VERTEX
  8
EBENE_1
 62
    39
  6
CONTINUOUS
 10
-1.764083
 20
-0.379571
  0
VERTEX
  8
EBENE_1
 62
    39
  6
CONTINUOUS
 10
-1.211165
 20
-0.366984
  0
VERTEX
  8
EBENE_1
 62
    39
  6
CONTINUOUS
 10
-1.225059
 20
0.428949
  0
VERTEX
  8
EBENE_1
 62
    39
  6
CONTINUOUS
 10
-2.020996
 20
0.415055
  0
SEQEND
  8
0
  0
POLYLINE
  8
EBENE_1
 62
    39
  6
CONTINUOUS
 66
     1
 40
0.003000
 41
0.003000
 70
     1
  0
VERTEX
  8
EBENE_1
 62
    39
  6
CONTINUOUS
 10
-2.006165
 20
0.019776
  0
VERTEX
  8
EBENE_1
 62
    39
  6
CONTINUOUS
 10
-1.999010
 20
-0.028383
  0
VERTEX
  8
EBENE_1
 62
    39
  6
CONTINUOUS
 10
-1.983175
 20
-0.082971
  0
VERTEX
  8
EBENE_1
 62
    39
  6
CONTINUOUS
 10
-1.958256
 20
-0.141692
  0
VERTEX
  8
EBENE_1
 62
    39
  6
CONTINUOUS
 10
-1.923849
 20
-0.202247
  0
VERTEX
  8
EBENE_1
 62
    39
  6
CONTINUOUS
 10
-1.879551
 20
-0.262341
  0
VERTEX
  8
EBENE_1
 62
    39
  6
CONTINUOUS
 10
-1.824959
 20
-0.319675
  0
VERTEX
  8
EBENE_1
 62
    39
  6
CONTINUOUS
 10
-1.759669
 20
-0.371953
  0
VERTEX
  8
EBENE_1
 62
    39
  6
CONTINUOUS
 10
-1.759669
 20
-0.371953
  0
VERTEX
  8
EBENE_1
 62
    39
  6
CONTINUOUS
 10
-1.216264
 20
-0.359559
  0
VERTEX
  8
EBENE_1
 62
    39
  6
CONTINUOUS
 10
-1.230028
 20
0.429110
  0
VERTEX
  8
EBENE_1
 62
    39
  6
CONTINUOUS
 10
-2.012276
 20
0.415453
  0
SEQEND
  8
0
  0
POLYLINE
  8
EBENE_1
 62
    39
  6
CONTINUOUS
 66
     1
 40
0.003000
 41
0.003000
 70
     1
  0
VERTEX
  8
EBENE_1
 62
    39
  6
CONTINUOUS
 10
-1.287177
 20
0.156630
  0
VERTEX
  8
EBENE_1
 62
    39
  6
CONTINUOUS
 10
-1.284323
 20
0.155648
  0
VERTEX
  8
EBENE_1
 62
    39
  6
CONTINUOUS
 10
-1.282255
 20
0.152976
  0
VERTEX
  8
EBENE_1
 62
    39
  6
CONTINUOUS
 10
-1.281417
 20
0.149189
  0
VERTEX
  8
EBENE_1
 62
    39
  6
CONTINUOUS
 10
-1.282122
 20
0.145375
  0
VERTEX
  8
EBENE_1
 62
    39
  6
CONTINUOUS
 10
-1.284096
 20
0.142634
  0
VERTEX
  8
EBENE_1
 62
    39
  6
CONTINUOUS
 10
-1.286913
 20
0.141555
  0
VERTEX
  8
EBENE_1
 62
    39
  6
CONTINUOUS
 10
-1.289767
 20
0.142537
  0
VERTEX
  8
EBENE_1
 62
    39
  6
CONTINUOUS
 10
-1.291834
 20
0.145207
  0
VERTEX
  8
EBENE_1
 62
    39
  6
CONTINUOUS
 10
-1.292669
 20
0.148992
  0
VERTEX
  8
EBENE_1
 62
    39
  6
CONTINUOUS
 10
-1.291967
 20
0.152809
  0
VERTEX
  8
EBENE_1
 62
    39
  6
CONTINUOUS
 10
-1.289995
 20
0.155551
  0
SEQEND
  8
0
  0
POLYLINE
  8
EBENE_1
 62
    39
  6
CONTINUOUS
 66
     1
 40
0.003000
 41
0.003000
 70
     1
  0
VERTEX
  8
EBENE_1
 62
    39
  6
CONTINUOUS
 10
-1.282331
 20
0.022303
  0
VERTEX
  8
EBENE_1
 62
    39
  6
CONTINUOUS
 10
-1.279479
 20
0.021322
  0
VERTEX
  8
EBENE_1
 62
    39
  6
CONTINUOUS
 10
-1.277411
 20
0.018650
  0
VERTEX
  8
EBENE_1
 62
    39
  6
CONTINUOUS
 10
-1.276575
 20
0.014862
  0
VERTEX
  8
EBENE_1
 62
    39
  6
CONTINUOUS
 10
-1.277280
 20
0.011048
  0
VERTEX
  8
EBENE_1
 62
    39
  6
CONTINUOUS
 10
-1.279252
 20
0.008306
  0
VERTEX
  8
EBENE_1
 62
    39
  6
CONTINUOUS
 10
-1.282067
 20
0.007224
  0
VERTEX
  8
EBENE_1
 62
    39
  6
CONTINUOUS
 10
-1.284921
 20
0.008208
  0
VERTEX
  8
EBENE_1
 62
    39
  6
CONTINUOUS
 10
-1.286989
 20
0.010879
  0
VERTEX
  8
EBENE_1
 62
    39
  6
CONTINUOUS
 10
-1.287827
 20
0.014665
  0
VERTEX
  8
EBENE_1
 62
    39
  6
CONTINUOUS
 10
-1.287122
 20
0.018479
  0
VERTEX
  8
EBENE_1
 62
    39
  6
CONTINUOUS
 10
-1.285148
 20
0.021221
  0
SEQEND
  8
0
  0
POLYLINE
  8
EBENE_1
 62
    39
  6
CONTINUOUS
 66
     1
 40
0.003000
 41
0.003000
 70
     1
  0
VERTEX
  8
EBENE_1
 62
    39
  6
CONTINUOUS
 10
-1.543874
 20
0.391024
  0
VERTEX
  8
EBENE_1
 62
    39
  6
CONTINUOUS
 10
-1.541020
 20
0.390040
  0
VERTEX
  8
EBENE_1
 62
    39
  6
CONTINUOUS
 10
-1.538953
 20
0.387368
  0
VERTEX
  8
EBENE_1
 62
    39
  6
CONTINUOUS
 10
-1.538118
 20
0.383579
  0
VERTEX
  8
EBENE_1
 62
    39
  6
CONTINUOUS
 10
-1.538820
 20
0.379768
  0
VERTEX
  8
EBENE_1
 62
    39
  6
CONTINUOUS
 10
-1.540793
 20
0.377026
  0
VERTEX
  8
EBENE_1
 62
    39
  6
CONTINUOUS
 10
-1.543610
 20
0.375945
  0
VERTEX
  8
EBENE_1
 62
    39
  6
CONTINUOUS
 10
-1.546464
 20
0.376926
  0
VERTEX
  8
EBENE_1
 62
    39
  6
CONTINUOUS
 10
-1.548532
 20
0.379597
  0
VERTEX
  8
EBENE_1
 62
    39
  6
CONTINUOUS
 10
-1.549370
 20
0.383382
  0
VERTEX
  8
EBENE_1
 62
    39
  6
CONTINUOUS
 10
-1.548665
 20
0.387199
  0
VERTEX
  8
EBENE_1
 62
    39
  6
CONTINUOUS
 10
-1.546692
 20
0.389942
  0
SEQEND
  8
0
  0
POLYLINE
  8
EBENE_1
 62
    39
  6
CONTINUOUS
 66
     1
 40
0.003000
 41
0.003000
 70
     1
  0
VERTEX
  8
EBENE_1
 62
    39
  6
CONTINUOUS
 10
-1.698854
 20
0.385874
  0
VERTEX
  8
EBENE_1
 62
    39
  6
CONTINUOUS
 10
-1.696002
 20
0.384890
  0
VERTEX
  8
EBENE_1
 62
    39
  6
CONTINUOUS
 10
-1.693935
 20
0.382218
  0
VERTEX
  8
EBENE_1
 62
    39
  6
CONTINUOUS
 10
-1.693098
 20
0.378429
  0
VERTEX
  8
EBENE_1
 62
    39
  6
CONTINUOUS
 10
-1.693803
 20
0.374618
  0
VERTEX
  8
EBENE_1
 62
    39
  6
CONTINUOUS
 10
-1.695776
 20
0.371877
  0
VERTEX
  8
EBENE_1
 62
    39
  6
CONTINUOUS
 10
-1.698591
 20
0.370795
  0
VERTEX
  8
EBENE_1
 62
    39
  6
CONTINUOUS
 10
-1.701445
 20
0.371777
  0
VERTEX
  8
EBENE_1
 62
    39
  6
CONTINUOUS
 10
-1.703514
 20
0.374448
  0
VERTEX
  8
EBENE_1
 62
    39
  6
CONTINUOUS
 10
-1.704350
 20
0.378232
  0
VERTEX
  8
EBENE_1
 62
    39
  6
CONTINUOUS
 10
-1.703646
 20
0.382049
  0
VERTEX
  8
EBENE_1
 62
    39
  6
CONTINUOUS
 10
-1.701672
 20
0.384792
  0
SEQEND
  8
0
  0
POLYLINE
  8
EBENE_1
 62
    39
  6
CONTINUOUS
 66
     1
 40
0.010000
 41
0.010000
 70
     1
  0
VERTEX
  8
EBENE_1
 62
    39
  6
CONTINUOUS
 10
-1.463618
 20
0.016402
  0
VERTEX
  8
EBENE_1
 62
    39
  6
CONTINUOUS
 10
-1.456344
 20
-0.032200
  0
VERTEX
  8
EBENE_1
 62
    39
  6
CONTINUOUS
 10
-1.440239
 20
-0.087289
  0
VERTEX
  8
EBENE_1
 62
    39
  6
CONTINUOUS
 10
-1.414892
 20
-0.146546
  0
VERTEX
  8
EBENE_1
 62
    39
  6
CONTINUOUS
 10
-1.379891
 20
-0.207655
  0
VERTEX
  8
EBENE_1
 62
    39
  6
CONTINUOUS
 10
-1.334827
 20
-0.268296
  0
VERTEX
  8
EBENE_1
 62
    39
  6
CONTINUOUS
 10
-1.279287
 20
-0.326151
  0
VERTEX
  8
EBENE_1
 62
    39
  6
CONTINUOUS
 10
-1.212862
 20
-0.378902
  0
VERTEX
  8
EBENE_1
 62
    39
  6
CONTINUOUS
 10
-0.659945
 20
-0.366315
  0
VERTEX
  8
EBENE_1
 62
    39
  6
CONTINUOUS
 10
-0.673839
 20
0.429618
  0
VERTEX
  8
EBENE_1
 62
    39
  6
CONTINUOUS
 10
-1.469776
 20
0.415724
  0
SEQEND
  8
0
  0
POLYLINE
  8
EBENE_1
 62
    39
  6
CONTINUOUS
 66
     1
 40
0.003000
 41
0.003000
 70
     1
  0
VERTEX
  8
EBENE_1
 62
    39
  6
CONTINUOUS
 10
-1.454945
 20
0.020445
  0
VERTEX
  8
EBENE_1
 62
    39
  6
CONTINUOUS
 10
-1.447790
 20
-0.027714
  0
VERTEX
  8
EBENE_1
 62
    39
  6
CONTINUOUS
 10
-1.431954
 20
-0.082301
  0
VERTEX
  8
EBENE_1
 62
    39
  6
CONTINUOUS
 10
-1.407035
 20
-0.141021
  0
VERTEX
  8
EBENE_1
 62
    39
  6
CONTINUOUS
 10
-1.372628
 20
-0.201577
  0
VERTEX
  8
EBENE_1
 62
    39
  6
CONTINUOUS
 10
-1.328331
 20
-0.261670
  0
VERTEX
  8
EBENE_1
 62
    39
  6
CONTINUOUS
 10
-1.273739
 20
-0.319005
  0
VERTEX
  8
EBENE_1
 62
    39
  6
CONTINUOUS
 10
-1.208449
 20
-0.371283
  0
VERTEX
  8
EBENE_1
 62
    39
  6
CONTINUOUS
 10
-0.665043
 20
-0.358890
  0
VERTEX
  8
EBENE_1
 62
    39
  6
CONTINUOUS
 10
-0.678807
 20
0.429780
  0
VERTEX
  8
EBENE_1
 62
    39
  6
CONTINUOUS
 10
-1.461055
 20
0.416126
  0
SEQEND
  8
0
  0
POLYLINE
  8
EBENE_1
 62
    39
  6
CONTINUOUS
 66
     1
 40
0.003000
 41
0.003000
 70
     1
  0
VERTEX
  8
EBENE_1
 62
    39
  6
CONTINUOUS
 10
-0.735953
 20
0.157303
  0
VERTEX
  8
EBENE_1
 62
    39
  6
CONTINUOUS
 10
-0.733102
 20
0.156320
  0
VERTEX
  8
EBENE_1
 62
    39
  6
CONTINUOUS
 10
-0.731035
 20
0.153648
  0
VERTEX
  8
EBENE_1
 62
    39
  6
CONTINUOUS
 10
-0.730197
 20
0.149858
  0
VERTEX
  8
EBENE_1
 62
    39
  6
CONTINUOUS
 10
-0.730902
 20
0.146047
  0
VERTEX
  8
EBENE_1
 62
    39
  6
CONTINUOUS
 10
-0.732875
 20
0.143306
  0
VERTEX
  8
EBENE_1
 62
    39
  6
CONTINUOUS
 10
-0.735693
 20
0.142224
  0
VERTEX
  8
EBENE_1
 62
    39
  6
CONTINUOUS
 10
-0.738547
 20
0.143206
  0
VERTEX
  8
EBENE_1
 62
    39
  6
CONTINUOUS
 10
-0.740614
 20
0.145878
  0
VERTEX
  8
EBENE_1
 62
    39
  6
CONTINUOUS
 10
-0.741449
 20
0.149665
  0
VERTEX
  8
EBENE_1
 62
    39
  6
CONTINUOUS
 10
-0.740747
 20
0.153479
  0
VERTEX
  8
EBENE_1
 62
    39
  6
CONTINUOUS
 10
-0.738773
 20
0.156221
  0
SEQEND
  8
0
  0
POLYLINE
  8
EBENE_1
 62
    39
  6
CONTINUOUS
 66
     1
 40
0.003000
 41
0.003000
 70
     1
  0
VERTEX
  8
EBENE_1
 62
    39
  6
CONTINUOUS
 10
-0.731110
 20
0.022972
  0
VERTEX
  8
EBENE_1
 62
    39
  6
CONTINUOUS
 10
-0.728258
 20
0.021991
  0
VERTEX
  8
EBENE_1
 62
    39
  6
CONTINUOUS
 10
-0.726190
 20
0.019319
  0
VERTEX
  8
EBENE_1
 62
    39
  6
CONTINUOUS
 10
-0.725354
 20
0.015531
  0
VERTEX
  8
EBENE_1
 62
    39
  6
CONTINUOUS
 10
-0.726057
 20
0.011718
  0
VERTEX
  8
EBENE_1
 62
    39
  6
CONTINUOUS
 10
-0.728031
 20
0.008977
  0
VERTEX
  8
EBENE_1
 62
    39
  6
CONTINUOUS
 10
-0.730846
 20
0.007898
  0
VERTEX
  8
EBENE_1
 62
    39
  6
CONTINUOUS
 10
-0.733700
 20
0.008878
  0
VERTEX
  8
EBENE_1
 62
    39
  6
CONTINUOUS
 10
-0.735768
 20
0.011548
  0
VERTEX
  8
EBENE_1
 62
    39
  6
CONTINUOUS
 10
-0.736606
 20
0.015335
  0
VERTEX
  8
EBENE_1
 62
    39
  6
CONTINUOUS
 10
-0.735901
 20
0.019149
  0
VERTEX
  8
EBENE_1
 62
    39
  6
CONTINUOUS
 10
-0.733928
 20
0.021893
  0
SEQEND
  8
0
  0
POLYLINE
  8
EBENE_1
 62
    39
  6
CONTINUOUS
 66
     1
 40
0.003000
 41
0.003000
 70
     1
  0
VERTEX
  8
EBENE_1
 62
    39
  6
CONTINUOUS
 10
-0.992654
 20
0.391693
  0
VERTEX
  8
EBENE_1
 62
    39
  6
CONTINUOUS
 10
-0.989800
 20
0.390711
  0
VERTEX
  8
EBENE_1
 62
    39
  6
CONTINUOUS
 10
-0.987733
 20
0.388039
  0
VERTEX
  8
EBENE_1
 62
    39
  6
CONTINUOUS
 10
-0.986898
 20
0.384252
  0
VERTEX
  8
EBENE_1
 62
    39
  6
CONTINUOUS
 10
-0.987600
 20
0.380438
  0
VERTEX
  8
EBENE_1
 62
    39
  6
CONTINUOUS
 10
-0.989572
 20
0.377696
  0
VERTEX
  8
EBENE_1
 62
    39
  6
CONTINUOUS
 10
-0.992390
 20
0.376614
  0
VERTEX
  8
EBENE_1
 62
    39
  6
CONTINUOUS
 10
-0.995244
 20
0.377596
  0
VERTEX
  8
EBENE_1
 62
    39
  6
CONTINUOUS
 10
-0.997312
 20
0.380268
  0
VERTEX
  8
EBENE_1
 62
    39
  6
CONTINUOUS
 10
-0.998150
 20
0.384055
  0
VERTEX
  8
EBENE_1
 62
    39
  6
CONTINUOUS
 10
-0.997445
 20
0.387869
  0
VERTEX
  8
EBENE_1
 62
    39
  6
CONTINUOUS
 10
-0.995471
 20
0.390611
  0
SEQEND
  8
0
  0
POLYLINE
  8
EBENE_1
 62
    39
  6
CONTINUOUS
 66
     1
 40
0.003000
 41
0.003000
 70
     1
  0
VERTEX
  8
EBENE_1
 62
    39
  6
CONTINUOUS
 10
-1.147634
 20
0.386543
  0
VERTEX
  8
EBENE_1
 62
    39
  6
CONTINUOUS
 10
-1.144782
 20
0.385562
  0
VERTEX
  8
EBENE_1
 62
    39
  6
CONTINUOUS
 10
-1.142714
 20
0.382890
  0
VERTEX
  8
EBENE_1
 62
    39
  6
CONTINUOUS
 10
-1.141878
 20
0.379102
  0
VERTEX
  8
EBENE_1
 62
    39
  6
CONTINUOUS
 10
-1.142583
 20
0.375288
  0
VERTEX
  8
EBENE_1
 62
    39
  6
CONTINUOUS
 10
-1.144555
 20
0.372546
  0
VERTEX
  8
EBENE_1
 62
    39
  6
CONTINUOUS
 10
-1.147370
 20
0.371465
  0
VERTEX
  8
EBENE_1
 62
    39
  6
CONTINUOUS
 10
-1.150224
 20
0.372446
  0
VERTEX
  8
EBENE_1
 62
    39
  6
CONTINUOUS
 10
-1.152292
 20
0.375118
  0
VERTEX
  8
EBENE_1
 62
    39
  6
CONTINUOUS
 10
-1.153130
 20
0.378906
  0
VERTEX
  8
EBENE_1
 62
    39
  6
CONTINUOUS
 10
-1.152425
 20
0.382719
  0
VERTEX
  8
EBENE_1
 62
    39
  6
CONTINUOUS
 10
-1.150452
 20
0.385462
  0
SEQEND
  8
0
  0
POLYLINE
  8
EBENE_1
 62
    39
  6
CONTINUOUS
 66
     1
 40
0.010000
 41
0.010000
 70
     1
  0
VERTEX
  8
EBENE_1
 62
    39
  6
CONTINUOUS
 10
-0.912398
 20
0.017071
  0
VERTEX
  8
EBENE_1
 62
    39
  6
CONTINUOUS
 10
-0.905124
 20
-0.031531
  0
VERTEX
  8
EBENE_1
 62
    39
  6
CONTINUOUS
 10
-0.889019
 20
-0.086619
  0
VERTEX
  8
EBENE_1
 62
    39
  6
CONTINUOUS
 10
-0.863671
 20
-0.145877
  0
VERTEX
  8
EBENE_1
 62
    39
  6
CONTINUOUS
 10
-0.828671
 20
-0.206985
  0
VERTEX
  8
EBENE_1
 62
    39
  6
CONTINUOUS
 10
-0.783606
 20
-0.267625
  0
VERTEX
  8
EBENE_1
 62
    39
  6
CONTINUOUS
 10
-0.728067
 20
-0.325479
  0
VERTEX
  8
EBENE_1
 62
    39
  6
CONTINUOUS
 10
-0.661642
 20
-0.378228
  0
VERTEX
  8
EBENE_1
 62
    39
  6
CONTINUOUS
 10
-0.108724
 20
-0.365642
  0
VERTEX
  8
EBENE_1
 62
    39
  6
CONTINUOUS
 10
-0.122618
 20
0.430291
  0
VERTEX
  8
EBENE_1
 62
    39
  6
CONTINUOUS
 10
-0.918555
 20
0.416398
  0
SEQEND
  8
0
  0
POLYLINE
  8
EBENE_1
 62
    39
  6
CONTINUOUS
 66
     1
 40
0.003000
 41
0.003000
 70
     1
  0
VERTEX
  8
EBENE_1
 62
    39
  6
CONTINUOUS
 10
-0.903724
 20
0.021114
  0
VERTEX
  8
EBENE_1
 62
    39
  6
CONTINUOUS
 10
-0.896569
 20
-0.027044
  0
VERTEX
  8
EBENE_1
 62
    39
  6
CONTINUOUS
 10
-0.880734
 20
-0.081632
  0
VERTEX
  8
EBENE_1
 62
    39
  6
CONTINUOUS
 10
-0.855815
 20
-0.140352
  0
VERTEX
  8
EBENE_1
 62
    39
  6
CONTINUOUS
 10
-0.821408
 20
-0.200906
  0
VERTEX
  8
EBENE_1
 62
    39
  6
CONTINUOUS
 10
-0.777110
 20
-0.260999
  0
VERTEX
  8
EBENE_1
 62
    39
  6
CONTINUOUS
 10
-0.722518
 20
-0.318333
  0
VERTEX
  8
EBENE_1
 62
    39
  6
CONTINUOUS
 10
-0.657228
 20
-0.370610
  0
VERTEX
  8
EBENE_1
 62
    39
  6
CONTINUOUS
 10
-0.113823
 20
-0.358217
  0
VERTEX
  8
EBENE_1
 62
    39
  6
CONTINUOUS
 10
-0.127587
 20
0.430449
  0
VERTEX
  8
EBENE_1
 62
    39
  6
CONTINUOUS
 10
-0.909835
 20
0.416795
  0
SEQEND
  8
0
  0
POLYLINE
  8
EBENE_1
 62
    39
  6
CONTINUOUS
 66
     1
 40
0.003000
 41
0.003000
 70
     1
  0
VERTEX
  8
EBENE_1
 62
    39
  6
CONTINUOUS
 10
-0.184732
 20
0.157972
  0
VERTEX
  8
EBENE_1
 62
    39
  6
CONTINUOUS
 10
-0.181881
 20
0.156991
  0
VERTEX
  8
EBENE_1
 62
    39
  6
CONTINUOUS
 10
-0.179814
 20
0.154319
  0
VERTEX
  8
EBENE_1
 62
    39
  6
CONTINUOUS
 10
-0.178976
 20
0.150531
  0
VERTEX
  8
EBENE_1
 62
    39
  6
CONTINUOUS
 10
-0.179681
 20
0.146718
  0
VERTEX
  8
EBENE_1
 62
    39
  6
CONTINUOUS
 10
-0.181655
 20
0.143975
  0
VERTEX
  8
EBENE_1
 62
    39
  6
CONTINUOUS
 10
-0.184472
 20
0.142894
  0
VERTEX
  8
EBENE_1
 62
    39
  6
CONTINUOUS
 10
-0.187326
 20
0.143877
  0
VERTEX
  8
EBENE_1
 62
    39
  6
CONTINUOUS
 10
-0.189393
 20
0.146548
  0
VERTEX
  8
EBENE_1
 62
    39
  6
CONTINUOUS
 10
-0.190228
 20
0.150335
  0
VERTEX
  8
EBENE_1
 62
    39
  6
CONTINUOUS
 10
-0.189526
 20
0.154149
  0
VERTEX
  8
EBENE_1
 62
    39
  6
CONTINUOUS
 10
-0.187553
 20
0.156891
  0
SEQEND
  8
0
  0
POLYLINE
  8
EBENE_1
 62
    39
  6
CONTINUOUS
 66
     1
 40
0.003000
 41
0.003000
 70
     1
  0
VERTEX
  8
EBENE_1
 62
    39
  6
CONTINUOUS
 10
-0.179890
 20
0.023646
  0
VERTEX
  8
EBENE_1
 62
    39
  6
CONTINUOUS
 10
-0.177036
 20
0.022662
  0
VERTEX
  8
EBENE_1
 62
    39
  6
CONTINUOUS
 10
-0.174969
 20
0.019990
  0
VERTEX
  8
EBENE_1
 62
    39
  6
CONTINUOUS
 10
-0.174134
 20
0.016201
  0
VERTEX
  8
EBENE_1
 62
    39
  6
CONTINUOUS
 10
-0.174837
 20
0.012390
  0
VERTEX
  8
EBENE_1
 62
    39
  6
CONTINUOUS
 10
-0.176810
 20
0.009648
  0
VERTEX
  8
EBENE_1
 62
    39
  6
CONTINUOUS
 10
-0.179626
 20
0.008567
  0
VERTEX
  8
EBENE_1
 62
    39
  6
CONTINUOUS
 10
-0.182480
 20
0.009548
  0
VERTEX
  8
EBENE_1
 62
    39
  6
CONTINUOUS
 10
-0.184548
 20
0.012219
  0
VERTEX
  8
EBENE_1
 62
    39
  6
CONTINUOUS
 10
-0.185386
 20
0.016004
  0
VERTEX
  8
EBENE_1
 62
    39
  6
CONTINUOUS
 10
-0.184681
 20
0.019821
  0
VERTEX
  8
EBENE_1
 62
    39
  6
CONTINUOUS
 10
-0.182707
 20
0.022564
  0
SEQEND
  8
0
  0
POLYLINE
  8
EBENE_1
 62
    39
  6
CONTINUOUS
 66
     1
 40
0.003000
 41
0.003000
 70
     1
  0
VERTEX
  8
EBENE_1
 62
    39
  6
CONTINUOUS
 10
-0.441433
 20
0.392362
  0
VERTEX
  8
EBENE_1
 62
    39
  6
CONTINUOUS
 10
-0.438579
 20
0.391381
  0
VERTEX
  8
EBENE_1
 62
    39
  6
CONTINUOUS
 10
-0.436511
 20
0.388709
  0
VERTEX
  8
EBENE_1
 62
    39
  6
CONTINUOUS
 10
-0.435673
 20
0.384921
  0
VERTEX
  8
EBENE_1
 62
    39
  6
CONTINUOUS
 10
-0.436378
 20
0.381107
  0
VERTEX
  8
EBENE_1
 62
    39
  6
CONTINUOUS
 10
-0.438352
 20
0.378365
  0
VERTEX
  8
EBENE_1
 62
    39
  6
CONTINUOUS
 10
-0.441169
 20
0.377283
  0
VERTEX
  8
EBENE_1
 62
    39
  6
CONTINUOUS
 10
-0.444023
 20
0.378267
  0
VERTEX
  8
EBENE_1
 62
    39
  6
CONTINUOUS
 10
-0.446090
 20
0.380938
  0
VERTEX
  8
EBENE_1
 62
    39
  6
CONTINUOUS
 10
-0.446925
 20
0.384724
  0
VERTEX
  8
EBENE_1
 62
    39
  6
CONTINUOUS
 10
-0.446223
 20
0.388538
  0
VERTEX
  8
EBENE_1
 62
    39
  6
CONTINUOUS
 10
-0.444251
 20
0.391281
  0
SEQEND
  8
0
  0
POLYLINE
  8
EBENE_1
 62
    39
  6
CONTINUOUS
 66
     1
 40
0.003000
 41
0.003000
 70
     1
  0
VERTEX
  8
EBENE_1
 62
    39
  6
CONTINUOUS
 10
-0.596413
 20
0.387213
  0
VERTEX
  8
EBENE_1
 62
    39
  6
CONTINUOUS
 10
-0.593562
 20
0.386231
  0
VERTEX
  8
EBENE_1
 62
    39
  6
CONTINUOUS
 10
-0.591494
 20
0.383559
  0
VERTEX
  8
EBENE_1
 62
    39
  6
CONTINUOUS
 10
-0.590657
 20
0.379772
  0
VERTEX
  8
EBENE_1
 62
    39
  6
CONTINUOUS
 10
-0.591360
 20
0.375958
  0
VERTEX
  8
EBENE_1
 62
    39
  6
CONTINUOUS
 10
-0.593334
 20
0.373216
  0
VERTEX
  8
EBENE_1
 62
    39
  6
CONTINUOUS
 10
-0.596150
 20
0.372134
  0
VERTEX
  8
EBENE_1
 62
    39
  6
CONTINUOUS
 10
-0.599003
 20
0.373117
  0
VERTEX
  8
EBENE_1
 62
    39
  6
CONTINUOUS
 10
-0.601071
 20
0.375788
  0
VERTEX
  8
EBENE_1
 62
    39
  6
CONTINUOUS
 10
-0.601909
 20
0.379575
  0
VERTEX
  8
EBENE_1
 62
    39
  6
CONTINUOUS
 10
-0.601205
 20
0.383389
  0
VERTEX
  8
EBENE_1
 62
    39
  6
CONTINUOUS
 10
-0.599231
 20
0.386131
  0
SEQEND
  8
0
  0
POLYLINE
  8
EBENE_1
 62
    39
  6
CONTINUOUS
 66
     1
 40
0.010000
 41
0.010000
 70
     1
  0
VERTEX
  8
EBENE_1
 62
    39
  6
CONTINUOUS
 10
-0.361177
 20
0.017740
  0
VERTEX
  8
EBENE_1
 62
    39
  6
CONTINUOUS
 10
-0.353903
 20
-0.030861
  0
VERTEX
  8
EBENE_1
 62
    39
  6
CONTINUOUS
 10
-0.337798
 20
-0.085949
  0
VERTEX
  8
EBENE_1
 62
    39
  6
CONTINUOUS
 10
-0.312451
 20
-0.145206
  0
VERTEX
  8
EBENE_1
 62
    39
  6
CONTINUOUS
 10
-0.277450
 20
-0.206314
  0
VERTEX
  8
EBENE_1
 62
    39
  6
CONTINUOUS
 10
-0.232386
 20
-0.266954
  0
VERTEX
  8
EBENE_1
 62
    39
  6
CONTINUOUS
 10
-0.176846
 20
-0.324809
  0
VERTEX
  8
EBENE_1
 62
    39
  6
CONTINUOUS
 10
-0.110421
 20
-0.377559
  0
VERTEX
  8
EBENE_1
 62
    39
  6
CONTINUOUS
 10
0.442496
 20
-0.364972
  0
VERTEX
  8
EBENE_1
 62
    39
  6
CONTINUOUS
 10
0.428602
 20
0.430961
  0
VERTEX
  8
EBENE_1
 62
    39
  6
CONTINUOUS
 10
-0.367335
 20
0.417067
  0
SEQEND
  8
0
  0
POLYLINE
  8
EBENE_1
 62
    39
  6
CONTINUOUS
 66
     1
 40
0.003000
 41
0.003000
 70
     1
  0
VERTEX
  8
EBENE_1
 62
    39
  6
CONTINUOUS
 10
-0.352504
 20
0.021783
  0
VERTEX
  8
EBENE_1
 62
    39
  6
CONTINUOUS
 10
-0.345349
 20
-0.026374
  0
VERTEX
  8
EBENE_1
 62
    39
  6
CONTINUOUS
 10
-0.329513
 20
-0.080961
  0
VERTEX
  8
EBENE_1
 62
    39
  6
CONTINUOUS
 10
-0.304594
 20
-0.139681
  0
VERTEX
  8
EBENE_1
 62
    39
  6
CONTINUOUS
 10
-0.270187
 20
-0.200236
  0
VERTEX
  8
EBENE_1
 62
    39
  6
CONTINUOUS
 10
-0.225890
 20
-0.260329
  0
VERTEX
  8
EBENE_1
 62
    39
  6
CONTINUOUS
 10
-0.171298
 20
-0.317663
  0
VERTEX
  8
EBENE_1
 62
    39
  6
CONTINUOUS
 10
-0.106008
 20
-0.369941
  0
VERTEX
  8
EBENE_1
 62
    39
  6
CONTINUOUS
 10
0.437402
 20
-0.357547
  0
VERTEX
  8
EBENE_1
 62
    39
  6
CONTINUOUS
 10
0.423634
 20
0.431118
  0
VERTEX
  8
EBENE_1
 62
    39
  6
CONTINUOUS
 10
-0.358614
 20
0.417465
  0
SEQEND
  8
0
  0
POLYLINE
  8
EBENE_1
 62
    39
  6
CONTINUOUS
 66
     1
 40
0.003000
 41
0.003000
 70
     1
  0
VERTEX
  8
EBENE_1
 62
    39
  6
CONTINUOUS
 10
0.366488
 20
0.158642
  0
VERTEX
  8
EBENE_1
 62
    39
  6
CONTINUOUS
 10
0.369339
 20
0.157660
  0
VERTEX
  8
EBENE_1
 62
    39
  6
CONTINUOUS
 10
0.371406
 20
0.154988
  0
VERTEX
  8
EBENE_1
 62
    39
  6
CONTINUOUS
 10
0.372244
 20
0.151201
  0
VERTEX
  8
EBENE_1
 62
    39
  6
CONTINUOUS
 10
0.371539
 20
0.147387
  0
VERTEX
  8
EBENE_1
 62
    39
  6
CONTINUOUS
 10
0.369566
 20
0.144646
  0
VERTEX
  8
EBENE_1
 62
    39
  6
CONTINUOUS
 10
0.366748
 20
0.143567
  0
VERTEX
  8
EBENE_1
 62
    39
  6
CONTINUOUS
 10
0.363894
 20
0.144548
  0
VERTEX
  8
EBENE_1
 62
    39
  6
CONTINUOUS
 10
0.361827
 20
0.147218
  0
VERTEX
  8
EBENE_1
 62
    39
  6
CONTINUOUS
 10
0.360992
 20
0.151004
  0
VERTEX
  8
EBENE_1
 62
    39
  6
CONTINUOUS
 10
0.361695
 20
0.154819
  0
VERTEX
  8
EBENE_1
 62
    39
  6
CONTINUOUS
 10
0.363670
 20
0.157562
  0
SEQEND
  8
0
  0
POLYLINE
  8
EBENE_1
 62
    39
  6
CONTINUOUS
 66
     1
 40
0.003000
 41
0.003000
 70
     1
  0
VERTEX
  8
EBENE_1
 62
    39
  6
CONTINUOUS
 10
0.371331
 20
0.024315
  0
VERTEX
  8
EBENE_1
 62
    39
  6
CONTINUOUS
 10
0.374184
 20
0.023333
  0
VERTEX
  8
EBENE_1
 62
    39
  6
CONTINUOUS
 10
0.376251
 20
0.020661
  0
VERTEX
  8
EBENE_1
 62
    39
  6
CONTINUOUS
 10
0.377087
 20
0.016874
  0
VERTEX
  8
EBENE_1
 62
    39
  6
CONTINUOUS
 10
0.376384
 20
0.013060
  0
VERTEX
  8
EBENE_1
 62
    39
  6
CONTINUOUS
 10
0.374410
 20
0.010318
  0
VERTEX
  8
EBENE_1
 62
    39
  6
CONTINUOUS
 10
0.371594
 20
0.009236
  0
VERTEX
  8
EBENE_1
 62
    39
  6
CONTINUOUS
 10
0.368741
 20
0.010218
  0
VERTEX
  8
EBENE_1
 62
    39
  6
CONTINUOUS
 10
0.366673
 20
0.012890
  0
VERTEX
  8
EBENE_1
 62
    39
  6
CONTINUOUS
 10
0.365835
 20
0.016677
  0
VERTEX
  8
EBENE_1
 62
    39
  6
CONTINUOUS
 10
0.366540
 20
0.020491
  0
VERTEX
  8
EBENE_1
 62
    39
  6
CONTINUOUS
 10
0.368513
 20
0.023233
  0
SEQEND
  8
0
  0
POLYLINE
  8
EBENE_1
 62
    39
  6
CONTINUOUS
 66
     1
 40
0.003000
 41
0.003000
 70
     1
  0
VERTEX
  8
EBENE_1
 62
    39
  6
CONTINUOUS
 10
0.109787
 20
0.393031
  0
VERTEX
  8
EBENE_1
 62
    39
  6
CONTINUOUS
 10
0.112641
 20
0.392050
  0
VERTEX
  8
EBENE_1
 62
    39
  6
CONTINUOUS
 10
0.114709
 20
0.389378
  0
VERTEX
  8
EBENE_1
 62
    39
  6
CONTINUOUS
 10
0.115547
 20
0.385591
  0
VERTEX
  8
EBENE_1
 62
    39
  6
CONTINUOUS
 10
0.114842
 20
0.381779
  0
VERTEX
  8
EBENE_1
 62
    39
  6
CONTINUOUS
 10
0.112869
 20
0.379036
  0
VERTEX
  8
EBENE_1
 62
    39
  6
CONTINUOUS
 10
0.110051
 20
0.377957
  0
VERTEX
  8
EBENE_1
 62
    39
  6
CONTINUOUS
 10
0.107198
 20
0.378938
  0
VERTEX
  8
EBENE_1
 62
    39
  6
CONTINUOUS
 10
0.105131
 20
0.381609
  0
VERTEX
  8
EBENE_1
 62
    39
  6
CONTINUOUS
 10
0.104295
 20
0.385394
  0
VERTEX
  8
EBENE_1
 62
    39
  6
CONTINUOUS
 10
0.104997
 20
0.389210
  0
VERTEX
  8
EBENE_1
 62
    39
  6
CONTINUOUS
 10
0.106970
 20
0.391952
  0
SEQEND
  8
0
  0
POLYLINE
  8
EBENE_1
 62
    39
  6
CONTINUOUS
 66
     1
 40
0.003000
 41
0.003000
 70
     1
  0
VERTEX
  8
EBENE_1
 62
    39
  6
CONTINUOUS
 10
-0.045193
 20
0.387882
  0
VERTEX
  8
EBENE_1
 62
    39
  6
CONTINUOUS
 10
-0.042339
 20
0.386901
  0
VERTEX
  8
EBENE_1
 62
    39
  6
CONTINUOUS
 10
-0.040272
 20
0.384230
  0
VERTEX
  8
EBENE_1
 62
    39
  6
CONTINUOUS
 10
-0.039437
 20
0.380441
  0
VERTEX
  8
EBENE_1
 62
    39
  6
CONTINUOUS
 10
-0.040140
 20
0.376629
  0
VERTEX
  8
EBENE_1
 62
    39
  6
CONTINUOUS
 10
-0.042113
 20
0.373887
  0
VERTEX
  8
EBENE_1
 62
    39
  6
CONTINUOUS
 10
-0.044929
 20
0.372807
  0
VERTEX
  8
EBENE_1
 62
    39
  6
CONTINUOUS
 10
-0.047783
 20
0.373789
  0
VERTEX
  8
EBENE_1
 62
    39
  6
CONTINUOUS
 10
-0.049851
 20
0.376459
  0
VERTEX
  8
EBENE_1
 62
    39
  6
CONTINUOUS
 10
-0.050689
 20
0.380244
  0
VERTEX
  8
EBENE_1
 62
    39
  6
CONTINUOUS
 10
-0.049984
 20
0.384061
  0
VERTEX
  8
EBENE_1
 62
    39
  6
CONTINUOUS
 10
-0.048011
 20
0.386803
  0
SEQEND
  8
0
  0
POLYLINE
  8
EBENE_1
 62
    39
  6
CONTINUOUS
 66
     1
 40
0.010000
 41
0.010000
 70
     1
  0
VERTEX
  8
EBENE_1
 62
    39
  6
CONTINUOUS
 10
0.190043
 20
0.018413
  0
VERTEX
  8
EBENE_1
 62
    39
  6
CONTINUOUS
 10
0.197317
 20
-0.030188
  0
VERTEX
  8
EBENE_1
 62
    39
  6
CONTINUOUS
 10
0.213422
 20
-0.085277
  0
VERTEX
  8
EBENE_1
 62
    39
  6
CONTINUOUS
 10
0.238769
 20
-0.144535
  0
VERTEX
  8
EBENE_1
 62
    39
  6
CONTINUOUS
 10
0.273770
 20
-0.205643
  0
VERTEX
  8
EBENE_1
 62
    39
  6
CONTINUOUS
 10
0.318835
 20
-0.266284
  0
VERTEX
  8
EBENE_1
 62
    39
  6
CONTINUOUS
 10
0.374374
 20
-0.324139
  0
VERTEX
  8
EBENE_1
 62
    39
  6
CONTINUOUS
 10
0.440799
 20
-0.376890
  0
VERTEX
  8
EBENE_1
 62
    39
  6
CONTINUOUS
 10
0.993717
 20
-0.364303
  0
VERTEX
  8
EBENE_1
 62
    39
  6
CONTINUOUS
 10
0.979823
 20
0.431630
  0
VERTEX
  8
EBENE_1
 62
    39
  6
CONTINUOUS
 10
0.183886
 20
0.417736
  0
SEQEND
  8
0
  0
POLYLINE
  8
EBENE_1
 62
    39
  6
CONTINUOUS
 66
     1
 40
0.003000
 41
0.003000
 70
     1
  0
VERTEX
  8
EBENE_1
 62
    39
  6
CONTINUOUS
 10
0.198717
 20
0.022457
  0
VERTEX
  8
EBENE_1
 62
    39
  6
CONTINUOUS
 10
0.205872
 20
-0.025702
  0
VERTEX
  8
EBENE_1
 62
    39
  6
CONTINUOUS
 10
0.221707
 20
-0.080290
  0
VERTEX
  8
EBENE_1
 62
    39
  6
CONTINUOUS
 10
0.246626
 20
-0.139010
  0
VERTEX
  8
EBENE_1
 62
    39
  6
CONTINUOUS
 10
0.281033
 20
-0.199565
  0
VERTEX
  8
EBENE_1
 62
    39
  6
CONTINUOUS
 10
0.325331
 20
-0.259658
  0
VERTEX
  8
EBENE_1
 62
    39
  6
CONTINUOUS
 10
0.379923
 20
-0.316993
  0
VERTEX
  8
EBENE_1
 62
    39
  6
CONTINUOUS
 10
0.445213
 20
-0.369272
  0
VERTEX
  8
EBENE_1
 62
    39
  6
CONTINUOUS
 10
0.988622
 20
-0.356878
  0
VERTEX
  8
EBENE_1
 62
    39
  6
CONTINUOUS
 10
0.974854
 20
0.431791
  0
VERTEX
  8
EBENE_1
 62
    39
  6
CONTINUOUS
 10
0.192606
 20
0.418138
  0
SEQEND
  8
0
  0
POLYLINE
  8
EBENE_1
 62
    39
  6
CONTINUOUS
 66
     1
 40
0.003000
 41
0.003000
 70
     1
  0
VERTEX
  8
EBENE_1
 62
    39
  6
CONTINUOUS
 10
0.917709
 20
0.159315
  0
VERTEX
  8
EBENE_1
 62
    39
  6
CONTINUOUS
 10
0.920560
 20
0.158331
  0
VERTEX
  8
EBENE_1
 62
    39
  6
CONTINUOUS
 10
0.922627
 20
0.155659
  0
VERTEX
  8
EBENE_1
 62
    39
  6
CONTINUOUS
 10
0.923465
 20
0.151870
  0
VERTEX
  8
EBENE_1
 62
    39
  6
CONTINUOUS
 10
0.922760
 20
0.148059
  0
VERTEX
  8
EBENE_1
 62
    39
  6
CONTINUOUS
 10
0.920787
 20
0.145318
  0
VERTEX
  8
EBENE_1
 62
    39
  6
CONTINUOUS
 10
0.917972
 20
0.144236
  0
VERTEX
  8
EBENE_1
 62
    39
  6
CONTINUOUS
 10
0.915116
 20
0.145218
  0
VERTEX
  8
EBENE_1
 62
    39
  6
CONTINUOUS
 10
0.913048
 20
0.147889
  0
VERTEX
  8
EBENE_1
 62
    39
  6
CONTINUOUS
 10
0.912213
 20
0.151673
  0
VERTEX
  8
EBENE_1
 62
    39
  6
CONTINUOUS
 10
0.912916
 20
0.155490
  0
VERTEX
  8
EBENE_1
 62
    39
  6
CONTINUOUS
 10
0.914890
 20
0.158233
  0
SEQEND
  8
0
  0
POLYLINE
  8
EBENE_1
 62
    39
  6
CONTINUOUS
 66
     1
 40
0.003000
 41
0.003000
 70
     1
  0
VERTEX
  8
EBENE_1
 62
    39
  6
CONTINUOUS
 10
0.922551
 20
0.024984
  0
VERTEX
  8
EBENE_1
 62
    39
  6
CONTINUOUS
 10
0.925405
 20
0.024003
  0
VERTEX
  8
EBENE_1
 62
    39
  6
CONTINUOUS
 10
0.927472
 20
0.021331
  0
VERTEX
  8
EBENE_1
 62
    39
  6
CONTINUOUS
 10
0.928307
 20
0.017543
  0
VERTEX
  8
EBENE_1
 62
    39
  6
CONTINUOUS
 10
0.927605
 20
0.013729
  0
VERTEX
  8
EBENE_1
 62
    39
  6
CONTINUOUS
 10
0.925633
 20
0.010987
  0
VERTEX
  8
EBENE_1
 62
    39
  6
CONTINUOUS
 10
0.922815
 20
0.009906
  0
VERTEX
  8
EBENE_1
 62
    39
  6
CONTINUOUS
 10
0.919961
 20
0.010889
  0
VERTEX
  8
EBENE_1
 62
    39
  6
CONTINUOUS
 10
0.917893
 20
0.013560
  0
VERTEX
  8
EBENE_1
 62
    39
  6
CONTINUOUS
 10
0.917055
 20
0.017346
  0
VERTEX
  8
EBENE_1
 62
    39
  6
CONTINUOUS
 10
0.917760
 20
0.021160
  0
VERTEX
  8
EBENE_1
 62
    39
  6
CONTINUOUS
 10
0.919733
 20
0.023903
  0
SEQEND
  8
0
  0
POLYLINE
  8
EBENE_1
 62
    39
  6
CONTINUOUS
 66
     1
 40
0.003000
 41
0.003000
 70
     1
  0
VERTEX
  8
EBENE_1
 62
    39
  6
CONTINUOUS
 10
0.661012
 20
0.393705
  0
VERTEX
  8
EBENE_1
 62
    39
  6
CONTINUOUS
 10
0.663863
 20
0.392721
  0
VERTEX
  8
EBENE_1
 62
    39
  6
CONTINUOUS
 10
0.665930
 20
0.390049
  0
VERTEX
  8
EBENE_1
 62
    39
  6
CONTINUOUS
 10
0.666768
 20
0.386260
  0
VERTEX
  8
EBENE_1
 62
    39
  6
CONTINUOUS
 10
0.666063
 20
0.382449
  0
VERTEX
  8
EBENE_1
 62
    39
  6
CONTINUOUS
 10
0.664089
 20
0.379707
  0
VERTEX
  8
EBENE_1
 62
    39
  6
CONTINUOUS
 10
0.661272
 20
0.378626
  0
VERTEX
  8
EBENE_1
 62
    39
  6
CONTINUOUS
 10
0.658418
 20
0.379608
  0
VERTEX
  8
EBENE_1
 62
    39
  6
CONTINUOUS
 10
0.656351
 20
0.382280
  0
VERTEX
  8
EBENE_1
 62
    39
  6
CONTINUOUS
 10
0.655516
 20
0.386067
  0
VERTEX
  8
EBENE_1
 62
    39
  6
CONTINUOUS
 10
0.656218
 20
0.389881
  0
VERTEX
  8
EBENE_1
 62
    39
  6
CONTINUOUS
 10
0.658191
 20
0.392623
  0
SEQEND
  8
0
  0
POLYLINE
  8
EBENE_1
 62
    39
  6
CONTINUOUS
 66
     1
 40
0.003000
 41
0.003000
 70
     1
  0
VERTEX
  8
EBENE_1
 62
    39
  6
CONTINUOUS
 10
0.506028
 20
0.388555
  0
VERTEX
  8
EBENE_1
 62
    39
  6
CONTINUOUS
 10
0.508881
 20
0.387572
  0
VERTEX
  8
EBENE_1
 62
    39
  6
CONTINUOUS
 10
0.510948
 20
0.384901
  0
VERTEX
  8
EBENE_1
 62
    39
  6
CONTINUOUS
 10
0.511783
 20
0.381114
  0
VERTEX
  8
EBENE_1
 62
    39
  6
CONTINUOUS
 10
0.511080
 20
0.377300
  0
VERTEX
  8
EBENE_1
 62
    39
  6
CONTINUOUS
 10
0.509107
 20
0.374558
  0
VERTEX
  8
EBENE_1
 62
    39
  6
CONTINUOUS
 10
0.506291
 20
0.373476
  0
VERTEX
  8
EBENE_1
 62
    39
  6
CONTINUOUS
 10
0.503438
 20
0.374458
  0
VERTEX
  8
EBENE_1
 62
    39
  6
CONTINUOUS
 10
0.501369
 20
0.377130
  0
VERTEX
  8
EBENE_1
 62
    39
  6
CONTINUOUS
 10
0.500531
 20
0.380917
  0
VERTEX
  8
EBENE_1
 62
    39
  6
CONTINUOUS
 10
0.501236
 20
0.384731
  0
VERTEX
  8
EBENE_1
 62
    39
  6
CONTINUOUS
 10
0.503210
 20
0.387473
  0
SEQEND
  8
0
  0
POLYLINE
  8
EBENE_1
 62
    39
  6
CONTINUOUS
 66
     1
 40
0.010000
 41
0.010000
 70
     1
  0
VERTEX
  8
EBENE_1
 62
    39
  6
CONTINUOUS
 10
0.741264
 20
0.019083
  0
VERTEX
  8
EBENE_1
 62
    39
  6
CONTINUOUS
 10
0.748539
 20
-0.029519
  0
VERTEX
  8
EBENE_1
 62
    39
  6
CONTINUOUS
 10
0.764644
 20
-0.084607
  0
VERTEX
  8
EBENE_1
 62
    39
  6
CONTINUOUS
 10
0.789992
 20
-0.143865
  0
VERTEX
  8
EBENE_1
 62
    39
  6
CONTINUOUS
 10
0.824992
 20
-0.204973
  0
VERTEX
  8
EBENE_1
 62
    39
  6
CONTINUOUS
 10
0.870056
 20
-0.265613
  0
VERTEX
  8
EBENE_1
 62
    39
  6
CONTINUOUS
 10
0.925595
 20
-0.323467
  0
VERTEX
  8
EBENE_1
 62
    39
  6
CONTINUOUS
 10
0.992020
 20
-0.376217
  0
VERTEX
  8
EBENE_1
 62
    39
  6
CONTINUOUS
 10
1.544937
 20
-0.363630
  0
VERTEX
  8
EBENE_1
 62
    39
  6
CONTINUOUS
 10
1.531043
 20
0.432299
  0
VERTEX
  8
EBENE_1
 62
    39
  6
CONTINUOUS
 10
0.735106
 20
0.418409
  0
SEQEND
  8
0
  0
POLYLINE
  8
EBENE_1
 62
    39
  6
CONTINUOUS
 66
     1
 40
0.003000
 41
0.003000
 70
     1
  0
VERTEX
  8
EBENE_1
 62
    39
  6
CONTINUOUS
 10
0.749937
 20
0.023126
  0
VERTEX
  8
EBENE_1
 62
    39
  6
CONTINUOUS
 10
0.757092
 20
-0.025033
  0
VERTEX
  8
EBENE_1
 62
    39
  6
CONTINUOUS
 10
0.772928
 20
-0.079620
  0
VERTEX
  8
EBENE_1
 62
    39
  6
CONTINUOUS
 10
0.797847
 20
-0.138340
  0
VERTEX
  8
EBENE_1
 62
    39
  6
CONTINUOUS
 10
0.832254
 20
-0.198895
  0
VERTEX
  8
EBENE_1
 62
    39
  6
CONTINUOUS
 10
0.876551
 20
-0.258989
  0
VERTEX
  8
EBENE_1
 62
    39
  6
CONTINUOUS
 10
0.931143
 20
-0.316323
  0
VERTEX
  8
EBENE_1
 62
    39
  6
CONTINUOUS
 10
0.996433
 20
-0.368602
  0
VERTEX
  8
EBENE_1
 62
    39
  6
CONTINUOUS
 10
1.539843
 20
-0.356209
  0
VERTEX
  8
EBENE_1
 62
    39
  6
CONTINUOUS
 10
1.526075
 20
0.432461
  0
VERTEX
  8
EBENE_1
 62
    39
  6
CONTINUOUS
 10
0.743827
 20
0.418807
  0
SEQEND
  8
0
  0
POLYLINE
  8
EBENE_1
 62
    39
  6
CONTINUOUS
 66
     1
 40
0.003000
 41
0.003000
 70
     1
  0
VERTEX
  8
EBENE_1
 62
    39
  6
CONTINUOUS
 10
1.468929
 20
0.159984
  0
VERTEX
  8
EBENE_1
 62
    39
  6
CONTINUOUS
 10
1.471780
 20
0.159003
  0
VERTEX
  8
EBENE_1
 62
    39
  6
CONTINUOUS
 10
1.473847
 20
0.156331
  0
VERTEX
  8
EBENE_1
 62
    39
  6
CONTINUOUS
 10
1.474685
 20
0.152543
  0
VERTEX
  8
EBENE_1
 62
    39
  6
CONTINUOUS
 10
1.473980
 20
0.148729
  0
VERTEX
  8
EBENE_1
 62
    39
  6
CONTINUOUS
 10
1.472008
 20
0.145987
  0
VERTEX
  8
EBENE_1
 62
    39
  6
CONTINUOUS
 10
1.469193
 20
0.144906
  0
VERTEX
  8
EBENE_1
 62
    39
  6
CONTINUOUS
 10
1.466337
 20
0.145887
  0
VERTEX
  8
EBENE_1
 62
    39
  6
CONTINUOUS
 10
1.464268
 20
0.148559
  0
VERTEX
  8
EBENE_1
 62
    39
  6
CONTINUOUS
 10
1.463433
 20
0.152346
  0
VERTEX
  8
EBENE_1
 62
    39
  6
CONTINUOUS
 10
1.464136
 20
0.156160
  0
VERTEX
  8
EBENE_1
 62
    39
  6
CONTINUOUS
 10
1.466111
 20
0.158903
  0
SEQEND
  8
0
  0
POLYLINE
  8
EBENE_1
 62
    39
  6
CONTINUOUS
 66
     1
 40
0.003000
 41
0.003000
 70
     1
  0
VERTEX
  8
EBENE_1
 62
    39
  6
CONTINUOUS
 10
1.473772
 20
0.025654
  0
VERTEX
  8
EBENE_1
 62
    39
  6
CONTINUOUS
 10
1.476625
 20
0.024673
  0
VERTEX
  8
EBENE_1
 62
    39
  6
CONTINUOUS
 10
1.478692
 20
0.022002
  0
VERTEX
  8
EBENE_1
 62
    39
  6
CONTINUOUS
 10
1.479528
 20
0.018213
  0
VERTEX
  8
EBENE_1
 62
    39
  6
CONTINUOUS
 10
1.478825
 20
0.014401
  0
VERTEX
  8
EBENE_1
 62
    39
  6
CONTINUOUS
 10
1.476853
 20
0.011659
  0
VERTEX
  8
EBENE_1
 62
    39
  6
CONTINUOUS
 10
1.474035
 20
0.010579
  0
VERTEX
  8
EBENE_1
 62
    39
  6
CONTINUOUS
 10
1.471182
 20
0.011560
  0
VERTEX
  8
EBENE_1
 62
    39
  6
CONTINUOUS
 10
1.469114
 20
0.014231
  0
VERTEX
  8
EBENE_1
 62
    39
  6
CONTINUOUS
 10
1.468276
 20
0.018016
  0
VERTEX
  8
EBENE_1
 62
    39
  6
CONTINUOUS
 10
1.468980
 20
0.021832
  0
VERTEX
  8
EBENE_1
 62
    39
  6
CONTINUOUS
 10
1.470954
 20
0.024575
  0
SEQEND
  8
0
  0
POLYLINE
  8
EBENE_1
 62
    39
  6
CONTINUOUS
 66
     1
 40
0.003000
 41
0.003000
 70
     1
  0
VERTEX
  8
EBENE_1
 62
    39
  6
CONTINUOUS
 10
1.212232
 20
0.394374
  0
VERTEX
  8
EBENE_1
 62
    39
  6
CONTINUOUS
 10
1.215083
 20
0.393392
  0
VERTEX
  8
EBENE_1
 62
    39
  6
CONTINUOUS
 10
1.217150
 20
0.390720
  0
VERTEX
  8
EBENE_1
 62
    39
  6
CONTINUOUS
 10
1.217988
 20
0.386933
  0
VERTEX
  8
EBENE_1
 62
    39
  6
CONTINUOUS
 10
1.217283
 20
0.383119
  0
VERTEX
  8
EBENE_1
 62
    39
  6
CONTINUOUS
 10
1.215310
 20
0.380377
  0
VERTEX
  8
EBENE_1
 62
    39
  6
CONTINUOUS
 10
1.212492
 20
0.379295
  0
VERTEX
  8
EBENE_1
 62
    39
  6
CONTINUOUS
 10
1.209639
 20
0.380279
  0
VERTEX
  8
EBENE_1
 62
    39
  6
CONTINUOUS
 10
1.207571
 20
0.382950
  0
VERTEX
  8
EBENE_1
 62
    39
  6
CONTINUOUS
 10
1.206736
 20
0.386736
  0
VERTEX
  8
EBENE_1
 62
    39
  6
CONTINUOUS
 10
1.207438
 20
0.390550
  0
VERTEX
  8
EBENE_1
 62
    39
  6
CONTINUOUS
 10
1.209412
 20
0.393292
  0
SEQEND
  8
0
  0
POLYLINE
  8
EBENE_1
 62
    39
  6
CONTINUOUS
 66
     1
 40
0.003000
 41
0.003000
 70
     1
  0
VERTEX
  8
EBENE_1
 62
    39
  6
CONTINUOUS
 10
1.057248
 20
0.389224
  0
VERTEX
  8
EBENE_1
 62
    39
  6
CONTINUOUS
 10
1.060102
 20
0.388243
  0
VERTEX
  8
EBENE_1
 62
    39
  6
CONTINUOUS
 10
1.062169
 20
0.385571
  0
VERTEX
  8
EBENE_1
 62
    39
  6
CONTINUOUS
 10
1.063004
 20
0.381783
  0
VERTEX
  8
EBENE_1
 62
    39
  6
CONTINUOUS
 10
1.062302
 20
0.377970
  0
VERTEX
  8
EBENE_1
 62
    39
  6
CONTINUOUS
 10
1.060329
 20
0.375227
  0
VERTEX
  8
EBENE_1
 62
    39
  6
CONTINUOUS
 10
1.057512
 20
0.374146
  0
VERTEX
  8
EBENE_1
 62
    39
  6
CONTINUOUS
 10
1.054658
 20
0.375129
  0
VERTEX
  8
EBENE_1
 62
    39
  6
CONTINUOUS
 10
1.052590
 20
0.377800
  0
VERTEX
  8
EBENE_1
 62
    39
  6
CONTINUOUS
 10
1.051752
 20
0.381587
  0
VERTEX
  8
EBENE_1
 62
    39
  6
CONTINUOUS
 10
1.052457
 20
0.385401
  0
VERTEX
  8
EBENE_1
 62
    39
  6
CONTINUOUS
 10
1.054430
 20
0.388143
  0
SEQEND
  8
0
  0
POLYLINE
  8
EBENE_1
 62
    39
  6
CONTINUOUS
 66
     1
 40
0.010000
 41
0.010000
 70
     1
  0
VERTEX
  8
EBENE_1
 62
    39
  6
CONTINUOUS
 10
1.292488
 20
0.019752
  0
VERTEX
  8
EBENE_1
 62
    39
  6
CONTINUOUS
 10
1.299762
 20
-0.028849
  0
VERTEX
  8
EBENE_1
 62
    39
  6
CONTINUOUS
 10
1.315866
 20
-0.083937
  0
VERTEX
  8
EBENE_1
 62
    39
  6
CONTINUOUS
 10
1.341213
 20
-0.143194
  0
VERTEX
  8
EBENE_1
 62
    39
  6
CONTINUOUS
 10
1.376212
 20
-0.204302
  0
VERTEX
  8
EBENE_1
 62
    39
  6
CONTINUOUS
 10
1.421276
 20
-0.264942
  0
VERTEX
  8
EBENE_1
 62
    39
  6
CONTINUOUS
 10
1.476815
 20
-0.322797
  0
VERTEX
  8
EBENE_1
 62
    39
  6
CONTINUOUS
 10
1.543240
 20
-0.375547
  0
VERTEX
  8
EBENE_1
 62
    39
  6
CONTINUOUS
 10
2.096157
 20
-0.362961
  0
VERTEX
  8
EBENE_1
 62
    39
  6
CONTINUOUS
 10
2.082264
 20
0.432972
  0
VERTEX
  8
EBENE_1
 62
    39
  6
CONTINUOUS
 10
1.286327
 20
0.419079
  0
SEQEND
  8
0
  0
POLYLINE
  8
EBENE_1
 62
    39
  6
CONTINUOUS
 66
     1
 40
0.003000
 41
0.003000
 70
     1
  0
VERTEX
  8
EBENE_1
 62
    39
  6
CONTINUOUS
 10
1.301157
 20
0.023795
  0
VERTEX
  8
EBENE_1
 62
    39
  6
CONTINUOUS
 10
1.308313
 20
-0.024363
  0
VERTEX
  8
EBENE_1
 62
    39
  6
CONTINUOUS
 10
1.324148
 20
-0.078951
  0
VERTEX
  8
EBENE_1
 62
    39
  6
CONTINUOUS
 10
1.349067
 20
-0.137671
  0
VERTEX
  8
EBENE_1
 62
    39
  6
CONTINUOUS
 10
1.383474
 20
-0.198225
  0
VERTEX
  8
EBENE_1
 62
    39
  6
CONTINUOUS
 10
1.427772
 20
-0.258318
  0
VERTEX
  8
EBENE_1
 62
    39
  6
CONTINUOUS
 10
1.482364
 20
-0.315652
  0
VERTEX
  8
EBENE_1
 62
    39
  6
CONTINUOUS
 10
1.547654
 20
-0.367929
  0
VERTEX
  8
EBENE_1
 62
    39
  6
CONTINUOUS
 10
2.091063
 20
-0.355535
  0
VERTEX
  8
EBENE_1
 62
    39
  6
CONTINUOUS
 10
2.077295
 20
0.433130
  0
VERTEX
  8
EBENE_1
 62
    39
  6
CONTINUOUS
 10
1.295047
 20
0.419476
  0
SEQEND
  8
0
  0
POLYLINE
  8
EBENE_1
 62
    39
  6
CONTINUOUS
 66
     1
 40
0.003000
 41
0.003000
 70
     1
  0
VERTEX
  8
EBENE_1
 62
    39
  6
CONTINUOUS
 10
2.020150
 20
0.160654
  0
VERTEX
  8
EBENE_1
 62
    39
  6
CONTINUOUS
 10
2.023001
 20
0.159672
  0
VERTEX
  8
EBENE_1
 62
    39
  6
CONTINUOUS
 10
2.025068
 20
0.157000
  0
VERTEX
  8
EBENE_1
 62
    39
  6
CONTINUOUS
 10
2.025906
 20
0.153213
  0
VERTEX
  8
EBENE_1
 62
    39
  6
CONTINUOUS
 10
2.025201
 20
0.149399
  0
VERTEX
  8
EBENE_1
 62
    39
  6
CONTINUOUS
 10
2.023228
 20
0.146656
  0
VERTEX
  8
EBENE_1
 62
    39
  6
CONTINUOUS
 10
2.020413
 20
0.145575
  0
VERTEX
  8
EBENE_1
 62
    39
  6
CONTINUOUS
 10
2.017559
 20
0.146558
  0
VERTEX
  8
EBENE_1
 62
    39
  6
CONTINUOUS
 10
2.015490
 20
0.149229
  0
VERTEX
  8
EBENE_1
 62
    39
  6
CONTINUOUS
 10
2.014654
 20
0.153016
  0
VERTEX
  8
EBENE_1
 62
    39
  6
CONTINUOUS
 10
2.015357
 20
0.156830
  0
VERTEX
  8
EBENE_1
 62
    39
  6
CONTINUOUS
 10
2.017331
 20
0.159572
  0
SEQEND
  8
0
  0
POLYLINE
  8
EBENE_1
 62
    39
  6
CONTINUOUS
 66
     1
 40
0.003000
 41
0.003000
 70
     1
  0
VERTEX
  8
EBENE_1
 62
    39
  6
CONTINUOUS
 10
2.024992
 20
0.026327
  0
VERTEX
  8
EBENE_1
 62
    39
  6
CONTINUOUS
 10
2.027846
 20
0.025343
  0
VERTEX
  8
EBENE_1
 62
    39
  6
CONTINUOUS
 10
2.029913
 20
0.022671
  0
VERTEX
  8
EBENE_1
 62
    39
  6
CONTINUOUS
 10
2.030748
 20
0.018882
  0
VERTEX
  8
EBENE_1
 62
    39
  6
CONTINUOUS
 10
2.030046
 20
0.015071
  0
VERTEX
  8
EBENE_1
 62
    39
  6
CONTINUOUS
 10
2.028073
 20
0.012330
  0
VERTEX
  8
EBENE_1
 62
    39
  6
CONTINUOUS
 10
2.025256
 20
0.011248
  0
VERTEX
  8
EBENE_1
 62
    39
  6
CONTINUOUS
 10
2.022402
 20
0.012230
  0
VERTEX
  8
EBENE_1
 62
    39
  6
CONTINUOUS
 10
2.020334
 20
0.014902
  0
VERTEX
  8
EBENE_1
 62
    39
  6
CONTINUOUS
 10
2.019496
 20
0.018689
  0
VERTEX
  8
EBENE_1
 62
    39
  6
CONTINUOUS
 10
2.020201
 20
0.022503
  0
VERTEX
  8
EBENE_1
 62
    39
  6
CONTINUOUS
 10
2.022174
 20
0.025245
  0
SEQEND
  8
0
  0
POLYLINE
  8
EBENE_1
 62
    39
  6
CONTINUOUS
 66
     1
 40
0.003000
 41
0.003000
 70
     1
  0
VERTEX
  8
EBENE_1
 62
    39
  6
CONTINUOUS
 10
1.763453
 20
0.395043
  0
VERTEX
  8
EBENE_1
 62
    39
  6
CONTINUOUS
 10
1.766304
 20
0.394062
  0
VERTEX
  8
EBENE_1
 62
    39
  6
CONTINUOUS
 10
1.768371
 20
0.391390
  0
VERTEX
  8
EBENE_1
 62
    39
  6
CONTINUOUS
 10
1.769209
 20
0.387602
  0
VERTEX
  8
EBENE_1
 62
    39
  6
CONTINUOUS
 10
1.768504
 20
0.383789
  0
VERTEX
  8
EBENE_1
 62
    39
  6
CONTINUOUS
 10
1.766531
 20
0.381047
  0
VERTEX
  8
EBENE_1
 62
    39
  6
CONTINUOUS
 10
1.763717
 20
0.379969
  0
VERTEX
  8
EBENE_1
 62
    39
  6
CONTINUOUS
 10
1.760860
 20
0.380950
  0
VERTEX
  8
EBENE_1
 62
    39
  6
CONTINUOUS
 10
1.758792
 20
0.383621
  0
VERTEX
  8
EBENE_1
 62
    39
  6
CONTINUOUS
 10
1.757957
 20
0.387406
  0
VERTEX
  8
EBENE_1
 62
    39
  6
CONTINUOUS
 10
1.758660
 20
0.391220
  0
VERTEX
  8
EBENE_1
 62
    39
  6
CONTINUOUS
 10
1.760634
 20
0.393963
  0
SEQEND
  8
0
  0
POLYLINE
  8
EBENE_1
 62
    39
  6
CONTINUOUS
 66
     1
 40
0.003000
 41
0.003000
 70
     1
  0
VERTEX
  8
EBENE_1
 62
    39
  6
CONTINUOUS
 10
1.608469
 20
0.389894
  0
VERTEX
  8
EBENE_1
 62
    39
  6
CONTINUOUS
 10
1.611322
 20
0.388912
  0
VERTEX
  8
EBENE_1
 62
    39
  6
CONTINUOUS
 10
1.613389
 20
0.386240
  0
VERTEX
  8
EBENE_1
 62
    39
  6
CONTINUOUS
 10
1.614224
 20
0.382453
  0
VERTEX
  8
EBENE_1
 62
    39
  6
CONTINUOUS
 10
1.613522
 20
0.378639
  0
VERTEX
  8
EBENE_1
 62
    39
  6
CONTINUOUS
 10
1.611550
 20
0.375898
  0
VERTEX
  8
EBENE_1
 62
    39
  6
CONTINUOUS
 10
1.608732
 20
0.374819
  0
VERTEX
  8
EBENE_1
 62
    39
  6
CONTINUOUS
 10
1.605879
 20
0.375800
  0
VERTEX
  8
EBENE_1
 62
    39
  6
CONTINUOUS
 10
1.603810
 20
0.378471
  0
VERTEX
  8
EBENE_1
 62
    39
  6
CONTINUOUS
 10
1.602972
 20
0.382256
  0
VERTEX
  8
EBENE_1
 62
    39
  6
CONTINUOUS
 10
1.603677
 20
0.386072
  0
VERTEX
  8
EBENE_1
 62
    39
  6
CONTINUOUS
 10
1.605651
 20
0.388815
  0
SEQEND
  8
0
  0
POLYLINE
  8
EBENE_1
 62
    39
  6
CONTINUOUS
 66
     1
 40
0.010000
 41
0.010000
 70
     1
  0
VERTEX
  8
EBENE_1
 62
    39
  6
CONTINUOUS
 10
-2.276276
 20
0.600661
  0
VERTEX
  8
EBENE_1
 62
    39
  6
CONTINUOUS
 10
-2.269001
 20
0.552060
  0
VERTEX
  8
EBENE_1
 62
    39
  6
CONTINUOUS
 10
-2.252895
 20
0.496972
  0
VERTEX
  8
EBENE_1
 62
    39
  6
CONTINUOUS
 10
-2.227548
 20
0.437715
  0
VERTEX
  8
EBENE_1
 62
    39
  6
CONTINUOUS
 10
-2.192548
 20
0.376607
  0
VERTEX
  8
EBENE_1
 62
    39
  6
CONTINUOUS
 10
-2.147484
 20
0.315967
  0
VERTEX
  8
EBENE_1
 62
    39
  6
CONTINUOUS
 10
-2.091945
 20
0.258113
  0
VERTEX
  8
EBENE_1
 62
    39
  6
CONTINUOUS
 10
-2.025520
 20
0.205362
  0
VERTEX
  8
EBENE_1
 62
    39
  6
CONTINUOUS
 10
-1.472602
 20
0.217949
  0
VERTEX
  8
EBENE_1
 62
    39
  6
CONTINUOUS
 10
-1.486496
 20
1.013882
  0
VERTEX
  8
EBENE_1
 62
    39
  6
CONTINUOUS
 10
-2.282433
 20
0.999988
  0
SEQEND
  8
0
  0
POLYLINE
  8
EBENE_1
 62
    39
  6
CONTINUOUS
 66
     1
 40
0.003000
 41
0.003000
 70
     1
  0
VERTEX
  8
EBENE_1
 62
    39
  6
CONTINUOUS
 10
-2.267602
 20
0.604705
  0
VERTEX
  8
EBENE_1
 62
    39
  6
CONTINUOUS
 10
-2.260447
 20
0.556547
  0
VERTEX
  8
EBENE_1
 62
    39
  6
CONTINUOUS
 10
-2.244612
 20
0.501960
  0
VERTEX
  8
EBENE_1
 62
    39
  6
CONTINUOUS
 10
-2.219693
 20
0.443240
  0
VERTEX
  8
EBENE_1
 62
    39
  6
CONTINUOUS
 10
-2.185286
 20
0.382685
  0
VERTEX
  8
EBENE_1
 62
    39
  6
CONTINUOUS
 10
-2.140988
 20
0.322592
  0
VERTEX
  8
EBENE_1
 62
    39
  6
CONTINUOUS
 10
-2.086396
 20
0.265258
  0
VERTEX
  8
EBENE_1
 62
    39
  6
CONTINUOUS
 10
-2.021106
 20
0.212980
  0
VERTEX
  8
EBENE_1
 62
    39
  6
CONTINUOUS
 10
-1.477697
 20
0.225374
  0
VERTEX
  8
EBENE_1
 62
    39
  6
CONTINUOUS
 10
-1.491465
 20
1.014039
  0
VERTEX
  8
EBENE_1
 62
    39
  6
CONTINUOUS
 10
-2.273713
 20
1.000386
  0
SEQEND
  8
0
  0
POLYLINE
  8
EBENE_1
 62
    39
  6
CONTINUOUS
 66
     1
 40
0.003000
 41
0.003000
 70
     1
  0
VERTEX
  8
EBENE_1
 62
    39
  6
CONTINUOUS
 10
-1.548610
 20
0.741563
  0
VERTEX
  8
EBENE_1
 62
    39
  6
CONTINUOUS
 10
-1.545759
 20
0.740581
  0
VERTEX
  8
EBENE_1
 62
    39
  6
CONTINUOUS
 10
-1.543692
 20
0.737909
  0
VERTEX
  8
EBENE_1
 62
    39
  6
CONTINUOUS
 10
-1.542854
 20
0.734122
  0
VERTEX
  8
EBENE_1
 62
    39
  6
CONTINUOUS
 10
-1.543559
 20
0.730308
  0
VERTEX
  8
EBENE_1
 62
    39
  6
CONTINUOUS
 10
-1.545531
 20
0.727566
  0
VERTEX
  8
EBENE_1
 62
    39
  6
CONTINUOUS
 10
-1.548346
 20
0.726484
  0
VERTEX
  8
EBENE_1
 62
    39
  6
CONTINUOUS
 10
-1.551203
 20
0.727468
  0
VERTEX
  8
EBENE_1
 62
    39
  6
CONTINUOUS
 10
-1.553271
 20
0.730139
  0
VERTEX
  8
EBENE_1
 62
    39
  6
CONTINUOUS
 10
-1.554106
 20
0.733925
  0
VERTEX
  8
EBENE_1
 62
    39
  6
CONTINUOUS
 10
-1.553403
 20
0.737739
  0
VERTEX
  8
EBENE_1
 62
    39
  6
CONTINUOUS
 10
-1.551429
 20
0.740481
  0
SEQEND
  8
0
  0
POLYLINE
  8
EBENE_1
 62
    39
  6
CONTINUOUS
 66
     1
 40
0.003000
 41
0.003000
 70
     1
  0
VERTEX
  8
EBENE_1
 62
    39
  6
CONTINUOUS
 10
-1.543768
 20
0.607236
  0
VERTEX
  8
EBENE_1
 62
    39
  6
CONTINUOUS
 10
-1.540914
 20
0.606255
  0
VERTEX
  8
EBENE_1
 62
    39
  6
CONTINUOUS
 10
-1.538847
 20
0.603583
  0
VERTEX
  8
EBENE_1
 62
    39
  6
CONTINUOUS
 10
-1.538012
 20
0.599795
  0
VERTEX
  8
EBENE_1
 62
    39
  6
CONTINUOUS
 10
-1.538714
 20
0.595981
  0
VERTEX
  8
EBENE_1
 62
    39
  6
CONTINUOUS
 10
-1.540686
 20
0.593239
  0
VERTEX
  8
EBENE_1
 62
    39
  6
CONTINUOUS
 10
-1.543504
 20
0.592157
  0
VERTEX
  8
EBENE_1
 62
    39
  6
CONTINUOUS
 10
-1.546358
 20
0.593139
  0
VERTEX
  8
EBENE_1
 62
    39
  6
CONTINUOUS
 10
-1.548426
 20
0.595811
  0
VERTEX
  8
EBENE_1
 62
    39
  6
CONTINUOUS
 10
-1.549264
 20
0.599598
  0
VERTEX
  8
EBENE_1
 62
    39
  6
CONTINUOUS
 10
-1.548559
 20
0.603412
  0
VERTEX
  8
EBENE_1
 62
    39
  6
CONTINUOUS
 10
-1.546585
 20
0.606155
  0
SEQEND
  8
0
  0
POLYLINE
  8
EBENE_1
 62
    39
  6
CONTINUOUS
 66
     1
 40
0.003000
 41
0.003000
 70
     1
  0
VERTEX
  8
EBENE_1
 62
    39
  6
CONTINUOUS
 10
-1.805307
 20
0.975953
  0
VERTEX
  8
EBENE_1
 62
    39
  6
CONTINUOUS
 10
-1.802456
 20
0.974971
  0
VERTEX
  8
EBENE_1
 62
    39
  6
CONTINUOUS
 10
-1.800389
 20
0.972299
  0
VERTEX
  8
EBENE_1
 62
    39
  6
CONTINUOUS
 10
-1.799551
 20
0.968512
  0
VERTEX
  8
EBENE_1
 62
    39
  6
CONTINUOUS
 10
-1.800256
 20
0.964698
  0
VERTEX
  8
EBENE_1
 62
    39
  6
CONTINUOUS
 10
-1.802230
 20
0.961957
  0
VERTEX
  8
EBENE_1
 62
    39
  6
CONTINUOUS
 10
-1.805047
 20
0.960878
  0
VERTEX
  8
EBENE_1
 62
    39
  6
CONTINUOUS
 10
-1.807901
 20
0.961859
  0
VERTEX
  8
EBENE_1
 62
    39
  6
CONTINUOUS
 10
-1.809968
 20
0.964530
  0
VERTEX
  8
EBENE_1
 62
    39
  6
CONTINUOUS
 10
-1.810803
 20
0.968315
  0
VERTEX
  8
EBENE_1
 62
    39
  6
CONTINUOUS
 10
-1.810101
 20
0.972132
  0
VERTEX
  8
EBENE_1
 62
    39
  6
CONTINUOUS
 10
-1.808127
 20
0.974874
  0
SEQEND
  8
0
  0
POLYLINE
  8
EBENE_1
 62
    39
  6
CONTINUOUS
 66
     1
 40
0.003000
 41
0.003000
 70
     1
  0
VERTEX
  8
EBENE_1
 62
    39
  6
CONTINUOUS
 10
-1.960291
 20
0.970803
  0
VERTEX
  8
EBENE_1
 62
    39
  6
CONTINUOUS
 10
-1.957438
 20
0.969822
  0
VERTEX
  8
EBENE_1
 62
    39
  6
CONTINUOUS
 10
-1.955371
 20
0.967150
  0
VERTEX
  8
EBENE_1
 62
    39
  6
CONTINUOUS
 10
-1.954535
 20
0.963362
  0
VERTEX
  8
EBENE_1
 62
    39
  6
CONTINUOUS
 10
-1.955238
 20
0.959550
  0
VERTEX
  8
EBENE_1
 62
    39
  6
CONTINUOUS
 10
-1.957210
 20
0.956808
  0
VERTEX
  8
EBENE_1
 62
    39
  6
CONTINUOUS
 10
-1.960028
 20
0.955728
  0
VERTEX
  8
EBENE_1
 62
    39
  6
CONTINUOUS
 10
-1.962881
 20
0.956710
  0
VERTEX
  8
EBENE_1
 62
    39
  6
CONTINUOUS
 10
-1.964949
 20
0.959381
  0
VERTEX
  8
EBENE_1
 62
    39
  6
CONTINUOUS
 10
-1.965787
 20
0.963165
  0
VERTEX
  8
EBENE_1
 62
    39
  6
CONTINUOUS
 10
-1.965083
 20
0.966982
  0
VERTEX
  8
EBENE_1
 62
    39
  6
CONTINUOUS
 10
-1.963109
 20
0.969724
  0
SEQEND
  8
0
  0
POLYLINE
  8
EBENE_1
 62
    39
  6
CONTINUOUS
 66
     1
 40
0.010000
 41
0.010000
 70
     1
  0
VERTEX
  8
EBENE_1
 62
    39
  6
CONTINUOUS
 10
-1.725051
 20
0.601335
  0
VERTEX
  8
EBENE_1
 62
    39
  6
CONTINUOUS
 10
-1.717778
 20
0.552733
  0
VERTEX
  8
EBENE_1
 62
    39
  6
CONTINUOUS
 10
-1.701673
 20
0.497644
  0
VERTEX
  8
EBENE_1
 62
    39
  6
CONTINUOUS
 10
-1.676327
 20
0.438387
  0
VERTEX
  8
EBENE_1
 62
    39
  6
CONTINUOUS
 10
-1.641327
 20
0.377278
  0
VERTEX
  8
EBENE_1
 62
    39
  6
CONTINUOUS
 10
-1.596263
 20
0.316637
  0
VERTEX
  8
EBENE_1
 62
    39
  6
CONTINUOUS
 10
-1.540724
 20
0.258782
  0
VERTEX
  8
EBENE_1
 62
    39
  6
CONTINUOUS
 10
-1.474299
 20
0.206031
  0
VERTEX
  8
EBENE_1
 62
    39
  6
CONTINUOUS
 10
-1.474299
 20
0.206031
  0
VERTEX
  8
EBENE_1
 62
    39
  6
CONTINUOUS
 10
-0.921382
 20
0.218618
  0
VERTEX
  8
EBENE_1
 62
    39
  6
CONTINUOUS
 10
-0.935276
 20
1.014551
  0
VERTEX
  8
EBENE_1
 62
    39
  6
CONTINUOUS
 10
-1.731213
 20
1.000657
  0
SEQEND
  8
0
  0
POLYLINE
  8
EBENE_1
 62
    39
  6
CONTINUOUS
 66
     1
 40
0.003000
 41
0.003000
 70
     1
  0
VERTEX
  8
EBENE_1
 62
    39
  6
CONTINUOUS
 10
-1.716382
 20
0.605378
  0
VERTEX
  8
EBENE_1
 62
    39
  6
CONTINUOUS
 10
-1.709227
 20
0.557219
  0
VERTEX
  8
EBENE_1
 62
    39
  6
CONTINUOUS
 10
-1.693391
 20
0.502631
  0
VERTEX
  8
EBENE_1
 62
    39
  6
CONTINUOUS
 10
-1.668472
 20
0.443910
  0
VERTEX
  8
EBENE_1
 62
    39
  6
CONTINUOUS
 10
-1.634065
 20
0.383355
  0
VERTEX
  8
EBENE_1
 62
    39
  6
CONTINUOUS
 10
-1.589768
 20
0.323261
  0
VERTEX
  8
EBENE_1
 62
    39
  6
CONTINUOUS
 10
-1.535176
 20
0.265927
  0
VERTEX
  8
EBENE_1
 62
    39
  6
CONTINUOUS
 10
-1.469886
 20
0.213650
  0
VERTEX
  8
EBENE_1
 62
    39
  6
CONTINUOUS
 10
-1.469886
 20
0.213650
  0
VERTEX
  8
EBENE_1
 62
    39
  6
CONTINUOUS
 10
-0.926476
 20
0.226043
  0
VERTEX
  8
EBENE_1
 62
    39
  6
CONTINUOUS
 10
-0.940244
 20
1.014713
  0
VERTEX
  8
EBENE_1
 62
    39
  6
CONTINUOUS
 10
-1.722492
 20
1.001059
  0
SEQEND
  8
0
  0
POLYLINE
  8
EBENE_1
 62
    39
  6
CONTINUOUS
 66
     1
 40
0.003000
 41
0.003000
 70
     1
  0
VERTEX
  8
EBENE_1
 62
    39
  6
CONTINUOUS
 10
-0.997390
 20
0.742236
  0
VERTEX
  8
EBENE_1
 62
    39
  6
CONTINUOUS
 10
-0.994539
 20
0.741253
  0
VERTEX
  8
EBENE_1
 62
    39
  6
CONTINUOUS
 10
-0.992472
 20
0.738581
  0
VERTEX
  8
EBENE_1
 62
    39
  6
CONTINUOUS
 10
-0.991634
 20
0.734791
  0
VERTEX
  8
EBENE_1
 62
    39
  6
CONTINUOUS
 10
-0.992339
 20
0.730980
  0
VERTEX
  8
EBENE_1
 62
    39
  6
CONTINUOUS
 10
-0.994311
 20
0.728239
  0
VERTEX
  8
EBENE_1
 62
    39
  6
CONTINUOUS
 10
-0.997126
 20
0.727157
  0
VERTEX
  8
EBENE_1
 62
    39
  6
CONTINUOUS
 10
-0.999981
 20
0.728139
  0
VERTEX
  8
EBENE_1
 62
    39
  6
CONTINUOUS
 10
-1.002050
 20
0.730810
  0
VERTEX
  8
EBENE_1
 62
    39
  6
CONTINUOUS
 10
-1.002886
 20
0.734594
  0
VERTEX
  8
EBENE_1
 62
    39
  6
CONTINUOUS
 10
-1.002183
 20
0.738411
  0
VERTEX
  8
EBENE_1
 62
    39
  6
CONTINUOUS
 10
-1.000208
 20
0.741154
  0
SEQEND
  8
0
  0
POLYLINE
  8
EBENE_1
 62
    39
  6
CONTINUOUS
 66
     1
 40
0.003000
 41
0.003000
 70
     1
  0
VERTEX
  8
EBENE_1
 62
    39
  6
CONTINUOUS
 10
-0.992547
 20
0.607906
  0
VERTEX
  8
EBENE_1
 62
    39
  6
CONTINUOUS
 10
-0.989694
 20
0.606924
  0
VERTEX
  8
EBENE_1
 62
    39
  6
CONTINUOUS
 10
-0.987627
 20
0.604252
  0
VERTEX
  8
EBENE_1
 62
    39
  6
CONTINUOUS
 10
-0.986791
 20
0.600465
  0
VERTEX
  8
EBENE_1
 62
    39
  6
CONTINUOUS
 10
-0.987493
 20
0.596651
  0
VERTEX
  8
EBENE_1
 62
    39
  6
CONTINUOUS
 10
-0.989466
 20
0.593908
  0
VERTEX
  8
EBENE_1
 62
    39
  6
CONTINUOUS
 10
-0.992283
 20
0.592827
  0
VERTEX
  8
EBENE_1
 62
    39
  6
CONTINUOUS
 10
-0.995137
 20
0.593810
  0
VERTEX
  8
EBENE_1
 62
    39
  6
CONTINUOUS
 10
-0.997205
 20
0.596481
  0
VERTEX
  8
EBENE_1
 62
    39
  6
CONTINUOUS
 10
-0.998043
 20
0.600268
  0
VERTEX
  8
EBENE_1
 62
    39
  6
CONTINUOUS
 10
-0.997338
 20
0.604082
  0
VERTEX
  8
EBENE_1
 62
    39
  6
CONTINUOUS
 10
-0.995365
 20
0.606824
  0
SEQEND
  8
0
  0
POLYLINE
  8
EBENE_1
 62
    39
  6
CONTINUOUS
 66
     1
 40
0.003000
 41
0.003000
 70
     1
  0
VERTEX
  8
EBENE_1
 62
    39
  6
CONTINUOUS
 10
-1.254087
 20
0.976626
  0
VERTEX
  8
EBENE_1
 62
    39
  6
CONTINUOUS
 10
-1.251236
 20
0.975642
  0
VERTEX
  8
EBENE_1
 62
    39
  6
CONTINUOUS
 10
-1.249169
 20
0.972970
  0
VERTEX
  8
EBENE_1
 62
    39
  6
CONTINUOUS
 10
-1.248331
 20
0.969181
  0
VERTEX
  8
EBENE_1
 62
    39
  6
CONTINUOUS
 10
-1.249035
 20
0.965370
  0
VERTEX
  8
EBENE_1
 62
    39
  6
CONTINUOUS
 10
-1.251008
 20
0.962629
  0
VERTEX
  8
EBENE_1
 62
    39
  6
CONTINUOUS
 10
-1.253823
 20
0.961547
  0
VERTEX
  8
EBENE_1
 62
    39
  6
CONTINUOUS
 10
-1.256679
 20
0.962529
  0
VERTEX
  8
EBENE_1
 62
    39
  6
CONTINUOUS
 10
-1.258747
 20
0.965201
  0
VERTEX
  8
EBENE_1
 62
    39
  6
CONTINUOUS
 10
-1.259583
 20
0.968988
  0
VERTEX
  8
EBENE_1
 62
    39
  6
CONTINUOUS
 10
-1.258880
 20
0.972802
  0
VERTEX
  8
EBENE_1
 62
    39
  6
CONTINUOUS
 10
-1.256905
 20
0.975544
  0
SEQEND
  8
0
  0
POLYLINE
  8
EBENE_1
 62
    39
  6
CONTINUOUS
 66
     1
 40
0.003000
 41
0.003000
 70
     1
  0
VERTEX
  8
EBENE_1
 62
    39
  6
CONTINUOUS
 10
-1.409071
 20
0.971476
  0
VERTEX
  8
EBENE_1
 62
    39
  6
CONTINUOUS
 10
-1.406217
 20
0.970493
  0
VERTEX
  8
EBENE_1
 62
    39
  6
CONTINUOUS
 10
-1.404150
 20
0.967821
  0
VERTEX
  8
EBENE_1
 62
    39
  6
CONTINUOUS
 10
-1.403315
 20
0.964031
  0
VERTEX
  8
EBENE_1
 62
    39
  6
CONTINUOUS
 10
-1.404017
 20
0.960220
  0
VERTEX
  8
EBENE_1
 62
    39
  6
CONTINUOUS
 10
-1.405990
 20
0.957479
  0
VERTEX
  8
EBENE_1
 62
    39
  6
CONTINUOUS
 10
-1.408807
 20
0.956398
  0
VERTEX
  8
EBENE_1
 62
    39
  6
CONTINUOUS
 10
-1.411661
 20
0.957379
  0
VERTEX
  8
EBENE_1
 62
    39
  6
CONTINUOUS
 10
-1.413729
 20
0.960051
  0
VERTEX
  8
EBENE_1
 62
    39
  6
CONTINUOUS
 10
-1.414567
 20
0.963839
  0
VERTEX
  8
EBENE_1
 62
    39
  6
CONTINUOUS
 10
-1.413862
 20
0.967653
  0
VERTEX
  8
EBENE_1
 62
    39
  6
CONTINUOUS
 10
-1.411889
 20
0.970395
  0
SEQEND
  8
0
  0
POLYLINE
  8
EBENE_1
 62
    39
  6
CONTINUOUS
 66
     1
 40
0.010000
 41
0.010000
 70
     1
  0
VERTEX
  8
EBENE_1
 62
    39
  6
CONTINUOUS
 10
-1.173831
 20
0.602004
  0
VERTEX
  8
EBENE_1
 62
    39
  6
CONTINUOUS
 10
-1.166557
 20
0.553403
  0
VERTEX
  8
EBENE_1
 62
    39
  6
CONTINUOUS
 10
-1.150453
 20
0.498314
  0
VERTEX
  8
EBENE_1
 62
    39
  6
CONTINUOUS
 10
-1.125106
 20
0.439056
  0
VERTEX
  8
EBENE_1
 62
    39
  6
CONTINUOUS
 10
-1.090106
 20
0.377948
  0
VERTEX
  8
EBENE_1
 62
    39
  6
CONTINUOUS
 10
-1.045043
 20
0.317308
  0
VERTEX
  8
EBENE_1
 62
    39
  6
CONTINUOUS
 10
-0.989504
 20
0.259454
  0
VERTEX
  8
EBENE_1
 62
    39
  6
CONTINUOUS
 10
-0.923079
 20
0.206705
  0
VERTEX
  8
EBENE_1
 62
    39
  6
CONTINUOUS
 10
-0.370161
 20
0.219291
  0
VERTEX
  8
EBENE_1
 62
    39
  6
CONTINUOUS
 10
-0.384055
 20
1.015220
  0
VERTEX
  8
EBENE_1
 62
    39
  6
CONTINUOUS
 10
-1.179992
 20
1.001331
  0
SEQEND
  8
0
  0
POLYLINE
  8
EBENE_1
 62
    39
  6
CONTINUOUS
 66
     1
 40
0.003000
 41
0.003000
 70
     1
  0
VERTEX
  8
EBENE_1
 62
    39
  6
CONTINUOUS
 10
-1.165161
 20
0.606047
  0
VERTEX
  8
EBENE_1
 62
    39
  6
CONTINUOUS
 10
-1.158006
 20
0.557889
  0
VERTEX
  8
EBENE_1
 62
    39
  6
CONTINUOUS
 10
-1.142171
 20
0.503301
  0
VERTEX
  8
EBENE_1
 62
    39
  6
CONTINUOUS
 10
-1.117252
 20
0.444581
  0
VERTEX
  8
EBENE_1
 62
    39
  6
CONTINUOUS
 10
-1.082845
 20
0.384026
  0
VERTEX
  8
EBENE_1
 62
    39
  6
CONTINUOUS
 10
-1.038547
 20
0.323932
  0
VERTEX
  8
EBENE_1
 62
    39
  6
CONTINUOUS
 10
-0.983955
 20
0.266598
  0
VERTEX
  8
EBENE_1
 62
    39
  6
CONTINUOUS
 10
-0.918665
 20
0.214319
  0
VERTEX
  8
EBENE_1
 62
    39
  6
CONTINUOUS
 10
-0.375256
 20
0.226713
  0
VERTEX
  8
EBENE_1
 62
    39
  6
CONTINUOUS
 10
-0.389024
 20
1.015382
  0
VERTEX
  8
EBENE_1
 62
    39
  6
CONTINUOUS
 10
-1.171272
 20
1.001728
  0
SEQEND
  8
0
  0
POLYLINE
  8
EBENE_1
 62
    39
  6
CONTINUOUS
 66
     1
 40
0.003000
 41
0.003000
 70
     1
  0
VERTEX
  8
EBENE_1
 62
    39
  6
CONTINUOUS
 10
-0.446169
 20
0.742906
  0
VERTEX
  8
EBENE_1
 62
    39
  6
CONTINUOUS
 10
-0.443317
 20
0.741924
  0
VERTEX
  8
EBENE_1
 62
    39
  6
CONTINUOUS
 10
-0.441249
 20
0.739252
  0
VERTEX
  8
EBENE_1
 62
    39
  6
CONTINUOUS
 10
-0.440413
 20
0.735465
  0
VERTEX
  8
EBENE_1
 62
    39
  6
CONTINUOUS
 10
-0.441118
 20
0.731651
  0
VERTEX
  8
EBENE_1
 62
    39
  6
CONTINUOUS
 10
-0.443091
 20
0.728908
  0
VERTEX
  8
EBENE_1
 62
    39
  6
CONTINUOUS
 10
-0.445906
 20
0.727827
  0
VERTEX
  8
EBENE_1
 62
    39
  6
CONTINUOUS
 10
-0.448760
 20
0.728808
  0
VERTEX
  8
EBENE_1
 62
    39
  6
CONTINUOUS
 10
-0.450829
 20
0.731480
  0
VERTEX
  8
EBENE_1
 62
    39
  6
CONTINUOUS
 10
-0.451665
 20
0.735268
  0
VERTEX
  8
EBENE_1
 62
    39
  6
CONTINUOUS
 10
-0.450960
 20
0.739082
  0
VERTEX
  8
EBENE_1
 62
    39
  6
CONTINUOUS
 10
-0.448987
 20
0.741824
  0
SEQEND
  8
0
  0
POLYLINE
  8
EBENE_1
 62
    39
  6
CONTINUOUS
 66
     1
 40
0.003000
 41
0.003000
 70
     1
  0
VERTEX
  8
EBENE_1
 62
    39
  6
CONTINUOUS
 10
-0.441327
 20
0.608575
  0
VERTEX
  8
EBENE_1
 62
    39
  6
CONTINUOUS
 10
-0.438473
 20
0.607593
  0
VERTEX
  8
EBENE_1
 62
    39
  6
CONTINUOUS
 10
-0.436405
 20
0.604921
  0
VERTEX
  8
EBENE_1
 62
    39
  6
CONTINUOUS
 10
-0.435567
 20
0.601134
  0
VERTEX
  8
EBENE_1
 62
    39
  6
CONTINUOUS
 10
-0.436272
 20
0.597322
  0
VERTEX
  8
EBENE_1
 62
    39
  6
CONTINUOUS
 10
-0.438245
 20
0.594580
  0
VERTEX
  8
EBENE_1
 62
    39
  6
CONTINUOUS
 10
-0.441063
 20
0.593500
  0
VERTEX
  8
EBENE_1
 62
    39
  6
CONTINUOUS
 10
-0.443917
 20
0.594481
  0
VERTEX
  8
EBENE_1
 62
    39
  6
CONTINUOUS
 10
-0.445984
 20
0.597152
  0
VERTEX
  8
EBENE_1
 62
    39
  6
CONTINUOUS
 10
-0.446819
 20
0.600937
  0
VERTEX
  8
EBENE_1
 62
    39
  6
CONTINUOUS
 10
-0.446117
 20
0.604754
  0
VERTEX
  8
EBENE_1
 62
    39
  6
CONTINUOUS
 10
-0.444144
 20
0.607496
  0
SEQEND
  8
0
  0
POLYLINE
  8
EBENE_1
 62
    39
  6
CONTINUOUS
 66
     1
 40
0.003000
 41
0.003000
 70
     1
  0
VERTEX
  8
EBENE_1
 62
    39
  6
CONTINUOUS
 10
-0.702866
 20
0.977295
  0
VERTEX
  8
EBENE_1
 62
    39
  6
CONTINUOUS
 10
-0.700015
 20
0.976314
  0
VERTEX
  8
EBENE_1
 62
    39
  6
CONTINUOUS
 10
-0.697948
 20
0.973642
  0
VERTEX
  8
EBENE_1
 62
    39
  6
CONTINUOUS
 10
-0.697110
 20
0.969854
  0
VERTEX
  8
EBENE_1
 62
    39
  6
CONTINUOUS
 10
-0.697815
 20
0.966040
  0
VERTEX
  8
EBENE_1
 62
    39
  6
CONTINUOUS
 10
-0.699787
 20
0.963298
  0
VERTEX
  8
EBENE_1
 62
    39
  6
CONTINUOUS
 10
-0.702602
 20
0.962217
  0
VERTEX
  8
EBENE_1
 62
    39
  6
CONTINUOUS
 10
-0.705459
 20
0.963200
  0
VERTEX
  8
EBENE_1
 62
    39
  6
CONTINUOUS
 10
-0.707527
 20
0.965871
  0
VERTEX
  8
EBENE_1
 62
    39
  6
CONTINUOUS
 10
-0.708362
 20
0.969657
  0
VERTEX
  8
EBENE_1
 62
    39
  6
CONTINUOUS
 10
-0.707659
 20
0.973471
  0
VERTEX
  8
EBENE_1
 62
    39
  6
CONTINUOUS
 10
-0.705685
 20
0.976214
  0
SEQEND
  8
0
  0
POLYLINE
  8
EBENE_1
 62
    39
  6
CONTINUOUS
 66
     1
 40
0.003000
 41
0.003000
 70
     1
  0
VERTEX
  8
EBENE_1
 62
    39
  6
CONTINUOUS
 10
-0.857850
 20
0.972146
  0
VERTEX
  8
EBENE_1
 62
    39
  6
CONTINUOUS
 10
-0.854997
 20
0.971164
  0
VERTEX
  8
EBENE_1
 62
    39
  6
CONTINUOUS
 10
-0.852930
 20
0.968492
  0
VERTEX
  8
EBENE_1
 62
    39
  6
CONTINUOUS
 10
-0.852094
 20
0.964705
  0
VERTEX
  8
EBENE_1
 62
    39
  6
CONTINUOUS
 10
-0.852797
 20
0.960891
  0
VERTEX
  8
EBENE_1
 62
    39
  6
CONTINUOUS
 10
-0.854769
 20
0.958149
  0
VERTEX
  8
EBENE_1
 62
    39
  6
CONTINUOUS
 10
-0.857587
 20
0.957067
  0
VERTEX
  8
EBENE_1
 62
    39
  6
CONTINUOUS
 10
-0.860440
 20
0.958050
  0
VERTEX
  8
EBENE_1
 62
    39
  6
CONTINUOUS
 10
-0.862508
 20
0.960721
  0
VERTEX
  8
EBENE_1
 62
    39
  6
CONTINUOUS
 10
-0.863346
 20
0.964508
  0
VERTEX
  8
EBENE_1
 62
    39
  6
CONTINUOUS
 10
-0.862642
 20
0.968322
  0
VERTEX
  8
EBENE_1
 62
    39
  6
CONTINUOUS
 10
-0.860668
 20
0.971064
  0
SEQEND
  8
0
  0
POLYLINE
  8
EBENE_1
 62
    39
  6
CONTINUOUS
 66
     1
 40
0.010000
 41
0.010000
 70
     1
  0
VERTEX
  8
EBENE_1
 62
    39
  6
CONTINUOUS
 10
-0.622610
 20
0.602673
  0
VERTEX
  8
EBENE_1
 62
    39
  6
CONTINUOUS
 10
-0.615337
 20
0.554072
  0
VERTEX
  8
EBENE_1
 62
    39
  6
CONTINUOUS
 10
-0.599232
 20
0.498984
  0
VERTEX
  8
EBENE_1
 62
    39
  6
CONTINUOUS
 10
-0.573886
 20
0.439727
  0
VERTEX
  8
EBENE_1
 62
    39
  6
CONTINUOUS
 10
-0.538886
 20
0.378619
  0
VERTEX
  8
EBENE_1
 62
    39
  6
CONTINUOUS
 10
-0.493822
 20
0.317979
  0
VERTEX
  8
EBENE_1
 62
    39
  6
CONTINUOUS
 10
-0.438283
 20
0.260124
  0
VERTEX
  8
EBENE_1
 62
    39
  6
CONTINUOUS
 10
-0.371858
 20
0.207374
  0
VERTEX
  8
EBENE_1
 62
    39
  6
CONTINUOUS
 10
0.181059
 20
0.219961
  0
VERTEX
  8
EBENE_1
 62
    39
  6
CONTINUOUS
 10
0.167165
 20
1.015894
  0
VERTEX
  8
EBENE_1
 62
    39
  6
CONTINUOUS
 10
-0.628772
 20
1.002000
  0
SEQEND
  8
0
  0
POLYLINE
  8
EBENE_1
 62
    39
  6
CONTINUOUS
 66
     1
 40
0.003000
 41
0.003000
 70
     1
  0
VERTEX
  8
EBENE_1
 62
    39
  6
CONTINUOUS
 10
-0.613941
 20
0.606717
  0
VERTEX
  8
EBENE_1
 62
    39
  6
CONTINUOUS
 10
-0.606786
 20
0.558558
  0
VERTEX
  8
EBENE_1
 62
    39
  6
CONTINUOUS
 10
-0.590950
 20
0.503970
  0
VERTEX
  8
EBENE_1
 62
    39
  6
CONTINUOUS
 10
-0.566031
 20
0.445251
  0
VERTEX
  8
EBENE_1
 62
    39
  6
CONTINUOUS
 10
-0.531624
 20
0.384696
  0
VERTEX
  8
EBENE_1
 62
    39
  6
CONTINUOUS
 10
-0.487327
 20
0.324603
  0
VERTEX
  8
EBENE_1
 62
    39
  6
CONTINUOUS
 10
-0.432735
 20
0.267270
  0
VERTEX
  8
EBENE_1
 62
    39
  6
CONTINUOUS
 10
-0.367445
 20
0.214992
  0
VERTEX
  8
EBENE_1
 62
    39
  6
CONTINUOUS
 10
0.175965
 20
0.227386
  0
VERTEX
  8
EBENE_1
 62
    39
  6
CONTINUOUS
 10
0.162197
 20
1.016051
  0
VERTEX
  8
EBENE_1
 62
    39
  6
CONTINUOUS
 10
-0.620051
 20
1.002398
  0
SEQEND
  8
0
  0
POLYLINE
  8
EBENE_1
 62
    39
  6
CONTINUOUS
 66
     1
 40
0.003000
 41
0.003000
 70
     1
  0
VERTEX
  8
EBENE_1
 62
    39
  6
CONTINUOUS
 10
0.105051
 20
0.743575
  0
VERTEX
  8
EBENE_1
 62
    39
  6
CONTINUOUS
 10
0.107903
 20
0.742593
  0
VERTEX
  8
EBENE_1
 62
    39
  6
CONTINUOUS
 10
0.109971
 20
0.739921
  0
VERTEX
  8
EBENE_1
 62
    39
  6
CONTINUOUS
 10
0.110807
 20
0.736134
  0
VERTEX
  8
EBENE_1
 62
    39
  6
CONTINUOUS
 10
0.110102
 20
0.732320
  0
VERTEX
  8
EBENE_1
 62
    39
  6
CONTINUOUS
 10
0.108130
 20
0.729578
  0
VERTEX
  8
EBENE_1
 62
    39
  6
CONTINUOUS
 10
0.105315
 20
0.728496
  0
VERTEX
  8
EBENE_1
 62
    39
  6
CONTINUOUS
 10
0.102460
 20
0.729479
  0
VERTEX
  8
EBENE_1
 62
    39
  6
CONTINUOUS
 10
0.100391
 20
0.732150
  0
VERTEX
  8
EBENE_1
 62
    39
  6
CONTINUOUS
 10
0.099555
 20
0.735937
  0
VERTEX
  8
EBENE_1
 62
    39
  6
CONTINUOUS
 10
0.100260
 20
0.739751
  0
VERTEX
  8
EBENE_1
 62
    39
  6
CONTINUOUS
 10
0.102233
 20
0.742493
  0
SEQEND
  8
0
  0
POLYLINE
  8
EBENE_1
 62
    39
  6
CONTINUOUS
 66
     1
 40
0.003000
 41
0.003000
 70
     1
  0
VERTEX
  8
EBENE_1
 62
    39
  6
CONTINUOUS
 10
0.109894
 20
0.609248
  0
VERTEX
  8
EBENE_1
 62
    39
  6
CONTINUOUS
 10
0.112747
 20
0.608265
  0
VERTEX
  8
EBENE_1
 62
    39
  6
CONTINUOUS
 10
0.114816
 20
0.605592
  0
VERTEX
  8
EBENE_1
 62
    39
  6
CONTINUOUS
 10
0.115654
 20
0.601803
  0
VERTEX
  8
EBENE_1
 62
    39
  6
CONTINUOUS
 10
0.114949
 20
0.597992
  0
VERTEX
  8
EBENE_1
 62
    39
  6
CONTINUOUS
 10
0.112975
 20
0.595251
  0
VERTEX
  8
EBENE_1
 62
    39
  6
CONTINUOUS
 10
0.110157
 20
0.594169
  0
VERTEX
  8
EBENE_1
 62
    39
  6
CONTINUOUS
 10
0.107304
 20
0.595151
  0
VERTEX
  8
EBENE_1
 62
    39
  6
CONTINUOUS
 10
0.105237
 20
0.597823
  0
VERTEX
  8
EBENE_1
 62
    39
  6
CONTINUOUS
 10
0.104402
 20
0.601610
  0
VERTEX
  8
EBENE_1
 62
    39
  6
CONTINUOUS
 10
0.105104
 20
0.605424
  0
VERTEX
  8
EBENE_1
 62
    39
  6
CONTINUOUS
 10
0.107076
 20
0.608166
  0
SEQEND
  8
0
  0
POLYLINE
  8
EBENE_1
 62
    39
  6
CONTINUOUS
 66
     1
 40
0.003000
 41
0.003000
 70
     1
  0
VERTEX
  8
EBENE_1
 62
    39
  6
CONTINUOUS
 10
-0.151646
 20
0.977965
  0
VERTEX
  8
EBENE_1
 62
    39
  6
CONTINUOUS
 10
-0.148795
 20
0.976983
  0
VERTEX
  8
EBENE_1
 62
    39
  6
CONTINUOUS
 10
-0.146728
 20
0.974311
  0
VERTEX
  8
EBENE_1
 62
    39
  6
CONTINUOUS
 10
-0.145890
 20
0.970524
  0
VERTEX
  8
EBENE_1
 62
    39
  6
CONTINUOUS
 10
-0.146594
 20
0.966710
  0
VERTEX
  8
EBENE_1
 62
    39
  6
CONTINUOUS
 10
-0.148567
 20
0.963969
  0
VERTEX
  8
EBENE_1
 62
    39
  6
CONTINUOUS
 10
-0.151382
 20
0.962890
  0
VERTEX
  8
EBENE_1
 62
    39
  6
CONTINUOUS
 10
-0.154237
 20
0.963870
  0
VERTEX
  8
EBENE_1
 62
    39
  6
CONTINUOUS
 10
-0.156305
 20
0.966540
  0
VERTEX
  8
EBENE_1
 62
    39
  6
CONTINUOUS
 10
-0.157142
 20
0.970327
  0
VERTEX
  8
EBENE_1
 62
    39
  6
CONTINUOUS
 10
-0.156439
 20
0.974142
  0
VERTEX
  8
EBENE_1
 62
    39
  6
CONTINUOUS
 10
-0.154464
 20
0.976885
  0
SEQEND
  8
0
  0
POLYLINE
  8
EBENE_1
 62
    39
  6
CONTINUOUS
 66
     1
 40
0.003000
 41
0.003000
 70
     1
  0
VERTEX
  8
EBENE_1
 62
    39
  6
CONTINUOUS
 10
-0.306630
 20
0.972815
  0
VERTEX
  8
EBENE_1
 62
    39
  6
CONTINUOUS
 10
-0.303776
 20
0.971833
  0
VERTEX
  8
EBENE_1
 62
    39
  6
CONTINUOUS
 10
-0.301708
 20
0.969161
  0
VERTEX
  8
EBENE_1
 62
    39
  6
CONTINUOUS
 10
-0.300870
 20
0.965374
  0
VERTEX
  8
EBENE_1
 62
    39
  6
CONTINUOUS
 10
-0.301575
 20
0.961560
  0
VERTEX
  8
EBENE_1
 62
    39
  6
CONTINUOUS
 10
-0.303548
 20
0.958819
  0
VERTEX
  8
EBENE_1
 62
    39
  6
CONTINUOUS
 10
-0.306366
 20
0.957740
  0
VERTEX
  8
EBENE_1
 62
    39
  6
CONTINUOUS
 10
-0.309220
 20
0.958722
  0
VERTEX
  8
EBENE_1
 62
    39
  6
CONTINUOUS
 10
-0.311287
 20
0.961393
  0
VERTEX
  8
EBENE_1
 62
    39
  6
CONTINUOUS
 10
-0.312122
 20
0.965177
  0
VERTEX
  8
EBENE_1
 62
    39
  6
CONTINUOUS
 10
-0.311420
 20
0.968992
  0
VERTEX
  8
EBENE_1
 62
    39
  6
CONTINUOUS
 10
-0.309448
 20
0.971735
  0
SEQEND
  8
0
  0
POLYLINE
  8
EBENE_1
 62
    39
  6
CONTINUOUS
 66
     1
 40
0.010000
 41
0.010000
 70
     1
  0
VERTEX
  8
EBENE_1
 62
    39
  6
CONTINUOUS
 10
-0.071390
 20
0.603343
  0
VERTEX
  8
EBENE_1
 62
    39
  6
CONTINUOUS
 10
-0.064116
 20
0.554743
  0
VERTEX
  8
EBENE_1
 62
    39
  6
CONTINUOUS
 10
-0.048012
 20
0.499655
  0
VERTEX
  8
EBENE_1
 62
    39
  6
CONTINUOUS
 10
-0.022665
 20
0.440398
  0
VERTEX
  8
EBENE_1
 62
    39
  6
CONTINUOUS
 10
0.012335
 20
0.379290
  0
VERTEX
  8
EBENE_1
 62
    39
  6
CONTINUOUS
 10
0.057398
 20
0.318649
  0
VERTEX
  8
EBENE_1
 62
    39
  6
CONTINUOUS
 10
0.112937
 20
0.260794
  0
VERTEX
  8
EBENE_1
 62
    39
  6
CONTINUOUS
 10
0.179362
 20
0.208043
  0
VERTEX
  8
EBENE_1
 62
    39
  6
CONTINUOUS
 10
0.732280
 20
0.220630
  0
VERTEX
  8
EBENE_1
 62
    39
  6
CONTINUOUS
 10
0.718386
 20
1.016563
  0
VERTEX
  8
EBENE_1
 62
    39
  6
CONTINUOUS
 10
-0.077547
 20
1.002669
  0
SEQEND
  8
0
  0
POLYLINE
  8
EBENE_1
 62
    39
  6
CONTINUOUS
 66
     1
 40
0.003000
 41
0.003000
 70
     1
  0
VERTEX
  8
EBENE_1
 62
    39
  6
CONTINUOUS
 10
-0.062720
 20
0.607390
  0
VERTEX
  8
EBENE_1
 62
    39
  6
CONTINUOUS
 10
-0.055565
 20
0.559231
  0
VERTEX
  8
EBENE_1
 62
    39
  6
CONTINUOUS
 10
-0.039730
 20
0.504643
  0
VERTEX
  8
EBENE_1
 62
    39
  6
CONTINUOUS
 10
-0.014811
 20
0.445922
  0
VERTEX
  8
EBENE_1
 62
    39
  6
CONTINUOUS
 10
0.019596
 20
0.385367
  0
VERTEX
  8
EBENE_1
 62
    39
  6
CONTINUOUS
 10
0.063894
 20
0.325273
  0
VERTEX
  8
EBENE_1
 62
    39
  6
CONTINUOUS
 10
0.118486
 20
0.267939
  0
VERTEX
  8
EBENE_1
 62
    39
  6
CONTINUOUS
 10
0.183776
 20
0.215661
  0
VERTEX
  8
EBENE_1
 62
    39
  6
CONTINUOUS
 10
0.727185
 20
0.228055
  0
VERTEX
  8
EBENE_1
 62
    39
  6
CONTINUOUS
 10
0.713417
 20
1.016724
  0
VERTEX
  8
EBENE_1
 62
    39
  6
CONTINUOUS
 10
-0.068827
 20
1.003067
  0
SEQEND
  8
0
  0
POLYLINE
  8
EBENE_1
 62
    39
  6
CONTINUOUS
 66
     1
 40
0.003000
 41
0.003000
 70
     1
  0
VERTEX
  8
EBENE_1
 62
    39
  6
CONTINUOUS
 10
0.656272
 20
0.744244
  0
VERTEX
  8
EBENE_1
 62
    39
  6
CONTINUOUS
 10
0.659124
 20
0.743262
  0
VERTEX
  8
EBENE_1
 62
    39
  6
CONTINUOUS
 10
0.661191
 20
0.740591
  0
VERTEX
  8
EBENE_1
 62
    39
  6
CONTINUOUS
 10
0.662028
 20
0.736803
  0
VERTEX
  8
EBENE_1
 62
    39
  6
CONTINUOUS
 10
0.661323
 20
0.732991
  0
VERTEX
  8
EBENE_1
 62
    39
  6
CONTINUOUS
 10
0.659350
 20
0.730249
  0
VERTEX
  8
EBENE_1
 62
    39
  6
CONTINUOUS
 10
0.656535
 20
0.729169
  0
VERTEX
  8
EBENE_1
 62
    39
  6
CONTINUOUS
 10
0.653682
 20
0.730151
  0
VERTEX
  8
EBENE_1
 62
    39
  6
CONTINUOUS
 10
0.651614
 20
0.732822
  0
VERTEX
  8
EBENE_1
 62
    39
  6
CONTINUOUS
 10
0.650776
 20
0.736606
  0
VERTEX
  8
EBENE_1
 62
    39
  6
CONTINUOUS
 10
0.651480
 20
0.740423
  0
VERTEX
  8
EBENE_1
 62
    39
  6
CONTINUOUS
 10
0.653454
 20
0.743165
  0
SEQEND
  8
0
  0
POLYLINE
  8
EBENE_1
 62
    39
  6
CONTINUOUS
 66
     1
 40
0.003000
 41
0.003000
 70
     1
  0
VERTEX
  8
EBENE_1
 62
    39
  6
CONTINUOUS
 10
0.661118
 20
0.609917
  0
VERTEX
  8
EBENE_1
 62
    39
  6
CONTINUOUS
 10
0.663969
 20
0.608936
  0
VERTEX
  8
EBENE_1
 62
    39
  6
CONTINUOUS
 10
0.666036
 20
0.606264
  0
VERTEX
  8
EBENE_1
 62
    39
  6
CONTINUOUS
 10
0.666874
 20
0.602476
  0
VERTEX
  8
EBENE_1
 62
    39
  6
CONTINUOUS
 10
0.666169
 20
0.598662
  0
VERTEX
  8
EBENE_1
 62
    39
  6
CONTINUOUS
 10
0.664196
 20
0.595920
  0
VERTEX
  8
EBENE_1
 62
    39
  6
CONTINUOUS
 10
0.661378
 20
0.594839
  0
VERTEX
  8
EBENE_1
 62
    39
  6
CONTINUOUS
 10
0.658524
 20
0.595822
  0
VERTEX
  8
EBENE_1
 62
    39
  6
CONTINUOUS
 10
0.656457
 20
0.598493
  0
VERTEX
  8
EBENE_1
 62
    39
  6
CONTINUOUS
 10
0.655622
 20
0.602280
  0
VERTEX
  8
EBENE_1
 62
    39
  6
CONTINUOUS
 10
0.656324
 20
0.606093
  0
VERTEX
  8
EBENE_1
 62
    39
  6
CONTINUOUS
 10
0.658298
 20
0.608836
  0
SEQEND
  8
0
  0
POLYLINE
  8
EBENE_1
 62
    39
  6
CONTINUOUS
 66
     1
 40
0.003000
 41
0.003000
 70
     1
  0
VERTEX
  8
EBENE_1
 62
    39
  6
CONTINUOUS
 10
0.399575
 20
0.978638
  0
VERTEX
  8
EBENE_1
 62
    39
  6
CONTINUOUS
 10
0.402427
 20
0.977654
  0
VERTEX
  8
EBENE_1
 62
    39
  6
CONTINUOUS
 10
0.404495
 20
0.974982
  0
VERTEX
  8
EBENE_1
 62
    39
  6
CONTINUOUS
 10
0.405331
 20
0.971193
  0
VERTEX
  8
EBENE_1
 62
    39
  6
CONTINUOUS
 10
0.404626
 20
0.967382
  0
VERTEX
  8
EBENE_1
 62
    39
  6
CONTINUOUS
 10
0.402654
 20
0.964641
  0
VERTEX
  8
EBENE_1
 62
    39
  6
CONTINUOUS
 10
0.399839
 20
0.963559
  0
VERTEX
  8
EBENE_1
 62
    39
  6
CONTINUOUS
 10
0.396984
 20
0.964541
  0
VERTEX
  8
EBENE_1
 62
    39
  6
CONTINUOUS
 10
0.394915
 20
0.967211
  0
VERTEX
  8
EBENE_1
 62
    39
  6
CONTINUOUS
 10
0.394079
 20
0.970996
  0
VERTEX
  8
EBENE_1
 62
    39
  6
CONTINUOUS
 10
0.394784
 20
0.974813
  0
VERTEX
  8
EBENE_1
 62
    39
  6
CONTINUOUS
 10
0.396757
 20
0.977556
  0
SEQEND
  8
0
  0
POLYLINE
  8
EBENE_1
 62
    39
  6
CONTINUOUS
 66
     1
 40
0.003000
 41
0.003000
 70
     1
  0
VERTEX
  8
EBENE_1
 62
    39
  6
CONTINUOUS
 10
0.244591
 20
0.973488
  0
VERTEX
  8
EBENE_1
 62
    39
  6
CONTINUOUS
 10
0.247444
 20
0.972505
  0
VERTEX
  8
EBENE_1
 62
    39
  6
CONTINUOUS
 10
0.249512
 20
0.969833
  0
VERTEX
  8
EBENE_1
 62
    39
  6
CONTINUOUS
 10
0.250350
 20
0.966043
  0
VERTEX
  8
EBENE_1
 62
    39
  6
CONTINUOUS
 10
0.249646
 20
0.962232
  0
VERTEX
  8
EBENE_1
 62
    39
  6
CONTINUOUS
 10
0.247672
 20
0.959491
  0
VERTEX
  8
EBENE_1
 62
    39
  6
CONTINUOUS
 10
0.244854
 20
0.958409
  0
VERTEX
  8
EBENE_1
 62
    39
  6
CONTINUOUS
 10
0.242001
 20
0.959391
  0
VERTEX
  8
EBENE_1
 62
    39
  6
CONTINUOUS
 10
0.239934
 20
0.962062
  0
VERTEX
  8
EBENE_1
 62
    39
  6
CONTINUOUS
 10
0.239098
 20
0.965846
  0
VERTEX
  8
EBENE_1
 62
    39
  6
CONTINUOUS
 10
0.239801
 20
0.969663
  0
VERTEX
  8
EBENE_1
 62
    39
  6
CONTINUOUS
 10
0.241773
 20
0.972406
  0
SEQEND
  8
0
  0
POLYLINE
  8
EBENE_1
 62
    39
  6
CONTINUOUS
 66
     1
 40
0.010000
 41
0.010000
 70
     1
  0
VERTEX
  8
EBENE_1
 62
    39
  6
CONTINUOUS
 10
0.479831
 20
0.604016
  0
VERTEX
  8
EBENE_1
 62
    39
  6
CONTINUOUS
 10
0.487104
 20
0.555414
  0
VERTEX
  8
EBENE_1
 62
    39
  6
CONTINUOUS
 10
0.503209
 20
0.500326
  0
VERTEX
  8
EBENE_1
 62
    39
  6
CONTINUOUS
 10
0.528555
 20
0.441068
  0
VERTEX
  8
EBENE_1
 62
    39
  6
CONTINUOUS
 10
0.563555
 20
0.379959
  0
VERTEX
  8
EBENE_1
 62
    39
  6
CONTINUOUS
 10
0.608619
 20
0.319318
  0
VERTEX
  8
EBENE_1
 62
    39
  6
CONTINUOUS
 10
0.664158
 20
0.261463
  0
VERTEX
  8
EBENE_1
 62
    39
  6
CONTINUOUS
 10
0.730583
 20
0.208713
  0
VERTEX
  8
EBENE_1
 62
    39
  6
CONTINUOUS
 10
1.283500
 20
0.221299
  0
VERTEX
  8
EBENE_1
 62
    39
  6
CONTINUOUS
 10
1.269606
 20
1.017232
  0
VERTEX
  8
EBENE_1
 62
    39
  6
CONTINUOUS
 10
0.473673
 20
1.003339
  0
SEQEND
  8
0
  0
POLYLINE
  8
EBENE_1
 62
    39
  6
CONTINUOUS
 66
     1
 40
0.003000
 41
0.003000
 70
     1
  0
VERTEX
  8
EBENE_1
 62
    39
  6
CONTINUOUS
 10
0.488500
 20
0.608059
  0
VERTEX
  8
EBENE_1
 62
    39
  6
CONTINUOUS
 10
0.495655
 20
0.559901
  0
VERTEX
  8
EBENE_1
 62
    39
  6
CONTINUOUS
 10
0.511491
 20
0.505313
  0
VERTEX
  8
EBENE_1
 62
    39
  6
CONTINUOUS
 10
0.536410
 20
0.446593
  0
VERTEX
  8
EBENE_1
 62
    39
  6
CONTINUOUS
 10
0.570817
 20
0.386038
  0
VERTEX
  8
EBENE_1
 62
    39
  6
CONTINUOUS
 10
0.615114
 20
0.325944
  0
VERTEX
  8
EBENE_1
 62
    39
  6
CONTINUOUS
 10
0.669706
 20
0.268610
  0
VERTEX
  8
EBENE_1
 62
    39
  6
CONTINUOUS
 10
0.734996
 20
0.216331
  0
VERTEX
  8
EBENE_1
 62
    39
  6
CONTINUOUS
 10
1.278406
 20
0.228724
  0
VERTEX
  8
EBENE_1
 62
    39
  6
CONTINUOUS
 10
1.264638
 20
1.017394
  0
VERTEX
  8
EBENE_1
 62
    39
  6
CONTINUOUS
 10
0.482394
 20
1.003740
  0
SEQEND
  8
0
  0
POLYLINE
  8
EBENE_1
 62
    39
  6
CONTINUOUS
 66
     1
 40
0.003000
 41
0.003000
 70
     1
  0
VERTEX
  8
EBENE_1
 62
    39
  6
CONTINUOUS
 10
1.207492
 20
0.744917
  0
VERTEX
  8
EBENE_1
 62
    39
  6
CONTINUOUS
 10
1.210344
 20
0.743934
  0
VERTEX
  8
EBENE_1
 62
    39
  6
CONTINUOUS
 10
1.212412
 20
0.741262
  0
VERTEX
  8
EBENE_1
 62
    39
  6
CONTINUOUS
 10
1.213248
 20
0.737472
  0
VERTEX
  8
EBENE_1
 62
    39
  6
CONTINUOUS
 10
1.212545
 20
0.733661
  0
VERTEX
  8
EBENE_1
 62
    39
  6
CONTINUOUS
 10
1.210572
 20
0.730920
  0
VERTEX
  8
EBENE_1
 62
    39
  6
CONTINUOUS
 10
1.207756
 20
0.729839
  0
VERTEX
  8
EBENE_1
 62
    39
  6
CONTINUOUS
 10
1.204902
 20
0.730820
  0
VERTEX
  8
EBENE_1
 62
    39
  6
CONTINUOUS
 10
1.202834
 20
0.733492
  0
VERTEX
  8
EBENE_1
 62
    39
  6
CONTINUOUS
 10
1.201996
 20
0.737280
  0
VERTEX
  8
EBENE_1
 62
    39
  6
CONTINUOUS
 10
1.202701
 20
0.741093
  0
VERTEX
  8
EBENE_1
 62
    39
  6
CONTINUOUS
 10
1.204674
 20
0.743836
  0
SEQEND
  8
0
  0
POLYLINE
  8
EBENE_1
 62
    39
  6
CONTINUOUS
 66
     1
 40
0.003000
 41
0.003000
 70
     1
  0
VERTEX
  8
EBENE_1
 62
    39
  6
CONTINUOUS
 10
1.212339
 20
0.610587
  0
VERTEX
  8
EBENE_1
 62
    39
  6
CONTINUOUS
 10
1.215190
 20
0.609605
  0
VERTEX
  8
EBENE_1
 62
    39
  6
CONTINUOUS
 10
1.217257
 20
0.606933
  0
VERTEX
  8
EBENE_1
 62
    39
  6
CONTINUOUS
 10
1.218094
 20
0.603146
  0
VERTEX
  8
EBENE_1
 62
    39
  6
CONTINUOUS
 10
1.217390
 20
0.599332
  0
VERTEX
  8
EBENE_1
 62
    39
  6
CONTINUOUS
 10
1.215416
 20
0.596591
  0
VERTEX
  8
EBENE_1
 62
    39
  6
CONTINUOUS
 10
1.212598
 20
0.595512
  0
VERTEX
  8
EBENE_1
 62
    39
  6
CONTINUOUS
 10
1.209745
 20
0.596493
  0
VERTEX
  8
EBENE_1
 62
    39
  6
CONTINUOUS
 10
1.207678
 20
0.599164
  0
VERTEX
  8
EBENE_1
 62
    39
  6
CONTINUOUS
 10
1.206843
 20
0.602949
  0
VERTEX
  8
EBENE_1
 62
    39
  6
CONTINUOUS
 10
1.207546
 20
0.606764
  0
VERTEX
  8
EBENE_1
 62
    39
  6
CONTINUOUS
 10
1.209520
 20
0.609507
  0
SEQEND
  8
0
  0
POLYLINE
  8
EBENE_1
 62
    39
  6
CONTINUOUS
 66
     1
 40
0.003000
 41
0.003000
 70
     1
  0
VERTEX
  8
EBENE_1
 62
    39
  6
CONTINUOUS
 10
0.950795
 20
0.979307
  0
VERTEX
  8
EBENE_1
 62
    39
  6
CONTINUOUS
 10
0.953647
 20
0.978325
  0
VERTEX
  8
EBENE_1
 62
    39
  6
CONTINUOUS
 10
0.955715
 20
0.975654
  0
VERTEX
  8
EBENE_1
 62
    39
  6
CONTINUOUS
 10
0.956551
 20
0.971866
  0
VERTEX
  8
EBENE_1
 62
    39
  6
CONTINUOUS
 10
0.955846
 20
0.968052
  0
VERTEX
  8
EBENE_1
 62
    39
  6
CONTINUOUS
 10
0.953874
 20
0.965310
  0
VERTEX
  8
EBENE_1
 62
    39
  6
CONTINUOUS
 10
0.951059
 20
0.964228
  0
VERTEX
  8
EBENE_1
 62
    39
  6
CONTINUOUS
 10
0.948204
 20
0.965210
  0
VERTEX
  8
EBENE_1
 62
    39
  6
CONTINUOUS
 10
0.946135
 20
0.967882
  0
VERTEX
  8
EBENE_1
 62
    39
  6
CONTINUOUS
 10
0.945299
 20
0.971669
  0
VERTEX
  8
EBENE_1
 62
    39
  6
CONTINUOUS
 10
0.946004
 20
0.975483
  0
VERTEX
  8
EBENE_1
 62
    39
  6
CONTINUOUS
 10
0.947978
 20
0.978225
  0
SEQEND
  8
0
  0
POLYLINE
  8
EBENE_1
 62
    39
  6
CONTINUOUS
 66
     1
 40
0.003000
 41
0.003000
 70
     1
  0
VERTEX
  8
EBENE_1
 62
    39
  6
CONTINUOUS
 10
0.795815
 20
0.974157
  0
VERTEX
  8
EBENE_1
 62
    39
  6
CONTINUOUS
 10
0.798666
 20
0.973176
  0
VERTEX
  8
EBENE_1
 62
    39
  6
CONTINUOUS
 10
0.800733
 20
0.970504
  0
VERTEX
  8
EBENE_1
 62
    39
  6
CONTINUOUS
 10
0.801571
 20
0.966717
  0
VERTEX
  8
EBENE_1
 62
    39
  6
CONTINUOUS
 10
0.800866
 20
0.962903
  0
VERTEX
  8
EBENE_1
 62
    39
  6
CONTINUOUS
 10
0.798893
 20
0.960160
  0
VERTEX
  8
EBENE_1
 62
    39
  6
CONTINUOUS
 10
0.796075
 20
0.959079
  0
VERTEX
  8
EBENE_1
 62
    39
  6
CONTINUOUS
 10
0.793221
 20
0.960060
  0
VERTEX
  8
EBENE_1
 62
    39
  6
CONTINUOUS
 10
0.791154
 20
0.962732
  0
VERTEX
  8
EBENE_1
 62
    39
  6
CONTINUOUS
 10
0.790319
 20
0.966520
  0
VERTEX
  8
EBENE_1
 62
    39
  6
CONTINUOUS
 10
0.791021
 20
0.970334
  0
VERTEX
  8
EBENE_1
 62
    39
  6
CONTINUOUS
 10
0.792995
 20
0.973076
  0
SEQEND
  8
0
  0
POLYLINE
  8
EBENE_1
 62
    39
  6
CONTINUOUS
 66
     1
 40
0.010000
 41
0.010000
 70
     1
  0
VERTEX
  8
EBENE_1
 62
    39
  6
CONTINUOUS
 10
1.031051
 20
0.604685
  0
VERTEX
  8
EBENE_1
 62
    39
  6
CONTINUOUS
 10
1.038325
 20
0.556084
  0
VERTEX
  8
EBENE_1
 62
    39
  6
CONTINUOUS
 10
1.054429
 20
0.500996
  0
VERTEX
  8
EBENE_1
 62
    39
  6
CONTINUOUS
 10
1.079776
 20
0.441739
  0
VERTEX
  8
EBENE_1
 62
    39
  6
CONTINUOUS
 10
1.114775
 20
0.380631
  0
VERTEX
  8
EBENE_1
 62
    39
  6
CONTINUOUS
 10
1.159839
 20
0.319991
  0
VERTEX
  8
EBENE_1
 62
    39
  6
CONTINUOUS
 10
1.215378
 20
0.262136
  0
VERTEX
  8
EBENE_1
 62
    39
  6
CONTINUOUS
 10
1.281803
 20
0.209386
  0
VERTEX
  8
EBENE_1
 62
    39
  6
CONTINUOUS
 10
1.834720
 20
0.221972
  0
VERTEX
  8
EBENE_1
 62
    39
  6
CONTINUOUS
 10
1.820827
 20
1.017906
  0
VERTEX
  8
EBENE_1
 62
    39
  6
CONTINUOUS
 10
1.024894
 20
1.004012
  0
SEQEND
  8
0
  0
POLYLINE
  8
EBENE_1
 62
    39
  6
CONTINUOUS
 66
     1
 40
0.003000
 41
0.003000
 70
     1
  0
VERTEX
  8
EBENE_1
 62
    39
  6
CONTINUOUS
 10
1.039720
 20
0.608728
  0
VERTEX
  8
EBENE_1
 62
    39
  6
CONTINUOUS
 10
1.046876
 20
0.560570
  0
VERTEX
  8
EBENE_1
 62
    39
  6
CONTINUOUS
 10
1.062711
 20
0.505982
  0
VERTEX
  8
EBENE_1
 62
    39
  6
CONTINUOUS
 10
1.087631
 20
0.447262
  0
VERTEX
  8
EBENE_1
 62
    39
  6
CONTINUOUS
 10
1.122038
 20
0.386708
  0
VERTEX
  8
EBENE_1
 62
    39
  6
CONTINUOUS
 10
1.166336
 20
0.326615
  0
VERTEX
  8
EBENE_1
 62
    39
  6
CONTINUOUS
 10
1.220929
 20
0.269281
  0
VERTEX
  8
EBENE_1
 62
    39
  6
CONTINUOUS
 10
1.286220
 20
0.217004
  0
VERTEX
  8
EBENE_1
 62
    39
  6
CONTINUOUS
 10
1.829626
 20
0.229398
  0
VERTEX
  8
EBENE_1
 62
    39
  6
CONTINUOUS
 10
1.815858
 20
1.018063
  0
VERTEX
  8
EBENE_1
 62
    39
  6
CONTINUOUS
 10
1.033614
 20
1.004409
  0
SEQEND
  8
0
  0
POLYLINE
  8
EBENE_1
 62
    39
  6
CONTINUOUS
 66
     1
 40
0.003000
 41
0.003000
 70
     1
  0
VERTEX
  8
EBENE_1
 62
    39
  6
CONTINUOUS
 10
1.758713
 20
0.745587
  0
VERTEX
  8
EBENE_1
 62
    39
  6
CONTINUOUS
 10
1.761566
 20
0.744605
  0
VERTEX
  8
EBENE_1
 62
    39
  6
CONTINUOUS
 10
1.763633
 20
0.741933
  0
VERTEX
  8
EBENE_1
 62
    39
  6
CONTINUOUS
 10
1.764469
 20
0.738146
  0
VERTEX
  8
EBENE_1
 62
    39
  6
CONTINUOUS
 10
1.763766
 20
0.734332
  0
VERTEX
  8
EBENE_1
 62
    39
  6
CONTINUOUS
 10
1.761792
 20
0.731590
  0
VERTEX
  8
EBENE_1
 62
    39
  6
CONTINUOUS
 10
1.758976
 20
0.730508
  0
VERTEX
  8
EBENE_1
 62
    39
  6
CONTINUOUS
 10
1.756123
 20
0.731491
  0
VERTEX
  8
EBENE_1
 62
    39
  6
CONTINUOUS
 10
1.754055
 20
0.734162
  0
VERTEX
  8
EBENE_1
 62
    39
  6
CONTINUOUS
 10
1.753217
 20
0.737949
  0
VERTEX
  8
EBENE_1
 62
    39
  6
CONTINUOUS
 10
1.753921
 20
0.741763
  0
VERTEX
  8
EBENE_1
 62
    39
  6
CONTINUOUS
 10
1.755895
 20
0.744505
  0
SEQEND
  8
0
  0
POLYLINE
  8
EBENE_1
 62
    39
  6
CONTINUOUS
 66
     1
 40
0.003000
 41
0.003000
 70
     1
  0
VERTEX
  8
EBENE_1
 62
    39
  6
CONTINUOUS
 10
1.763559
 20
0.611260
  0
VERTEX
  8
EBENE_1
 62
    39
  6
CONTINUOUS
 10
1.766410
 20
0.610276
  0
VERTEX
  8
EBENE_1
 62
    39
  6
CONTINUOUS
 10
1.768477
 20
0.607604
  0
VERTEX
  8
EBENE_1
 62
    39
  6
CONTINUOUS
 10
1.769315
 20
0.603815
  0
VERTEX
  8
EBENE_1
 62
    39
  6
CONTINUOUS
 10
1.768610
 20
0.600004
  0
VERTEX
  8
EBENE_1
 62
    39
  6
CONTINUOUS
 10
1.766638
 20
0.597263
  0
VERTEX
  8
EBENE_1
 62
    39
  6
CONTINUOUS
 10
1.763823
 20
0.596181
  0
VERTEX
  8
EBENE_1
 62
    39
  6
CONTINUOUS
 10
1.760966
 20
0.597163
  0
VERTEX
  8
EBENE_1
 62
    39
  6
CONTINUOUS
 10
1.758898
 20
0.599833
  0
VERTEX
  8
EBENE_1
 62
    39
  6
CONTINUOUS
 10
1.758063
 20
0.603618
  0
VERTEX
  8
EBENE_1
 62
    39
  6
CONTINUOUS
 10
1.758766
 20
0.607435
  0
VERTEX
  8
EBENE_1
 62
    39
  6
CONTINUOUS
 10
1.760740
 20
0.610178
  0
SEQEND
  8
0
  0
POLYLINE
  8
EBENE_1
 62
    39
  6
CONTINUOUS
 66
     1
 40
0.003000
 41
0.003000
 70
     1
  0
VERTEX
  8
EBENE_1
 62
    39
  6
CONTINUOUS
 10
1.502016
 20
0.979976
  0
VERTEX
  8
EBENE_1
 62
    39
  6
CONTINUOUS
 10
1.504868
 20
0.978995
  0
VERTEX
  8
EBENE_1
 62
    39
  6
CONTINUOUS
 10
1.506936
 20
0.976323
  0
VERTEX
  8
EBENE_1
 62
    39
  6
CONTINUOUS
 10
1.507772
 20
0.972535
  0
VERTEX
  8
EBENE_1
 62
    39
  6
CONTINUOUS
 10
1.507067
 20
0.968721
  0
VERTEX
  8
EBENE_1
 62
    39
  6
CONTINUOUS
 10
1.505094
 20
0.965979
  0
VERTEX
  8
EBENE_1
 62
    39
  6
CONTINUOUS
 10
1.502280
 20
0.964898
  0
VERTEX
  8
EBENE_1
 62
    39
  6
CONTINUOUS
 10
1.499425
 20
0.965881
  0
VERTEX
  8
EBENE_1
 62
    39
  6
CONTINUOUS
 10
1.497356
 20
0.968552
  0
VERTEX
  8
EBENE_1
 62
    39
  6
CONTINUOUS
 10
1.496520
 20
0.972339
  0
VERTEX
  8
EBENE_1
 62
    39
  6
CONTINUOUS
 10
1.497225
 20
0.976153
  0
VERTEX
  8
EBENE_1
 62
    39
  6
CONTINUOUS
 10
1.499198
 20
0.978895
  0
SEQEND
  8
0
  0
POLYLINE
  8
EBENE_1
 62
    39
  6
CONTINUOUS
 66
     1
 40
0.003000
 41
0.003000
 70
     1
  0
VERTEX
  8
EBENE_1
 62
    39
  6
CONTINUOUS
 10
1.347035
 20
0.974827
  0
VERTEX
  8
EBENE_1
 62
    39
  6
CONTINUOUS
 10
1.349886
 20
0.973845
  0
VERTEX
  8
EBENE_1
 62
    39
  6
CONTINUOUS
 10
1.351953
 20
0.971173
  0
VERTEX
  8
EBENE_1
 62
    39
  6
CONTINUOUS
 10
1.352791
 20
0.967386
  0
VERTEX
  8
EBENE_1
 62
    39
  6
CONTINUOUS
 10
1.352086
 20
0.963572
  0
VERTEX
  8
EBENE_1
 62
    39
  6
CONTINUOUS
 10
1.350113
 20
0.960830
  0
VERTEX
  8
EBENE_1
 62
    39
  6
CONTINUOUS
 10
1.347295
 20
0.959748
  0
VERTEX
  8
EBENE_1
 62
    39
  6
CONTINUOUS
 10
1.344442
 20
0.960731
  0
VERTEX
  8
EBENE_1
 62
    39
  6
CONTINUOUS
 10
1.342375
 20
0.963402
  0
VERTEX
  8
EBENE_1
 62
    39
  6
CONTINUOUS
 10
1.341539
 20
0.967189
  0
VERTEX
  8
EBENE_1
 62
    39
  6
CONTINUOUS
 10
1.342242
 20
0.971003
  0
VERTEX
  8
EBENE_1
 62
    39
  6
CONTINUOUS
 10
1.344217
 20
0.973745
  0
SEQEND
  8
0
  0
POLYLINE
  8
EBENE_1
 62
    39
  6
CONTINUOUS
 66
     1
 40
0.010000
 41
0.010000
 70
     1
  0
VERTEX
  8
EBENE_1
 62
    39
  6
CONTINUOUS
 10
1.595421
 20
0.612697
  0
VERTEX
  8
EBENE_1
 62
    39
  6
CONTINUOUS
 10
1.602695
 20
0.564095
  0
VERTEX
  8
EBENE_1
 62
    39
  6
CONTINUOUS
 10
1.618799
 20
0.509007
  0
VERTEX
  8
EBENE_1
 62
    39
  6
CONTINUOUS
 10
1.644146
 20
0.449749
  0
VERTEX
  8
EBENE_1
 62
    39
  6
CONTINUOUS
 10
1.679146
 20
0.388641
  0
VERTEX
  8
EBENE_1
 62
    39
  6
CONTINUOUS
 10
1.724209
 20
0.328001
  0
VERTEX
  8
EBENE_1
 62
    39
  6
CONTINUOUS
 10
1.779748
 20
0.270147
  0
VERTEX
  8
EBENE_1
 62
    39
  6
CONTINUOUS
 10
1.846173
 20
0.217398
  0
VERTEX
  8
EBENE_1
 62
    39
  6
CONTINUOUS
 10
2.399091
 20
0.229980
  0
VERTEX
  8
EBENE_1
 62
    39
  6
CONTINUOUS
 10
2.385197
 20
1.025913
  0
VERTEX
  8
EBENE_1
 62
    39
  6
CONTINUOUS
 10
1.589264
 20
1.012024
  0
SEQEND
  8
0
  0
POLYLINE
  8
EBENE_1
 62
    39
  6
CONTINUOUS
 66
     1
 40
0.003000
 41
0.003000
 70
     1
  0
VERTEX
  8
EBENE_1
 62
    39
  6
CONTINUOUS
 10
1.604091
 20
0.616740
  0
VERTEX
  8
EBENE_1
 62
    39
  6
CONTINUOUS
 10
1.611246
 20
0.568582
  0
VERTEX
  8
EBENE_1
 62
    39
  6
CONTINUOUS
 10
1.627081
 20
0.513994
  0
VERTEX
  8
EBENE_1
 62
    39
  6
CONTINUOUS
 10
1.652000
 20
0.455274
  0
VERTEX
  8
EBENE_1
 62
    39
  6
CONTINUOUS
 10
1.686407
 20
0.394719
  0
VERTEX
  8
EBENE_1
 62
    39
  6
CONTINUOUS
 10
1.730705
 20
0.334625
  0
VERTEX
  8
EBENE_1
 62
    39
  6
CONTINUOUS
 10
1.785297
 20
0.277291
  0
VERTEX
  8
EBENE_1
 62
    39
  6
CONTINUOUS
 10
1.850587
 20
0.225012
  0
VERTEX
  8
EBENE_1
 62
    39
  6
CONTINUOUS
 10
2.393996
 20
0.237406
  0
VERTEX
  8
EBENE_1
 62
    39
  6
CONTINUOUS
 10
2.380228
 20
1.026075
  0
VERTEX
  8
EBENE_1
 62
    39
  6
CONTINUOUS
 10
1.597984
 20
1.012421
  0
SEQEND
  8
0
  0
POLYLINE
  8
EBENE_1
 62
    39
  6
CONTINUOUS
 66
     1
 40
0.003000
 41
0.003000
 70
     1
  0
VERTEX
  8
EBENE_1
 62
    39
  6
CONTINUOUS
 10
2.323083
 20
0.753598
  0
VERTEX
  8
EBENE_1
 62
    39
  6
CONTINUOUS
 10
2.325935
 20
0.752617
  0
VERTEX
  8
EBENE_1
 62
    39
  6
CONTINUOUS
 10
2.328002
 20
0.749945
  0
VERTEX
  8
EBENE_1
 62
    39
  6
CONTINUOUS
 10
2.328839
 20
0.746157
  0
VERTEX
  8
EBENE_1
 62
    39
  6
CONTINUOUS
 10
2.328136
 20
0.742344
  0
VERTEX
  8
EBENE_1
 62
    39
  6
CONTINUOUS
 10
2.326162
 20
0.739601
  0
VERTEX
  8
EBENE_1
 62
    39
  6
CONTINUOUS
 10
2.323346
 20
0.738520
  0
VERTEX
  8
EBENE_1
 62
    39
  6
CONTINUOUS
 10
2.320493
 20
0.739501
  0
VERTEX
  8
EBENE_1
 62
    39
  6
CONTINUOUS
 10
2.318425
 20
0.742173
  0
VERTEX
  8
EBENE_1
 62
    39
  6
CONTINUOUS
 10
2.317587
 20
0.745961
  0
VERTEX
  8
EBENE_1
 62
    39
  6
CONTINUOUS
 10
2.318291
 20
0.749775
  0
VERTEX
  8
EBENE_1
 62
    39
  6
CONTINUOUS
 10
2.320265
 20
0.752517
  0
SEQEND
  8
0
  0
POLYLINE
  8
EBENE_1
 62
    39
  6
CONTINUOUS
 66
     1
 40
0.003000
 41
0.003000
 70
     1
  0
VERTEX
  8
EBENE_1
 62
    39
  6
CONTINUOUS
 10
2.327929
 20
0.619268
  0
VERTEX
  8
EBENE_1
 62
    39
  6
CONTINUOUS
 10
2.330780
 20
0.618286
  0
VERTEX
  8
EBENE_1
 62
    39
  6
CONTINUOUS
 10
2.332847
 20
0.615614
  0
VERTEX
  8
EBENE_1
 62
    39
  6
CONTINUOUS
 10
2.333685
 20
0.611827
  0
VERTEX
  8
EBENE_1
 62
    39
  6
CONTINUOUS
 10
2.332980
 20
0.608013
  0
VERTEX
  8
EBENE_1
 62
    39
  6
CONTINUOUS
 10
2.331007
 20
0.605272
  0
VERTEX
  8
EBENE_1
 62
    39
  6
CONTINUOUS
 10
2.328189
 20
0.604193
  0
VERTEX
  8
EBENE_1
 62
    39
  6
CONTINUOUS
 10
2.325335
 20
0.605174
  0
VERTEX
  8
EBENE_1
 62
    39
  6
CONTINUOUS
 10
2.323268
 20
0.607845
  0
VERTEX
  8
EBENE_1
 62
    39
  6
CONTINUOUS
 10
2.322433
 20
0.611630
  0
VERTEX
  8
EBENE_1
 62
    39
  6
CONTINUOUS
 10
2.323136
 20
0.615446
  0
VERTEX
  8
EBENE_1
 62
    39
  6
CONTINUOUS
 10
2.325111
 20
0.618189
  0
SEQEND
  8
0
  0
POLYLINE
  8
EBENE_1
 62
    39
  6
CONTINUOUS
 66
     1
 40
0.003000
 41
0.003000
 70
     1
  0
VERTEX
  8
EBENE_1
 62
    39
  6
CONTINUOUS
 10
2.066386
 20
0.987988
  0
VERTEX
  8
EBENE_1
 62
    39
  6
CONTINUOUS
 10
2.069238
 20
0.987007
  0
VERTEX
  8
EBENE_1
 62
    39
  6
CONTINUOUS
 10
2.071306
 20
0.984335
  0
VERTEX
  8
EBENE_1
 62
    39
  6
CONTINUOUS
 10
2.072142
 20
0.980547
  0
VERTEX
  8
EBENE_1
 62
    39
  6
CONTINUOUS
 10
2.071437
 20
0.976733
  0
VERTEX
  8
EBENE_1
 62
    39
  6
CONTINUOUS
 10
2.069465
 20
0.973991
  0
VERTEX
  8
EBENE_1
 62
    39
  6
CONTINUOUS
 10
2.066650
 20
0.972909
  0
VERTEX
  8
EBENE_1
 62
    39
  6
CONTINUOUS
 10
2.063795
 20
0.973893
  0
VERTEX
  8
EBENE_1
 62
    39
  6
CONTINUOUS
 10
2.061726
 20
0.976564
  0
VERTEX
  8
EBENE_1
 62
    39
  6
CONTINUOUS
 10
2.060890
 20
0.980350
  0
VERTEX
  8
EBENE_1
 62
    39
  6
CONTINUOUS
 10
2.061595
 20
0.984164
  0
VERTEX
  8
EBENE_1
 62
    39
  6
CONTINUOUS
 10
2.063568
 20
0.986907
  0
SEQEND
  8
0
  0
POLYLINE
  8
EBENE_1
 62
    39
  6
CONTINUOUS
 66
     1
 40
0.003000
 41
0.003000
 70
     1
  0
VERTEX
  8
EBENE_1
 62
    39
  6
CONTINUOUS
 10
1.911406
 20
0.982839
  0
VERTEX
  8
EBENE_1
 62
    39
  6
CONTINUOUS
 10
1.914256
 20
0.981857
  0
VERTEX
  8
EBENE_1
 62
    39
  6
CONTINUOUS
 10
1.916324
 20
0.979185
  0
VERTEX
  8
EBENE_1
 62
    39
  6
CONTINUOUS
 10
1.917161
 20
0.975398
  0
VERTEX
  8
EBENE_1
 62
    39
  6
CONTINUOUS
 10
1.916457
 20
0.971584
  0
VERTEX
  8
EBENE_1
 62
    39
  6
CONTINUOUS
 10
1.914483
 20
0.968841
  0
VERTEX
  8
EBENE_1
 62
    39
  6
CONTINUOUS
 10
1.911665
 20
0.967760
  0
VERTEX
  8
EBENE_1
 62
    39
  6
CONTINUOUS
 10
1.908812
 20
0.968743
  0
VERTEX
  8
EBENE_1
 62
    39
  6
CONTINUOUS
 10
1.906745
 20
0.971414
  0
VERTEX
  8
EBENE_1
 62
    39
  6
CONTINUOUS
 10
1.905909
 20
0.975201
  0
VERTEX
  8
EBENE_1
 62
    39
  6
CONTINUOUS
 10
1.906612
 20
0.979015
  0
VERTEX
  8
EBENE_1
 62
    39
  6
CONTINUOUS
 10
1.908585
 20
0.981757
  0
SEQEND
  8
0
  0
POLYLINE
  8
EBENE_1
 62
    39
  6
CONTINUOUS
 66
     1
 40
0.010000
 41
0.010000
 70
     1
  0
VERTEX
  8
EBENE_1
 62
    39
  6
CONTINUOUS
 10
-1.987665
 20
1.153114
  0
VERTEX
  8
EBENE_1
 62
    39
  6
CONTINUOUS
 10
-1.980392
 20
1.104513
  0
VERTEX
  8
EBENE_1
 62
    39
  6
CONTINUOUS
 10
-1.964287
 20
1.049425
  0
VERTEX
  8
EBENE_1
 62
    39
  6
CONTINUOUS
 10
-1.938940
 20
0.990168
  0
VERTEX
  8
EBENE_1
 62
    39
  6
CONTINUOUS
 10
-1.903939
 20
0.929060
  0
VERTEX
  8
EBENE_1
 62
    39
  6
CONTINUOUS
 10
-1.858876
 20
0.868420
  0
VERTEX
  8
EBENE_1
 62
    39
  6
CONTINUOUS
 10
-1.803337
 20
0.810565
  0
VERTEX
  8
EBENE_1
 62
    39
  6
CONTINUOUS
 10
-1.736913
 20
0.757815
  0
VERTEX
  8
EBENE_1
 62
    39
  6
CONTINUOUS
 10
-1.736913
 20
0.757815
  0
VERTEX
  8
EBENE_1
 62
    39
  6
CONTINUOUS
 10
-1.183996
 20
0.770402
  0
VERTEX
  8
EBENE_1
 62
    39
  6
CONTINUOUS
 10
-1.197890
 20
1.566335
  0
VERTEX
  8
EBENE_1
 62
    39
  6
CONTINUOUS
 10
-1.993823
 20
1.552441
  0
SEQEND
  8
0
  0
POLYLINE
  8
EBENE_1
 62
    39
  6
CONTINUOUS
 66
     1
 40
0.003000
 41
0.003000
 70
     1
  0
VERTEX
  8
EBENE_1
 62
    39
  6
CONTINUOUS
 10
-1.978996
 20
1.157157
  0
VERTEX
  8
EBENE_1
 62
    39
  6
CONTINUOUS
 10
-1.971840
 20
1.109000
  0
VERTEX
  8
EBENE_1
 62
    39
  6
CONTINUOUS
 10
-1.956003
 20
1.054413
  0
VERTEX
  8
EBENE_1
 62
    39
  6
CONTINUOUS
 10
-1.931083
 20
0.995693
  0
VERTEX
  8
EBENE_1
 62
    39
  6
CONTINUOUS
 10
-1.896676
 20
0.935138
  0
VERTEX
  8
EBENE_1
 62
    39
  6
CONTINUOUS
 10
-1.852378
 20
0.875045
  0
VERTEX
  8
EBENE_1
 62
    39
  6
CONTINUOUS
 10
-1.797786
 20
0.817711
  0
VERTEX
  8
EBENE_1
 62
    39
  6
CONTINUOUS
 10
-1.732496
 20
0.765433
  0
VERTEX
  8
EBENE_1
 62
    39
  6
CONTINUOUS
 10
-1.732496
 20
0.765433
  0
VERTEX
  8
EBENE_1
 62
    39
  6
CONTINUOUS
 10
-1.189091
 20
0.777827
  0
VERTEX
  8
EBENE_1
 62
    39
  6
CONTINUOUS
 10
-1.202858
 20
1.566496
  0
VERTEX
  8
EBENE_1
 62
    39
  6
CONTINUOUS
 10
-1.985102
 20
1.552839
  0
SEQEND
  8
0
  0
POLYLINE
  8
EBENE_1
 62
    39
  6
CONTINUOUS
 66
     1
 40
0.003000
 41
0.003000
 70
     1
  0
VERTEX
  8
EBENE_1
 62
    39
  6
CONTINUOUS
 10
-1.260004
 20
1.294016
  0
VERTEX
  8
EBENE_1
 62
    39
  6
CONTINUOUS
 10
-1.257150
 20
1.293034
  0
VERTEX
  8
EBENE_1
 62
    39
  6
CONTINUOUS
 10
-1.255083
 20
1.290362
  0
VERTEX
  8
EBENE_1
 62
    39
  6
CONTINUOUS
 10
-1.254248
 20
1.286575
  0
VERTEX
  8
EBENE_1
 62
    39
  6
CONTINUOUS
 10
-1.254950
 20
1.282761
  0
VERTEX
  8
EBENE_1
 62
    39
  6
CONTINUOUS
 10
-1.256923
 20
1.280020
  0
VERTEX
  8
EBENE_1
 62
    39
  6
CONTINUOUS
 10
-1.259740
 20
1.278941
  0
VERTEX
  8
EBENE_1
 62
    39
  6
CONTINUOUS
 10
-1.262594
 20
1.279922
  0
VERTEX
  8
EBENE_1
 62
    39
  6
CONTINUOUS
 10
-1.264662
 20
1.282593
  0
VERTEX
  8
EBENE_1
 62
    39
  6
CONTINUOUS
 10
-1.265500
 20
1.286378
  0
VERTEX
  8
EBENE_1
 62
    39
  6
CONTINUOUS
 10
-1.264795
 20
1.290193
  0
VERTEX
  8
EBENE_1
 62
    39
  6
CONTINUOUS
 10
-1.262822
 20
1.292936
  0
SEQEND
  8
0
  0
POLYLINE
  8
EBENE_1
 62
    39
  6
CONTINUOUS
 66
     1
 40
0.003000
 41
0.003000
 70
     1
  0
VERTEX
  8
EBENE_1
 62
    39
  6
CONTINUOUS
 10
-1.255157
 20
1.159689
  0
VERTEX
  8
EBENE_1
 62
    39
  6
CONTINUOUS
 10
-1.252307
 20
1.158707
  0
VERTEX
  8
EBENE_1
 62
    39
  6
CONTINUOUS
 10
-1.250239
 20
1.156035
  0
VERTEX
  8
EBENE_1
 62
    39
  6
CONTINUOUS
 10
-1.249402
 20
1.152248
  0
VERTEX
  8
EBENE_1
 62
    39
  6
CONTINUOUS
 10
-1.250106
 20
1.148434
  0
VERTEX
  8
EBENE_1
 62
    39
  6
CONTINUOUS
 10
-1.252079
 20
1.145692
  0
VERTEX
  8
EBENE_1
 62
    39
  6
CONTINUOUS
 10
-1.254894
 20
1.144610
  0
VERTEX
  8
EBENE_1
 62
    39
  6
CONTINUOUS
 10
-1.257748
 20
1.145592
  0
VERTEX
  8
EBENE_1
 62
    39
  6
CONTINUOUS
 10
-1.259817
 20
1.148264
  0
VERTEX
  8
EBENE_1
 62
    39
  6
CONTINUOUS
 10
-1.260654
 20
1.152051
  0
VERTEX
  8
EBENE_1
 62
    39
  6
CONTINUOUS
 10
-1.259950
 20
1.155865
  0
VERTEX
  8
EBENE_1
 62
    39
  6
CONTINUOUS
 10
-1.257976
 20
1.158607
  0
SEQEND
  8
0
  0
POLYLINE
  8
EBENE_1
 62
    39
  6
CONTINUOUS
 66
     1
 40
0.003000
 41
0.003000
 70
     1
  0
VERTEX
  8
EBENE_1
 62
    39
  6
CONTINUOUS
 10
-1.516701
 20
1.528406
  0
VERTEX
  8
EBENE_1
 62
    39
  6
CONTINUOUS
 10
-1.513847
 20
1.527425
  0
VERTEX
  8
EBENE_1
 62
    39
  6
CONTINUOUS
 10
-1.511780
 20
1.524754
  0
VERTEX
  8
EBENE_1
 62
    39
  6
CONTINUOUS
 10
-1.510945
 20
1.520965
  0
VERTEX
  8
EBENE_1
 62
    39
  6
CONTINUOUS
 10
-1.511648
 20
1.517153
  0
VERTEX
  8
EBENE_1
 62
    39
  6
CONTINUOUS
 10
-1.513621
 20
1.514410
  0
VERTEX
  8
EBENE_1
 62
    39
  6
CONTINUOUS
 10
-1.516437
 20
1.513331
  0
VERTEX
  8
EBENE_1
 62
    39
  6
CONTINUOUS
 10
-1.519291
 20
1.514312
  0
VERTEX
  8
EBENE_1
 62
    39
  6
CONTINUOUS
 10
-1.521359
 20
1.516983
  0
VERTEX
  8
EBENE_1
 62
    39
  6
CONTINUOUS
 10
-1.522197
 20
1.520768
  0
VERTEX
  8
EBENE_1
 62
    39
  6
CONTINUOUS
 10
-1.521492
 20
1.524584
  0
VERTEX
  8
EBENE_1
 62
    39
  6
CONTINUOUS
 10
-1.519519
 20
1.527326
  0
SEQEND
  8
0
  0
POLYLINE
  8
EBENE_1
 62
    39
  6
CONTINUOUS
 66
     1
 40
0.003000
 41
0.003000
 70
     1
  0
VERTEX
  8
EBENE_1
 62
    39
  6
CONTINUOUS
 10
-1.671681
 20
1.523260
  0
VERTEX
  8
EBENE_1
 62
    39
  6
CONTINUOUS
 10
-1.668830
 20
1.522276
  0
VERTEX
  8
EBENE_1
 62
    39
  6
CONTINUOUS
 10
-1.666763
 20
1.519604
  0
VERTEX
  8
EBENE_1
 62
    39
  6
CONTINUOUS
 10
-1.665925
 20
1.515815
  0
VERTEX
  8
EBENE_1
 62
    39
  6
CONTINUOUS
 10
-1.666630
 20
1.512004
  0
VERTEX
  8
EBENE_1
 62
    39
  6
CONTINUOUS
 10
-1.668602
 20
1.509263
  0
VERTEX
  8
EBENE_1
 62
    39
  6
CONTINUOUS
 10
-1.671417
 20
1.508181
  0
VERTEX
  8
EBENE_1
 62
    39
  6
CONTINUOUS
 10
-1.674274
 20
1.509163
  0
VERTEX
  8
EBENE_1
 62
    39
  6
CONTINUOUS
 10
-1.676342
 20
1.511833
  0
VERTEX
  8
EBENE_1
 62
    39
  6
CONTINUOUS
 10
-1.677177
 20
1.515618
  0
VERTEX
  8
EBENE_1
 62
    39
  6
CONTINUOUS
 10
-1.676474
 20
1.519435
  0
VERTEX
  8
EBENE_1
 62
    39
  6
CONTINUOUS
 10
-1.674500
 20
1.522178
  0
SEQEND
  8
0
  0
POLYLINE
  8
EBENE_1
 62
    39
  6
CONTINUOUS
 66
     1
 40
0.010000
 41
0.010000
 70
     1
  0
VERTEX
  8
EBENE_1
 62
    39
  6
CONTINUOUS
 10
-1.436445
 20
1.153787
  0
VERTEX
  8
EBENE_1
 62
    39
  6
CONTINUOUS
 10
-1.429171
 20
1.105186
  0
VERTEX
  8
EBENE_1
 62
    39
  6
CONTINUOUS
 10
-1.413066
 20
1.050097
  0
VERTEX
  8
EBENE_1
 62
    39
  6
CONTINUOUS
 10
-1.387719
 20
0.990839
  0
VERTEX
  8
EBENE_1
 62
    39
  6
CONTINUOUS
 10
-1.352719
 20
0.929731
  0
VERTEX
  8
EBENE_1
 62
    39
  6
CONTINUOUS
 10
-1.307655
 20
0.869090
  0
VERTEX
  8
EBENE_1
 62
    39
  6
CONTINUOUS
 10
-1.252117
 20
0.811235
  0
VERTEX
  8
EBENE_1
 62
    39
  6
CONTINUOUS
 10
-1.185693
 20
0.758484
  0
VERTEX
  8
EBENE_1
 62
    39
  6
CONTINUOUS
 10
-1.185693
 20
0.758484
  0
VERTEX
  8
EBENE_1
 62
    39
  6
CONTINUOUS
 10
-0.632776
 20
0.771071
  0
VERTEX
  8
EBENE_1
 62
    39
  6
CONTINUOUS
 10
-0.646665
 20
1.567004
  0
VERTEX
  8
EBENE_1
 62
    39
  6
CONTINUOUS
 10
-1.442602
 20
1.553110
  0
SEQEND
  8
0
  0
POLYLINE
  8
EBENE_1
 62
    39
  6
CONTINUOUS
 66
     1
 40
0.003000
 41
0.003000
 70
     1
  0
VERTEX
  8
EBENE_1
 62
    39
  6
CONTINUOUS
 10
-1.427776
 20
1.157831
  0
VERTEX
  8
EBENE_1
 62
    39
  6
CONTINUOUS
 10
-1.420619
 20
1.109672
  0
VERTEX
  8
EBENE_1
 62
    39
  6
CONTINUOUS
 10
-1.404783
 20
1.055084
  0
VERTEX
  8
EBENE_1
 62
    39
  6
CONTINUOUS
 10
-1.379863
 20
0.996364
  0
VERTEX
  8
EBENE_1
 62
    39
  6
CONTINUOUS
 10
-1.345455
 20
0.935809
  0
VERTEX
  8
EBENE_1
 62
    39
  6
CONTINUOUS
 10
-1.301158
 20
0.875716
  0
VERTEX
  8
EBENE_1
 62
    39
  6
CONTINUOUS
 10
-1.246565
 20
0.818381
  0
VERTEX
  8
EBENE_1
 62
    39
  6
CONTINUOUS
 10
-1.181276
 20
0.766102
  0
VERTEX
  8
EBENE_1
 62
    39
  6
CONTINUOUS
 10
-1.181276
 20
0.766102
  0
VERTEX
  8
EBENE_1
 62
    39
  6
CONTINUOUS
 10
-0.637870
 20
0.778496
  0
VERTEX
  8
EBENE_1
 62
    39
  6
CONTINUOUS
 10
-0.651634
 20
1.567165
  0
VERTEX
  8
EBENE_1
 62
    39
  6
CONTINUOUS
 10
-1.433882
 20
1.553512
  0
SEQEND
  8
0
  0
POLYLINE
  8
EBENE_1
 62
    39
  6
CONTINUOUS
 66
     1
 40
0.003000
 41
0.003000
 70
     1
  0
VERTEX
  8
EBENE_1
 62
    39
  6
CONTINUOUS
 10
-0.708783
 20
1.294689
  0
VERTEX
  8
EBENE_1
 62
    39
  6
CONTINUOUS
 10
-0.705930
 20
1.293705
  0
VERTEX
  8
EBENE_1
 62
    39
  6
CONTINUOUS
 10
-0.703863
 20
1.291033
  0
VERTEX
  8
EBENE_1
 62
    39
  6
CONTINUOUS
 10
-0.703028
 20
1.287244
  0
VERTEX
  8
EBENE_1
 62
    39
  6
CONTINUOUS
 10
-0.703730
 20
1.283433
  0
VERTEX
  8
EBENE_1
 62
    39
  6
CONTINUOUS
 10
-0.705702
 20
1.280692
  0
VERTEX
  8
EBENE_1
 62
    39
  6
CONTINUOUS
 10
-0.708520
 20
1.279610
  0
VERTEX
  8
EBENE_1
 62
    39
  6
CONTINUOUS
 10
-0.711373
 20
1.280592
  0
VERTEX
  8
EBENE_1
 62
    39
  6
CONTINUOUS
 10
-0.713442
 20
1.283263
  0
VERTEX
  8
EBENE_1
 62
    39
  6
CONTINUOUS
 10
-0.714280
 20
1.287047
  0
VERTEX
  8
EBENE_1
 62
    39
  6
CONTINUOUS
 10
-0.713575
 20
1.290864
  0
VERTEX
  8
EBENE_1
 62
    39
  6
CONTINUOUS
 10
-0.711601
 20
1.293607
  0
SEQEND
  8
0
  0
POLYLINE
  8
EBENE_1
 62
    39
  6
CONTINUOUS
 66
     1
 40
0.003000
 41
0.003000
 70
     1
  0
VERTEX
  8
EBENE_1
 62
    39
  6
CONTINUOUS
 10
-0.703937
 20
1.160358
  0
VERTEX
  8
EBENE_1
 62
    39
  6
CONTINUOUS
 10
-0.701085
 20
1.159377
  0
VERTEX
  8
EBENE_1
 62
    39
  6
CONTINUOUS
 10
-0.699017
 20
1.156705
  0
VERTEX
  8
EBENE_1
 62
    39
  6
CONTINUOUS
 10
-0.698181
 20
1.152917
  0
VERTEX
  8
EBENE_1
 62
    39
  6
CONTINUOUS
 10
-0.698886
 20
1.149103
  0
VERTEX
  8
EBENE_1
 62
    39
  6
CONTINUOUS
 10
-0.700858
 20
1.146361
  0
VERTEX
  8
EBENE_1
 62
    39
  6
CONTINUOUS
 10
-0.703673
 20
1.145280
  0
VERTEX
  8
EBENE_1
 62
    39
  6
CONTINUOUS
 10
-0.706528
 20
1.146263
  0
VERTEX
  8
EBENE_1
 62
    39
  6
CONTINUOUS
 10
-0.708597
 20
1.148934
  0
VERTEX
  8
EBENE_1
 62
    39
  6
CONTINUOUS
 10
-0.709433
 20
1.152720
  0
VERTEX
  8
EBENE_1
 62
    39
  6
CONTINUOUS
 10
-0.708728
 20
1.156534
  0
VERTEX
  8
EBENE_1
 62
    39
  6
CONTINUOUS
 10
-0.706755
 20
1.159277
  0
SEQEND
  8
0
  0
POLYLINE
  8
EBENE_1
 62
    39
  6
CONTINUOUS
 66
     1
 40
0.003000
 41
0.003000
 70
     1
  0
VERTEX
  8
EBENE_1
 62
    39
  6
CONTINUOUS
 10
-0.965480
 20
1.529079
  0
VERTEX
  8
EBENE_1
 62
    39
  6
CONTINUOUS
 10
-0.962627
 20
1.528097
  0
VERTEX
  8
EBENE_1
 62
    39
  6
CONTINUOUS
 10
-0.960560
 20
1.525425
  0
VERTEX
  8
EBENE_1
 62
    39
  6
CONTINUOUS
 10
-0.959724
 20
1.521638
  0
VERTEX
  8
EBENE_1
 62
    39
  6
CONTINUOUS
 10
-0.960427
 20
1.517824
  0
VERTEX
  8
EBENE_1
 62
    39
  6
CONTINUOUS
 10
-0.962401
 20
1.515082
  0
VERTEX
  8
EBENE_1
 62
    39
  6
CONTINUOUS
 10
-0.965217
 20
1.514000
  0
VERTEX
  8
EBENE_1
 62
    39
  6
CONTINUOUS
 10
-0.968070
 20
1.514982
  0
VERTEX
  8
EBENE_1
 62
    39
  6
CONTINUOUS
 10
-0.970138
 20
1.517654
  0
VERTEX
  8
EBENE_1
 62
    39
  6
CONTINUOUS
 10
-0.970976
 20
1.521441
  0
VERTEX
  8
EBENE_1
 62
    39
  6
CONTINUOUS
 10
-0.970272
 20
1.525255
  0
VERTEX
  8
EBENE_1
 62
    39
  6
CONTINUOUS
 10
-0.968298
 20
1.527997
  0
SEQEND
  8
0
  0
POLYLINE
  8
EBENE_1
 62
    39
  6
CONTINUOUS
 66
     1
 40
0.003000
 41
0.003000
 70
     1
  0
VERTEX
  8
EBENE_1
 62
    39
  6
CONTINUOUS
 10
-1.120461
 20
1.523929
  0
VERTEX
  8
EBENE_1
 62
    39
  6
CONTINUOUS
 10
-1.117610
 20
1.522948
  0
VERTEX
  8
EBENE_1
 62
    39
  6
CONTINUOUS
 10
-1.115543
 20
1.520276
  0
VERTEX
  8
EBENE_1
 62
    39
  6
CONTINUOUS
 10
-1.114705
 20
1.516488
  0
VERTEX
  8
EBENE_1
 62
    39
  6
CONTINUOUS
 10
-1.115409
 20
1.512674
  0
VERTEX
  8
EBENE_1
 62
    39
  6
CONTINUOUS
 10
-1.117382
 20
1.509932
  0
VERTEX
  8
EBENE_1
 62
    39
  6
CONTINUOUS
 10
-1.120197
 20
1.508850
  0
VERTEX
  8
EBENE_1
 62
    39
  6
CONTINUOUS
 10
-1.123051
 20
1.509832
  0
VERTEX
  8
EBENE_1
 62
    39
  6
CONTINUOUS
 10
-1.125120
 20
1.512504
  0
VERTEX
  8
EBENE_1
 62
    39
  6
CONTINUOUS
 10
-1.125957
 20
1.516291
  0
VERTEX
  8
EBENE_1
 62
    39
  6
CONTINUOUS
 10
-1.125254
 20
1.520105
  0
VERTEX
  8
EBENE_1
 62
    39
  6
CONTINUOUS
 10
-1.123279
 20
1.522847
  0
SEQEND
  8
0
  0
POLYLINE
  8
EBENE_1
 62
    39
  6
CONTINUOUS
 66
     1
 40
0.010000
 41
0.010000
 70
     1
  0
VERTEX
  8
EBENE_1
 62
    39
  6
CONTINUOUS
 10
-0.885224
 20
1.154457
  0
VERTEX
  8
EBENE_1
 62
    39
  6
CONTINUOUS
 10
-0.877951
 20
1.105855
  0
VERTEX
  8
EBENE_1
 62
    39
  6
CONTINUOUS
 10
-0.861846
 20
1.050767
  0
VERTEX
  8
EBENE_1
 62
    39
  6
CONTINUOUS
 10
-0.836499
 20
0.991509
  0
VERTEX
  8
EBENE_1
 62
    39
  6
CONTINUOUS
 10
-0.801498
 20
0.930401
  0
VERTEX
  8
EBENE_1
 62
    39
  6
CONTINUOUS
 10
-0.756435
 20
0.869761
  0
VERTEX
  8
EBENE_1
 62
    39
  6
CONTINUOUS
 10
-0.700896
 20
0.811907
  0
VERTEX
  8
EBENE_1
 62
    39
  6
CONTINUOUS
 10
-0.634472
 20
0.759157
  0
VERTEX
  8
EBENE_1
 62
    39
  6
CONTINUOUS
 10
-0.081555
 20
0.771744
  0
VERTEX
  8
EBENE_1
 62
    39
  6
CONTINUOUS
 10
-0.095445
 20
1.567673
  0
VERTEX
  8
EBENE_1
 62
    39
  6
CONTINUOUS
 10
-0.891382
 20
1.553783
  0
SEQEND
  8
0
  0
POLYLINE
  8
EBENE_1
 62
    39
  6
CONTINUOUS
 66
     1
 40
0.003000
 41
0.003000
 70
     1
  0
VERTEX
  8
EBENE_1
 62
    39
  6
CONTINUOUS
 10
-0.876555
 20
1.158500
  0
VERTEX
  8
EBENE_1
 62
    39
  6
CONTINUOUS
 10
-0.869399
 20
1.110341
  0
VERTEX
  8
EBENE_1
 62
    39
  6
CONTINUOUS
 10
-0.853562
 20
1.055754
  0
VERTEX
  8
EBENE_1
 62
    39
  6
CONTINUOUS
 10
-0.828642
 20
0.997034
  0
VERTEX
  8
EBENE_1
 62
    39
  6
CONTINUOUS
 10
-0.794235
 20
0.936479
  0
VERTEX
  8
EBENE_1
 62
    39
  6
CONTINUOUS
 10
-0.749937
 20
0.876387
  0
VERTEX
  8
EBENE_1
 62
    39
  6
CONTINUOUS
 10
-0.695345
 20
0.819053
  0
VERTEX
  8
EBENE_1
 62
    39
  6
CONTINUOUS
 10
-0.630055
 20
0.766776
  0
VERTEX
  8
EBENE_1
 62
    39
  6
CONTINUOUS
 10
-0.086650
 20
0.779169
  0
VERTEX
  8
EBENE_1
 62
    39
  6
CONTINUOUS
 10
-0.100413
 20
1.567835
  0
VERTEX
  8
EBENE_1
 62
    39
  6
CONTINUOUS
 10
-0.882661
 20
1.554181
  0
SEQEND
  8
0
  0
POLYLINE
  8
EBENE_1
 62
    39
  6
CONTINUOUS
 66
     1
 40
0.003000
 41
0.003000
 70
     1
  0
VERTEX
  8
EBENE_1
 62
    39
  6
CONTINUOUS
 10
-0.157563
 20
1.295358
  0
VERTEX
  8
EBENE_1
 62
    39
  6
CONTINUOUS
 10
-0.154709
 20
1.294377
  0
VERTEX
  8
EBENE_1
 62
    39
  6
CONTINUOUS
 10
-0.152642
 20
1.291705
  0
VERTEX
  8
EBENE_1
 62
    39
  6
CONTINUOUS
 10
-0.151807
 20
1.287917
  0
VERTEX
  8
EBENE_1
 62
    39
  6
CONTINUOUS
 10
-0.152509
 20
1.284103
  0
VERTEX
  8
EBENE_1
 62
    39
  6
CONTINUOUS
 10
-0.154482
 20
1.281361
  0
VERTEX
  8
EBENE_1
 62
    39
  6
CONTINUOUS
 10
-0.157299
 20
1.280280
  0
VERTEX
  8
EBENE_1
 62
    39
  6
CONTINUOUS
 10
-0.160153
 20
1.281261
  0
VERTEX
  8
EBENE_1
 62
    39
  6
CONTINUOUS
 10
-0.162221
 20
1.283933
  0
VERTEX
  8
EBENE_1
 62
    39
  6
CONTINUOUS
 10
-0.163059
 20
1.287720
  0
VERTEX
  8
EBENE_1
 62
    39
  6
CONTINUOUS
 10
-0.162354
 20
1.291534
  0
VERTEX
  8
EBENE_1
 62
    39
  6
CONTINUOUS
 10
-0.160381
 20
1.294277
  0
SEQEND
  8
0
  0
POLYLINE
  8
EBENE_1
 62
    39
  6
CONTINUOUS
 66
     1
 40
0.003000
 41
0.003000
 70
     1
  0
VERTEX
  8
EBENE_1
 62
    39
  6
CONTINUOUS
 10
-0.152717
 20
1.161028
  0
VERTEX
  8
EBENE_1
 62
    39
  6
CONTINUOUS
 10
-0.149865
 20
1.160047
  0
VERTEX
  8
EBENE_1
 62
    39
  6
CONTINUOUS
 10
-0.147797
 20
1.157376
  0
VERTEX
  8
EBENE_1
 62
    39
  6
CONTINUOUS
 10
-0.146961
 20
1.153587
  0
VERTEX
  8
EBENE_1
 62
    39
  6
CONTINUOUS
 10
-0.147665
 20
1.149775
  0
VERTEX
  8
EBENE_1
 62
    39
  6
CONTINUOUS
 10
-0.149638
 20
1.147034
  0
VERTEX
  8
EBENE_1
 62
    39
  6
CONTINUOUS
 10
-0.152453
 20
1.145953
  0
VERTEX
  8
EBENE_1
 62
    39
  6
CONTINUOUS
 10
-0.155307
 20
1.146934
  0
VERTEX
  8
EBENE_1
 62
    39
  6
CONTINUOUS
 10
-0.157376
 20
1.149605
  0
VERTEX
  8
EBENE_1
 62
    39
  6
CONTINUOUS
 10
-0.158213
 20
1.153390
  0
VERTEX
  8
EBENE_1
 62
    39
  6
CONTINUOUS
 10
-0.157508
 20
1.157206
  0
VERTEX
  8
EBENE_1
 62
    39
  6
CONTINUOUS
 10
-0.155534
 20
1.159949
  0
SEQEND
  8
0
  0
POLYLINE
  8
EBENE_1
 62
    39
  6
CONTINUOUS
 66
     1
 40
0.003000
 41
0.003000
 70
     1
  0
VERTEX
  8
EBENE_1
 62
    39
  6
CONTINUOUS
 10
-0.414260
 20
1.529748
  0
VERTEX
  8
EBENE_1
 62
    39
  6
CONTINUOUS
 10
-0.411406
 20
1.528766
  0
VERTEX
  8
EBENE_1
 62
    39
  6
CONTINUOUS
 10
-0.409339
 20
1.526094
  0
VERTEX
  8
EBENE_1
 62
    39
  6
CONTINUOUS
 10
-0.408504
 20
1.522307
  0
VERTEX
  8
EBENE_1
 62
    39
  6
CONTINUOUS
 10
-0.409207
 20
1.518493
  0
VERTEX
  8
EBENE_1
 62
    39
  6
CONTINUOUS
 10
-0.411180
 20
1.515751
  0
VERTEX
  8
EBENE_1
 62
    39
  6
CONTINUOUS
 10
-0.413996
 20
1.514669
  0
VERTEX
  8
EBENE_1
 62
    39
  6
CONTINUOUS
 10
-0.416850
 20
1.515653
  0
VERTEX
  8
EBENE_1
 62
    39
  6
CONTINUOUS
 10
-0.418918
 20
1.518324
  0
VERTEX
  8
EBENE_1
 62
    39
  6
CONTINUOUS
 10
-0.419756
 20
1.522110
  0
VERTEX
  8
EBENE_1
 62
    39
  6
CONTINUOUS
 10
-0.419051
 20
1.525924
  0
VERTEX
  8
EBENE_1
 62
    39
  6
CONTINUOUS
 10
-0.417078
 20
1.528666
  0
SEQEND
  8
0
  0
POLYLINE
  8
EBENE_1
 62
    39
  6
CONTINUOUS
 66
     1
 40
0.003000
 41
0.003000
 70
     1
  0
VERTEX
  8
EBENE_1
 62
    39
  6
CONTINUOUS
 10
-0.569240
 20
1.524598
  0
VERTEX
  8
EBENE_1
 62
    39
  6
CONTINUOUS
 10
-0.566388
 20
1.523617
  0
VERTEX
  8
EBENE_1
 62
    39
  6
CONTINUOUS
 10
-0.564320
 20
1.520945
  0
VERTEX
  8
EBENE_1
 62
    39
  6
CONTINUOUS
 10
-0.563484
 20
1.517157
  0
VERTEX
  8
EBENE_1
 62
    39
  6
CONTINUOUS
 10
-0.564189
 20
1.513344
  0
VERTEX
  8
EBENE_1
 62
    39
  6
CONTINUOUS
 10
-0.566161
 20
1.510601
  0
VERTEX
  8
EBENE_1
 62
    39
  6
CONTINUOUS
 10
-0.568976
 20
1.509520
  0
VERTEX
  8
EBENE_1
 62
    39
  6
CONTINUOUS
 10
-0.571831
 20
1.510503
  0
VERTEX
  8
EBENE_1
 62
    39
  6
CONTINUOUS
 10
-0.573900
 20
1.513174
  0
VERTEX
  8
EBENE_1
 62
    39
  6
CONTINUOUS
 10
-0.574736
 20
1.516961
  0
VERTEX
  8
EBENE_1
 62
    39
  6
CONTINUOUS
 10
-0.574031
 20
1.520775
  0
VERTEX
  8
EBENE_1
 62
    39
  6
CONTINUOUS
 10
-0.572058
 20
1.523517
  0
SEQEND
  8
0
  0
POLYLINE
  8
EBENE_1
 62
    39
  6
CONTINUOUS
 66
     1
 40
0.010000
 41
0.010000
 70
     1
  0
VERTEX
  8
EBENE_1
 62
    39
  6
CONTINUOUS
 10
-0.334004
 20
1.155126
  0
VERTEX
  8
EBENE_1
 62
    39
  6
CONTINUOUS
 10
-0.326730
 20
1.106525
  0
VERTEX
  8
EBENE_1
 62
    39
  6
CONTINUOUS
 10
-0.310625
 20
1.051437
  0
VERTEX
  8
EBENE_1
 62
    39
  6
CONTINUOUS
 10
-0.285278
 20
0.992180
  0
VERTEX
  8
EBENE_1
 62
    39
  6
CONTINUOUS
 10
-0.250277
 20
0.931072
  0
VERTEX
  8
EBENE_1
 62
    39
  6
CONTINUOUS
 10
-0.205213
 20
0.870432
  0
VERTEX
  8
EBENE_1
 62
    39
  6
CONTINUOUS
 10
-0.149673
 20
0.812577
  0
VERTEX
  8
EBENE_1
 62
    39
  6
CONTINUOUS
 10
-0.083248
 20
0.759827
  0
VERTEX
  8
EBENE_1
 62
    39
  6
CONTINUOUS
 10
0.469665
 20
0.772413
  0
VERTEX
  8
EBENE_1
 62
    39
  6
CONTINUOUS
 10
0.455776
 20
1.568346
  0
VERTEX
  8
EBENE_1
 62
    39
  6
CONTINUOUS
 10
-0.340161
 20
1.554453
  0
SEQEND
  8
0
  0
POLYLINE
  8
EBENE_1
 62
    39
  6
CONTINUOUS
 66
     1
 40
0.003000
 41
0.003000
 70
     1
  0
VERTEX
  8
EBENE_1
 62
    39
  6
CONTINUOUS
 10
-0.325331
 20
1.159169
  0
VERTEX
  8
EBENE_1
 62
    39
  6
CONTINUOUS
 10
-0.318176
 20
1.111012
  0
VERTEX
  8
EBENE_1
 62
    39
  6
CONTINUOUS
 10
-0.302340
 20
1.056425
  0
VERTEX
  8
EBENE_1
 62
    39
  6
CONTINUOUS
 10
-0.277421
 20
0.997705
  0
VERTEX
  8
EBENE_1
 62
    39
  6
CONTINUOUS
 10
-0.243014
 20
0.937150
  0
VERTEX
  8
EBENE_1
 62
    39
  6
CONTINUOUS
 10
-0.198717
 20
0.877057
  0
VERTEX
  8
EBENE_1
 62
    39
  6
CONTINUOUS
 10
-0.144125
 20
0.819723
  0
VERTEX
  8
EBENE_1
 62
    39
  6
CONTINUOUS
 10
-0.078835
 20
0.767445
  0
VERTEX
  8
EBENE_1
 62
    39
  6
CONTINUOUS
 10
0.464571
 20
0.779839
  0
VERTEX
  8
EBENE_1
 62
    39
  6
CONTINUOUS
 10
0.450807
 20
1.568504
  0
VERTEX
  8
EBENE_1
 62
    39
  6
CONTINUOUS
 10
-0.331441
 20
1.554850
  0
SEQEND
  8
0
  0
POLYLINE
  8
EBENE_1
 62
    39
  6
CONTINUOUS
 66
     1
 40
0.003000
 41
0.003000
 70
     1
  0
VERTEX
  8
EBENE_1
 62
    39
  6
CONTINUOUS
 10
0.393657
 20
1.296028
  0
VERTEX
  8
EBENE_1
 62
    39
  6
CONTINUOUS
 10
0.396511
 20
1.295046
  0
VERTEX
  8
EBENE_1
 62
    39
  6
CONTINUOUS
 10
0.398578
 20
1.292374
  0
VERTEX
  8
EBENE_1
 62
    39
  6
CONTINUOUS
 10
0.399413
 20
1.288587
  0
VERTEX
  8
EBENE_1
 62
    39
  6
CONTINUOUS
 10
0.398711
 20
1.284773
  0
VERTEX
  8
EBENE_1
 62
    39
  6
CONTINUOUS
 10
0.396739
 20
1.282030
  0
VERTEX
  8
EBENE_1
 62
    39
  6
CONTINUOUS
 10
0.393921
 20
1.280949
  0
VERTEX
  8
EBENE_1
 62
    39
  6
CONTINUOUS
 10
0.391068
 20
1.281932
  0
VERTEX
  8
EBENE_1
 62
    39
  6
CONTINUOUS
 10
0.389001
 20
1.284603
  0
VERTEX
  8
EBENE_1
 62
    39
  6
CONTINUOUS
 10
0.388165
 20
1.288390
  0
VERTEX
  8
EBENE_1
 62
    39
  6
CONTINUOUS
 10
0.388867
 20
1.292204
  0
VERTEX
  8
EBENE_1
 62
    39
  6
CONTINUOUS
 10
0.390840
 20
1.294946
  0
SEQEND
  8
0
  0
POLYLINE
  8
EBENE_1
 62
    39
  6
CONTINUOUS
 66
     1
 40
0.003000
 41
0.003000
 70
     1
  0
VERTEX
  8
EBENE_1
 62
    39
  6
CONTINUOUS
 10
0.398504
 20
1.161701
  0
VERTEX
  8
EBENE_1
 62
    39
  6
CONTINUOUS
 10
0.401356
 20
1.160719
  0
VERTEX
  8
EBENE_1
 62
    39
  6
CONTINUOUS
 10
0.403424
 20
1.158047
  0
VERTEX
  8
EBENE_1
 62
    39
  6
CONTINUOUS
 10
0.404260
 20
1.154260
  0
VERTEX
  8
EBENE_1
 62
    39
  6
CONTINUOUS
 10
0.403555
 20
1.150446
  0
VERTEX
  8
EBENE_1
 62
    39
  6
CONTINUOUS
 10
0.401583
 20
1.147704
  0
VERTEX
  8
EBENE_1
 62
    39
  6
CONTINUOUS
 10
0.398768
 20
1.146622
  0
VERTEX
  8
EBENE_1
 62
    39
  6
CONTINUOUS
 10
0.395913
 20
1.147604
  0
VERTEX
  8
EBENE_1
 62
    39
  6
CONTINUOUS
 10
0.393844
 20
1.150276
  0
VERTEX
  8
EBENE_1
 62
    39
  6
CONTINUOUS
 10
0.393008
 20
1.154063
  0
VERTEX
  8
EBENE_1
 62
    39
  6
CONTINUOUS
 10
0.393713
 20
1.157877
  0
VERTEX
  8
EBENE_1
 62
    39
  6
CONTINUOUS
 10
0.395686
 20
1.160619
  0
SEQEND
  8
0
  0
POLYLINE
  8
EBENE_1
 62
    39
  6
CONTINUOUS
 66
     1
 40
0.003000
 41
0.003000
 70
     1
  0
VERTEX
  8
EBENE_1
 62
    39
  6
CONTINUOUS
 10
0.136961
 20
1.530417
  0
VERTEX
  8
EBENE_1
 62
    39
  6
CONTINUOUS
 10
0.139814
 20
1.529436
  0
VERTEX
  8
EBENE_1
 62
    39
  6
CONTINUOUS
 10
0.141881
 20
1.526764
  0
VERTEX
  8
EBENE_1
 62
    39
  6
CONTINUOUS
 10
0.142717
 20
1.522976
  0
VERTEX
  8
EBENE_1
 62
    39
  6
CONTINUOUS
 10
0.142014
 20
1.519163
  0
VERTEX
  8
EBENE_1
 62
    39
  6
CONTINUOUS
 10
0.140042
 20
1.516421
  0
VERTEX
  8
EBENE_1
 62
    39
  6
CONTINUOUS
 10
0.137224
 20
1.515343
  0
VERTEX
  8
EBENE_1
 62
    39
  6
CONTINUOUS
 10
0.134371
 20
1.516324
  0
VERTEX
  8
EBENE_1
 62
    39
  6
CONTINUOUS
 10
0.132303
 20
1.518995
  0
VERTEX
  8
EBENE_1
 62
    39
  6
CONTINUOUS
 10
0.131465
 20
1.522780
  0
VERTEX
  8
EBENE_1
 62
    39
  6
CONTINUOUS
 10
0.132169
 20
1.526596
  0
VERTEX
  8
EBENE_1
 62
    39
  6
CONTINUOUS
 10
0.134143
 20
1.529338
  0
SEQEND
  8
0
  0
POLYLINE
  8
EBENE_1
 62
    39
  6
CONTINUOUS
 66
     1
 40
0.003000
 41
0.003000
 70
     1
  0
VERTEX
  8
EBENE_1
 62
    39
  6
CONTINUOUS
 10
-0.018020
 20
1.525268
  0
VERTEX
  8
EBENE_1
 62
    39
  6
CONTINUOUS
 10
-0.015168
 20
1.524286
  0
VERTEX
  8
EBENE_1
 62
    39
  6
CONTINUOUS
 10
-0.013100
 20
1.521614
  0
VERTEX
  8
EBENE_1
 62
    39
  6
CONTINUOUS
 10
-0.012264
 20
1.517827
  0
VERTEX
  8
EBENE_1
 62
    39
  6
CONTINUOUS
 10
-0.012969
 20
1.514015
  0
VERTEX
  8
EBENE_1
 62
    39
  6
CONTINUOUS
 10
-0.014941
 20
1.511273
  0
VERTEX
  8
EBENE_1
 62
    39
  6
CONTINUOUS
 10
-0.017756
 20
1.510193
  0
VERTEX
  8
EBENE_1
 62
    39
  6
CONTINUOUS
 10
-0.020611
 20
1.511174
  0
VERTEX
  8
EBENE_1
 62
    39
  6
CONTINUOUS
 10
-0.022679
 20
1.513845
  0
VERTEX
  8
EBENE_1
 62
    39
  6
CONTINUOUS
 10
-0.023516
 20
1.517630
  0
VERTEX
  8
EBENE_1
 62
    39
  6
CONTINUOUS
 10
-0.022811
 20
1.521446
  0
VERTEX
  8
EBENE_1
 62
    39
  6
CONTINUOUS
 10
-0.020837
 20
1.524189
  0
SEQEND
  8
0
  0
POLYLINE
  8
EBENE_1
 62
    39
  6
CONTINUOUS
 66
     1
 40
0.010000
 41
0.010000
 70
     1
  0
VERTEX
  8
EBENE_1
 62
    39
  6
CONTINUOUS
 10
0.217217
 20
1.155799
  0
VERTEX
  8
EBENE_1
 62
    39
  6
CONTINUOUS
 10
0.224490
 20
1.107198
  0
VERTEX
  8
EBENE_1
 62
    39
  6
CONTINUOUS
 10
0.240595
 20
1.052109
  0
VERTEX
  8
EBENE_1
 62
    39
  6
CONTINUOUS
 10
0.265943
 20
0.992851
  0
VERTEX
  8
EBENE_1
 62
    39
  6
CONTINUOUS
 10
0.300943
 20
0.931743
  0
VERTEX
  8
EBENE_1
 62
    39
  6
CONTINUOUS
 10
0.346008
 20
0.871102
  0
VERTEX
  8
EBENE_1
 62
    39
  6
CONTINUOUS
 10
0.401547
 20
0.813247
  0
VERTEX
  8
EBENE_1
 62
    39
  6
CONTINUOUS
 10
0.467972
 20
0.760496
  0
VERTEX
  8
EBENE_1
 62
    39
  6
CONTINUOUS
 10
1.020890
 20
0.773083
  0
VERTEX
  8
EBENE_1
 62
    39
  6
CONTINUOUS
 10
1.006996
 20
1.569016
  0
VERTEX
  8
EBENE_1
 62
    39
  6
CONTINUOUS
 10
0.211059
 20
1.555122
  0
SEQEND
  8
0
  0
POLYLINE
  8
EBENE_1
 62
    39
  6
CONTINUOUS
 66
     1
 40
0.003000
 41
0.003000
 70
     1
  0
VERTEX
  8
EBENE_1
 62
    39
  6
CONTINUOUS
 10
0.225890
 20
1.159843
  0
VERTEX
  8
EBENE_1
 62
    39
  6
CONTINUOUS
 10
0.233045
 20
1.111684
  0
VERTEX
  8
EBENE_1
 62
    39
  6
CONTINUOUS
 10
0.248880
 20
1.057096
  0
VERTEX
  8
EBENE_1
 62
    39
  6
CONTINUOUS
 10
0.273800
 20
0.998375
  0
VERTEX
  8
EBENE_1
 62
    39
  6
CONTINUOUS
 10
0.308206
 20
0.937819
  0
VERTEX
  8
EBENE_1
 62
    39
  6
CONTINUOUS
 10
0.352504
 20
0.877726
  0
VERTEX
  8
EBENE_1
 62
    39
  6
CONTINUOUS
 10
0.407096
 20
0.820392
  0
VERTEX
  8
EBENE_1
 62
    39
  6
CONTINUOUS
 10
0.472386
 20
0.768114
  0
VERTEX
  8
EBENE_1
 62
    39
  6
CONTINUOUS
 10
1.015791
 20
0.780508
  0
VERTEX
  8
EBENE_1
 62
    39
  6
CONTINUOUS
 10
1.002028
 20
1.569177
  0
VERTEX
  8
EBENE_1
 62
    39
  6
CONTINUOUS
 10
0.219780
 20
1.555524
  0
SEQEND
  8
0
  0
POLYLINE
  8
EBENE_1
 62
    39
  6
CONTINUOUS
 66
     1
 40
0.003000
 41
0.003000
 70
     1
  0
VERTEX
  8
EBENE_1
 62
    39
  6
CONTINUOUS
 10
0.944878
 20
1.296701
  0
VERTEX
  8
EBENE_1
 62
    39
  6
CONTINUOUS
 10
0.947732
 20
1.295717
  0
VERTEX
  8
EBENE_1
 62
    39
  6
CONTINUOUS
 10
0.949800
 20
1.293045
  0
VERTEX
  8
EBENE_1
 62
    39
  6
CONTINUOUS
 10
0.950638
 20
1.289256
  0
VERTEX
  8
EBENE_1
 62
    39
  6
CONTINUOUS
 10
0.949933
 20
1.285445
  0
VERTEX
  8
EBENE_1
 62
    39
  6
CONTINUOUS
 10
0.947959
 20
1.282704
  0
VERTEX
  8
EBENE_1
 62
    39
  6
CONTINUOUS
 10
0.945142
 20
1.281622
  0
VERTEX
  8
EBENE_1
 62
    39
  6
CONTINUOUS
 10
0.942288
 20
1.282604
  0
VERTEX
  8
EBENE_1
 62
    39
  6
CONTINUOUS
 10
0.940221
 20
1.285274
  0
VERTEX
  8
EBENE_1
 62
    39
  6
CONTINUOUS
 10
0.939386
 20
1.289059
  0
VERTEX
  8
EBENE_1
 62
    39
  6
CONTINUOUS
 10
0.940088
 20
1.292876
  0
VERTEX
  8
EBENE_1
 62
    39
  6
CONTINUOUS
 10
0.942060
 20
1.295619
  0
SEQEND
  8
0
  0
POLYLINE
  8
EBENE_1
 62
    39
  6
CONTINUOUS
 66
     1
 40
0.003000
 41
0.003000
 70
     1
  0
VERTEX
  8
EBENE_1
 62
    39
  6
CONTINUOUS
 10
0.949724
 20
1.162370
  0
VERTEX
  8
EBENE_1
 62
    39
  6
CONTINUOUS
 10
0.952576
 20
1.161388
  0
VERTEX
  8
EBENE_1
 62
    39
  6
CONTINUOUS
 10
0.954644
 20
1.158717
  0
VERTEX
  8
EBENE_1
 62
    39
  6
CONTINUOUS
 10
0.955480
 20
1.154929
  0
VERTEX
  8
EBENE_1
 62
    39
  6
CONTINUOUS
 10
0.954777
 20
1.151115
  0
VERTEX
  8
EBENE_1
 62
    39
  6
CONTINUOUS
 10
0.952804
 20
1.148373
  0
VERTEX
  8
EBENE_1
 62
    39
  6
CONTINUOUS
 10
0.949988
 20
1.147291
  0
VERTEX
  8
EBENE_1
 62
    39
  6
CONTINUOUS
 10
0.947134
 20
1.148275
  0
VERTEX
  8
EBENE_1
 62
    39
  6
CONTINUOUS
 10
0.945066
 20
1.150946
  0
VERTEX
  8
EBENE_1
 62
    39
  6
CONTINUOUS
 10
0.944228
 20
1.154732
  0
VERTEX
  8
EBENE_1
 62
    39
  6
CONTINUOUS
 10
0.944933
 20
1.158546
  0
VERTEX
  8
EBENE_1
 62
    39
  6
CONTINUOUS
 10
0.946907
 20
1.161288
  0
SEQEND
  8
0
  0
POLYLINE
  8
EBENE_1
 62
    39
  6
CONTINUOUS
 66
     1
 40
0.003000
 41
0.003000
 70
     1
  0
VERTEX
  8
EBENE_1
 62
    39
  6
CONTINUOUS
 10
0.688181
 20
1.531091
  0
VERTEX
  8
EBENE_1
 62
    39
  6
CONTINUOUS
 10
0.691035
 20
1.530107
  0
VERTEX
  8
EBENE_1
 62
    39
  6
CONTINUOUS
 10
0.693102
 20
1.527435
  0
VERTEX
  8
EBENE_1
 62
    39
  6
CONTINUOUS
 10
0.693937
 20
1.523646
  0
VERTEX
  8
EBENE_1
 62
    39
  6
CONTINUOUS
 10
0.693235
 20
1.519834
  0
VERTEX
  8
EBENE_1
 62
    39
  6
CONTINUOUS
 10
0.691262
 20
1.517093
  0
VERTEX
  8
EBENE_1
 62
    39
  6
CONTINUOUS
 10
0.688445
 20
1.516012
  0
VERTEX
  8
EBENE_1
 62
    39
  6
CONTINUOUS
 10
0.685591
 20
1.516993
  0
VERTEX
  8
EBENE_1
 62
    39
  6
CONTINUOUS
 10
0.683523
 20
1.519665
  0
VERTEX
  8
EBENE_1
 62
    39
  6
CONTINUOUS
 10
0.682685
 20
1.523453
  0
VERTEX
  8
EBENE_1
 62
    39
  6
CONTINUOUS
 10
0.683390
 20
1.527267
  0
VERTEX
  8
EBENE_1
 62
    39
  6
CONTINUOUS
 10
0.685363
 20
1.530009
  0
SEQEND
  8
0
  0
POLYLINE
  8
EBENE_1
 62
    39
  6
CONTINUOUS
 66
     1
 40
0.003000
 41
0.003000
 70
     1
  0
VERTEX
  8
EBENE_1
 62
    39
  6
CONTINUOUS
 10
0.533201
 20
1.525941
  0
VERTEX
  8
EBENE_1
 62
    39
  6
CONTINUOUS
 10
0.536053
 20
1.524957
  0
VERTEX
  8
EBENE_1
 62
    39
  6
CONTINUOUS
 10
0.538121
 20
1.522285
  0
VERTEX
  8
EBENE_1
 62
    39
  6
CONTINUOUS
 10
0.538957
 20
1.518496
  0
VERTEX
  8
EBENE_1
 62
    39
  6
CONTINUOUS
 10
0.538252
 20
1.514685
  0
VERTEX
  8
EBENE_1
 62
    39
  6
CONTINUOUS
 10
0.536280
 20
1.511944
  0
VERTEX
  8
EBENE_1
 62
    39
  6
CONTINUOUS
 10
0.533465
 20
1.510862
  0
VERTEX
  8
EBENE_1
 62
    39
  6
CONTINUOUS
 10
0.530610
 20
1.511844
  0
VERTEX
  8
EBENE_1
 62
    39
  6
CONTINUOUS
 10
0.528541
 20
1.514516
  0
VERTEX
  8
EBENE_1
 62
    39
  6
CONTINUOUS
 10
0.527705
 20
1.518303
  0
VERTEX
  8
EBENE_1
 62
    39
  6
CONTINUOUS
 10
0.528410
 20
1.522117
  0
VERTEX
  8
EBENE_1
 62
    39
  6
CONTINUOUS
 10
0.530383
 20
1.524859
  0
SEQEND
  8
0
  0
POLYLINE
  8
EBENE_1
 62
    39
  6
CONTINUOUS
 66
     1
 40
0.010000
 41
0.010000
 70
     1
  0
VERTEX
  8
EBENE_1
 62
    39
  6
CONTINUOUS
 10
0.768437
 20
1.156469
  0
VERTEX
  8
EBENE_1
 62
    39
  6
CONTINUOUS
 10
0.775711
 20
1.107867
  0
VERTEX
  8
EBENE_1
 62
    39
  6
CONTINUOUS
 10
0.791816
 20
1.052778
  0
VERTEX
  8
EBENE_1
 62
    39
  6
CONTINUOUS
 10
0.817163
 20
0.993521
  0
VERTEX
  8
EBENE_1
 62
    39
  6
CONTINUOUS
 10
0.852164
 20
0.932413
  0
VERTEX
  8
EBENE_1
 62
    39
  6
CONTINUOUS
 10
0.897228
 20
0.871772
  0
VERTEX
  8
EBENE_1
 62
    39
  6
CONTINUOUS
 10
0.952768
 20
0.813919
  0
VERTEX
  8
EBENE_1
 62
    39
  6
CONTINUOUS
 10
1.019193
 20
0.761169
  0
VERTEX
  8
EBENE_1
 62
    39
  6
CONTINUOUS
 10
1.572110
 20
0.773752
  0
VERTEX
  8
EBENE_1
 62
    39
  6
CONTINUOUS
 10
1.558217
 20
1.569685
  0
VERTEX
  8
EBENE_1
 62
    39
  6
CONTINUOUS
 10
0.762280
 20
1.555795
  0
SEQEND
  8
0
  0
POLYLINE
  8
EBENE_1
 62
    39
  6
CONTINUOUS
 66
     1
 40
0.003000
 41
0.003000
 70
     1
  0
VERTEX
  8
EBENE_1
 62
    39
  6
CONTINUOUS
 10
0.777110
 20
1.160512
  0
VERTEX
  8
EBENE_1
 62
    39
  6
CONTINUOUS
 10
0.784265
 20
1.112353
  0
VERTEX
  8
EBENE_1
 62
    39
  6
CONTINUOUS
 10
0.800101
 20
1.057766
  0
VERTEX
  8
EBENE_1
 62
    39
  6
CONTINUOUS
 10
0.825020
 20
0.999046
  0
VERTEX
  8
EBENE_1
 62
    39
  6
CONTINUOUS
 10
0.859427
 20
0.938490
  0
VERTEX
  8
EBENE_1
 62
    39
  6
CONTINUOUS
 10
0.903724
 20
0.878397
  0
VERTEX
  8
EBENE_1
 62
    39
  6
CONTINUOUS
 10
0.958316
 20
0.821062
  0
VERTEX
  8
EBENE_1
 62
    39
  6
CONTINUOUS
 10
1.023606
 20
0.768783
  0
VERTEX
  8
EBENE_1
 62
    39
  6
CONTINUOUS
 10
1.567012
 20
0.781177
  0
VERTEX
  8
EBENE_1
 62
    39
  6
CONTINUOUS
 10
1.553248
 20
1.569846
  0
VERTEX
  8
EBENE_1
 62
    39
  6
CONTINUOUS
 10
0.771000
 20
1.556193
  0
SEQEND
  8
0
  0
POLYLINE
  8
EBENE_1
 62
    39
  6
CONTINUOUS
 66
     1
 40
0.003000
 41
0.003000
 70
     1
  0
VERTEX
  8
EBENE_1
 62
    39
  6
CONTINUOUS
 10
1.496102
 20
1.297370
  0
VERTEX
  8
EBENE_1
 62
    39
  6
CONTINUOUS
 10
1.498953
 20
1.296388
  0
VERTEX
  8
EBENE_1
 62
    39
  6
CONTINUOUS
 10
1.501020
 20
1.293717
  0
VERTEX
  8
EBENE_1
 62
    39
  6
CONTINUOUS
 10
1.501858
 20
1.289929
  0
VERTEX
  8
EBENE_1
 62
    39
  6
CONTINUOUS
 10
1.501153
 20
1.286115
  0
VERTEX
  8
EBENE_1
 62
    39
  6
CONTINUOUS
 10
1.499180
 20
1.283373
  0
VERTEX
  8
EBENE_1
 62
    39
  6
CONTINUOUS
 10
1.496362
 20
1.282291
  0
VERTEX
  8
EBENE_1
 62
    39
  6
CONTINUOUS
 10
1.493509
 20
1.283273
  0
VERTEX
  8
EBENE_1
 62
    39
  6
CONTINUOUS
 10
1.491442
 20
1.285945
  0
VERTEX
  8
EBENE_1
 62
    39
  6
CONTINUOUS
 10
1.490606
 20
1.289732
  0
VERTEX
  8
EBENE_1
 62
    39
  6
CONTINUOUS
 10
1.491309
 20
1.293546
  0
VERTEX
  8
EBENE_1
 62
    39
  6
CONTINUOUS
 10
1.493282
 20
1.296288
  0
SEQEND
  8
0
  0
POLYLINE
  8
EBENE_1
 62
    39
  6
CONTINUOUS
 66
     1
 40
0.003000
 41
0.003000
 70
     1
  0
VERTEX
  8
EBENE_1
 62
    39
  6
CONTINUOUS
 10
1.500945
 20
1.163039
  0
VERTEX
  8
EBENE_1
 62
    39
  6
CONTINUOUS
 10
1.503798
 20
1.162058
  0
VERTEX
  8
EBENE_1
 62
    39
  6
CONTINUOUS
 10
1.505866
 20
1.159386
  0
VERTEX
  8
EBENE_1
 62
    39
  6
CONTINUOUS
 10
1.506701
 20
1.155598
  0
VERTEX
  8
EBENE_1
 62
    39
  6
CONTINUOUS
 10
1.505998
 20
1.151786
  0
VERTEX
  8
EBENE_1
 62
    39
  6
CONTINUOUS
 10
1.504024
 20
1.149044
  0
VERTEX
  8
EBENE_1
 62
    39
  6
CONTINUOUS
 10
1.501209
 20
1.147965
  0
VERTEX
  8
EBENE_1
 62
    39
  6
CONTINUOUS
 10
1.498355
 20
1.148946
  0
VERTEX
  8
EBENE_1
 62
    39
  6
CONTINUOUS
 10
1.496287
 20
1.151617
  0
VERTEX
  8
EBENE_1
 62
    39
  6
CONTINUOUS
 10
1.495449
 20
1.155402
  0
VERTEX
  8
EBENE_1
 62
    39
  6
CONTINUOUS
 10
1.496154
 20
1.159218
  0
VERTEX
  8
EBENE_1
 62
    39
  6
CONTINUOUS
 10
1.498127
 20
1.161960
  0
SEQEND
  8
0
  0
POLYLINE
  8
EBENE_1
 62
    39
  6
CONTINUOUS
 66
     1
 40
0.003000
 41
0.003000
 70
     1
  0
VERTEX
  8
EBENE_1
 62
    39
  6
CONTINUOUS
 10
1.239402
 20
1.531760
  0
VERTEX
  8
EBENE_1
 62
    39
  6
CONTINUOUS
 10
1.242255
 20
1.530778
  0
VERTEX
  8
EBENE_1
 62
    39
  6
CONTINUOUS
 10
1.244322
 20
1.528106
  0
VERTEX
  8
EBENE_1
 62
    39
  6
CONTINUOUS
 10
1.245157
 20
1.524319
  0
VERTEX
  8
EBENE_1
 62
    39
  6
CONTINUOUS
 10
1.244455
 20
1.520505
  0
VERTEX
  8
EBENE_1
 62
    39
  6
CONTINUOUS
 10
1.242483
 20
1.517763
  0
VERTEX
  8
EBENE_1
 62
    39
  6
CONTINUOUS
 10
1.239665
 20
1.516681
  0
VERTEX
  8
EBENE_1
 62
    39
  6
CONTINUOUS
 10
1.236812
 20
1.517664
  0
VERTEX
  8
EBENE_1
 62
    39
  6
CONTINUOUS
 10
1.234744
 20
1.520336
  0
VERTEX
  8
EBENE_1
 62
    39
  6
CONTINUOUS
 10
1.233906
 20
1.524122
  0
VERTEX
  8
EBENE_1
 62
    39
  6
CONTINUOUS
 10
1.234610
 20
1.527936
  0
VERTEX
  8
EBENE_1
 62
    39
  6
CONTINUOUS
 10
1.236584
 20
1.530678
  0
SEQEND
  8
0
  0
POLYLINE
  8
EBENE_1
 62
    39
  6
CONTINUOUS
 66
     1
 40
0.003000
 41
0.003000
 70
     1
  0
VERTEX
  8
EBENE_1
 62
    39
  6
CONTINUOUS
 10
1.084421
 20
1.526610
  0
VERTEX
  8
EBENE_1
 62
    39
  6
CONTINUOUS
 10
1.087273
 20
1.525629
  0
VERTEX
  8
EBENE_1
 62
    39
  6
CONTINUOUS
 10
1.089341
 20
1.522957
  0
VERTEX
  8
EBENE_1
 62
    39
  6
CONTINUOUS
 10
1.090177
 20
1.519169
  0
VERTEX
  8
EBENE_1
 62
    39
  6
CONTINUOUS
 10
1.089474
 20
1.515355
  0
VERTEX
  8
EBENE_1
 62
    39
  6
CONTINUOUS
 10
1.087501
 20
1.512613
  0
VERTEX
  8
EBENE_1
 62
    39
  6
CONTINUOUS
 10
1.084685
 20
1.511531
  0
VERTEX
  8
EBENE_1
 62
    39
  6
CONTINUOUS
 10
1.081831
 20
1.512515
  0
VERTEX
  8
EBENE_1
 62
    39
  6
CONTINUOUS
 10
1.079763
 20
1.515186
  0
VERTEX
  8
EBENE_1
 62
    39
  6
CONTINUOUS
 10
1.078925
 20
1.518972
  0
VERTEX
  8
EBENE_1
 62
    39
  6
CONTINUOUS
 10
1.079630
 20
1.522786
  0
VERTEX
  8
EBENE_1
 62
    39
  6
CONTINUOUS
 10
1.081604
 20
1.525529
  0
SEQEND
  8
0
  0
POLYLINE
  8
EBENE_1
 62
    39
  6
CONTINUOUS
 66
     1
 40
0.010000
 41
0.010000
 70
     1
  0
VERTEX
  8
EBENE_1
 62
    39
  6
CONTINUOUS
 10
1.319657
 20
1.157138
  0
VERTEX
  8
EBENE_1
 62
    39
  6
CONTINUOUS
 10
1.326931
 20
1.108537
  0
VERTEX
  8
EBENE_1
 62
    39
  6
CONTINUOUS
 10
1.343036
 20
1.053448
  0
VERTEX
  8
EBENE_1
 62
    39
  6
CONTINUOUS
 10
1.368384
 20
0.994191
  0
VERTEX
  8
EBENE_1
 62
    39
  6
CONTINUOUS
 10
1.403384
 20
0.933084
  0
VERTEX
  8
EBENE_1
 62
    39
  6
CONTINUOUS
 10
1.448449
 20
0.872443
  0
VERTEX
  8
EBENE_1
 62
    39
  6
CONTINUOUS
 10
1.503988
 20
0.814589
  0
VERTEX
  8
EBENE_1
 62
    39
  6
CONTINUOUS
 10
1.570413
 20
0.761839
  0
VERTEX
  8
EBENE_1
 62
    39
  6
CONTINUOUS
 10
2.123331
 20
0.774425
  0
VERTEX
  8
EBENE_1
 62
    39
  6
CONTINUOUS
 10
2.109437
 20
1.570358
  0
VERTEX
  8
EBENE_1
 62
    39
  6
CONTINUOUS
 10
1.313500
 20
1.556465
  0
SEQEND
  8
0
  0
POLYLINE
  8
EBENE_1
 62
    39
  6
CONTINUOUS
 66
     1
 40
0.003000
 41
0.003000
 70
     1
  0
VERTEX
  8
EBENE_1
 62
    39
  6
CONTINUOUS
 10
1.328331
 20
1.161181
  0
VERTEX
  8
EBENE_1
 62
    39
  6
CONTINUOUS
 10
1.335486
 20
1.113023
  0
VERTEX
  8
EBENE_1
 62
    39
  6
CONTINUOUS
 10
1.351321
 20
1.058435
  0
VERTEX
  8
EBENE_1
 62
    39
  6
CONTINUOUS
 10
1.376241
 20
0.999715
  0
VERTEX
  8
EBENE_1
 62
    39
  6
CONTINUOUS
 10
1.410647
 20
0.939160
  0
VERTEX
  8
EBENE_1
 62
    39
  6
CONTINUOUS
 10
1.454945
 20
0.879068
  0
VERTEX
  8
EBENE_1
 62
    39
  6
CONTINUOUS
 10
1.509537
 20
0.821734
  0
VERTEX
  8
EBENE_1
 62
    39
  6
CONTINUOUS
 10
1.574827
 20
0.769457
  0
VERTEX
  8
EBENE_1
 62
    39
  6
CONTINUOUS
 10
2.118236
 20
0.781850
  0
VERTEX
  8
EBENE_1
 62
    39
  6
CONTINUOUS
 10
2.104469
 20
1.570516
  0
VERTEX
  8
EBENE_1
 62
    39
  6
CONTINUOUS
 10
1.322220
 20
1.556862
  0
SEQEND
  8
0
  0
POLYLINE
  8
EBENE_1
 62
    39
  6
CONTINUOUS
 66
     1
 40
0.003000
 41
0.003000
 70
     1
  0
VERTEX
  8
EBENE_1
 62
    39
  6
CONTINUOUS
 10
2.047323
 20
1.298039
  0
VERTEX
  8
EBENE_1
 62
    39
  6
CONTINUOUS
 10
2.050174
 20
1.297058
  0
VERTEX
  8
EBENE_1
 62
    39
  6
CONTINUOUS
 10
2.052241
 20
1.294386
  0
VERTEX
  8
EBENE_1
 62
    39
  6
CONTINUOUS
 10
2.053079
 20
1.290598
  0
VERTEX
  8
EBENE_1
 62
    39
  6
CONTINUOUS
 10
2.052374
 20
1.286784
  0
VERTEX
  8
EBENE_1
 62
    39
  6
CONTINUOUS
 10
2.050400
 20
1.284042
  0
VERTEX
  8
EBENE_1
 62
    39
  6
CONTINUOUS
 10
2.047583
 20
1.282961
  0
VERTEX
  8
EBENE_1
 62
    39
  6
CONTINUOUS
 10
2.044729
 20
1.283944
  0
VERTEX
  8
EBENE_1
 62
    39
  6
CONTINUOUS
 10
2.042662
 20
1.286615
  0
VERTEX
  8
EBENE_1
 62
    39
  6
CONTINUOUS
 10
2.041827
 20
1.290402
  0
VERTEX
  8
EBENE_1
 62
    39
  6
CONTINUOUS
 10
2.042529
 20
1.294216
  0
VERTEX
  8
EBENE_1
 62
    39
  6
CONTINUOUS
 10
2.044502
 20
1.296958
  0
SEQEND
  8
0
  0
POLYLINE
  8
EBENE_1
 62
    39
  6
CONTINUOUS
 66
     1
 40
0.003000
 41
0.003000
 70
     1
  0
VERTEX
  8
EBENE_1
 62
    39
  6
CONTINUOUS
 10
2.052165
 20
1.163713
  0
VERTEX
  8
EBENE_1
 62
    39
  6
CONTINUOUS
 10
2.055019
 20
1.162729
  0
VERTEX
  8
EBENE_1
 62
    39
  6
CONTINUOUS
 10
2.057086
 20
1.160057
  0
VERTEX
  8
EBENE_1
 62
    39
  6
CONTINUOUS
 10
2.057921
 20
1.156268
  0
VERTEX
  8
EBENE_1
 62
    39
  6
CONTINUOUS
 10
2.057218
 20
1.152457
  0
VERTEX
  8
EBENE_1
 62
    39
  6
CONTINUOUS
 10
2.055245
 20
1.149715
  0
VERTEX
  8
EBENE_1
 62
    39
  6
CONTINUOUS
 10
2.052429
 20
1.148634
  0
VERTEX
  8
EBENE_1
 62
    39
  6
CONTINUOUS
 10
2.049575
 20
1.149615
  0
VERTEX
  8
EBENE_1
 62
    39
  6
CONTINUOUS
 10
2.047507
 20
1.152287
  0
VERTEX
  8
EBENE_1
 62
    39
  6
CONTINUOUS
 10
2.046669
 20
1.156075
  0
VERTEX
  8
EBENE_1
 62
    39
  6
CONTINUOUS
 10
2.047374
 20
1.159889
  0
VERTEX
  8
EBENE_1
 62
    39
  6
CONTINUOUS
 10
2.049348
 20
1.162631
  0
SEQEND
  8
0
  0
POLYLINE
  8
EBENE_1
 62
    39
  6
CONTINUOUS
 66
     1
 40
0.003000
 41
0.003000
 70
     1
  0
VERTEX
  8
EBENE_1
 62
    39
  6
CONTINUOUS
 10
1.790622
 20
1.532429
  0
VERTEX
  8
EBENE_1
 62
    39
  6
CONTINUOUS
 10
1.793476
 20
1.531448
  0
VERTEX
  8
EBENE_1
 62
    39
  6
CONTINUOUS
 10
1.795544
 20
1.528776
  0
VERTEX
  8
EBENE_1
 62
    39
  6
CONTINUOUS
 10
1.796382
 20
1.524988
  0
VERTEX
  8
EBENE_1
 62
    39
  6
CONTINUOUS
 10
1.795677
 20
1.521174
  0
VERTEX
  8
EBENE_1
 62
    39
  6
CONTINUOUS
 10
1.793704
 20
1.518433
  0
VERTEX
  8
EBENE_1
 62
    39
  6
CONTINUOUS
 10
1.790886
 20
1.517354
  0
VERTEX
  8
EBENE_1
 62
    39
  6
CONTINUOUS
 10
1.788032
 20
1.518335
  0
VERTEX
  8
EBENE_1
 62
    39
  6
CONTINUOUS
 10
1.785965
 20
1.521005
  0
VERTEX
  8
EBENE_1
 62
    39
  6
CONTINUOUS
 10
1.785130
 20
1.524791
  0
VERTEX
  8
EBENE_1
 62
    39
  6
CONTINUOUS
 10
1.785832
 20
1.528606
  0
VERTEX
  8
EBENE_1
 62
    39
  6
CONTINUOUS
 10
1.787804
 20
1.531349
  0
SEQEND
  8
0
  0
POLYLINE
  8
EBENE_1
 62
    39
  6
CONTINUOUS
 66
     1
 40
0.003000
 41
0.003000
 70
     1
  0
VERTEX
  8
EBENE_1
 62
    39
  6
CONTINUOUS
 10
1.635642
 20
1.527280
  0
VERTEX
  8
EBENE_1
 62
    39
  6
CONTINUOUS
 10
1.638495
 20
1.526298
  0
VERTEX
  8
EBENE_1
 62
    39
  6
CONTINUOUS
 10
1.640562
 20
1.523626
  0
VERTEX
  8
EBENE_1
 62
    39
  6
CONTINUOUS
 10
1.641398
 20
1.519839
  0
VERTEX
  8
EBENE_1
 62
    39
  6
CONTINUOUS
 10
1.640695
 20
1.516025
  0
VERTEX
  8
EBENE_1
 62
    39
  6
CONTINUOUS
 10
1.638721
 20
1.513284
  0
VERTEX
  8
EBENE_1
 62
    39
  6
CONTINUOUS
 10
1.635906
 20
1.512205
  0
VERTEX
  8
EBENE_1
 62
    39
  6
CONTINUOUS
 10
1.633052
 20
1.513186
  0
VERTEX
  8
EBENE_1
 62
    39
  6
CONTINUOUS
 10
1.630984
 20
1.515857
  0
VERTEX
  8
EBENE_1
 62
    39
  6
CONTINUOUS
 10
1.630146
 20
1.519642
  0
VERTEX
  8
EBENE_1
 62
    39
  6
CONTINUOUS
 10
1.630851
 20
1.523457
  0
VERTEX
  8
EBENE_1
 62
    39
  6
CONTINUOUS
 10
1.632824
 20
1.526200
  0
SEQEND
  8
0
  0
POLYLINE
  8
EBENE_1
 62
    39
  6
CONTINUOUS
 66
     1
 40
0.010000
 41
0.010000
 70
     1
  0
VERTEX
  8
EBENE_1
 62
    39
  6
CONTINUOUS
 10
-2.250866
 20
1.714016
  0
VERTEX
  8
EBENE_1
 62
    39
  6
CONTINUOUS
 10
-2.243592
 20
1.665414
  0
VERTEX
  8
EBENE_1
 62
    39
  6
CONTINUOUS
 10
-2.227487
 20
1.610326
  0
VERTEX
  8
EBENE_1
 62
    39
  6
CONTINUOUS
 10
-2.202140
 20
1.551068
  0
VERTEX
  8
EBENE_1
 62
    39
  6
CONTINUOUS
 10
-2.167139
 20
1.489959
  0
VERTEX
  8
EBENE_1
 62
    39
  6
CONTINUOUS
 10
-2.122075
 20
1.429318
  0
VERTEX
  8
EBENE_1
 62
    39
  6
CONTINUOUS
 10
-2.066535
 20
1.371463
  0
VERTEX
  8
EBENE_1
 62
    39
  6
CONTINUOUS
 10
-2.000110
 20
1.318713
  0
VERTEX
  8
EBENE_1
 62
    39
  6
CONTINUOUS
 10
-1.447197
 20
1.331299
  0
VERTEX
  8
EBENE_1
 62
    39
  6
CONTINUOUS
 10
-1.461087
 20
2.127232
  0
VERTEX
  8
EBENE_1
 62
    39
  6
CONTINUOUS
 10
-2.257024
 20
2.113339
  0
SEQEND
  8
0
  0
POLYLINE
  8
EBENE_1
 62
    39
  6
CONTINUOUS
 66
     1
 40
0.003000
 41
0.003000
 70
     1
  0
VERTEX
  8
EBENE_1
 62
    39
  6
CONTINUOUS
 10
-2.242193
 20
1.718059
  0
VERTEX
  8
EBENE_1
 62
    39
  6
CONTINUOUS
 10
-2.235038
 20
1.669901
  0
VERTEX
  8
EBENE_1
 62
    39
  6
CONTINUOUS
 10
-2.219202
 20
1.615313
  0
VERTEX
  8
EBENE_1
 62
    39
  6
CONTINUOUS
 10
-2.194283
 20
1.556593
  0
VERTEX
  8
EBENE_1
 62
    39
  6
CONTINUOUS
 10
-2.159876
 20
1.496038
  0
VERTEX
  8
EBENE_1
 62
    39
  6
CONTINUOUS
 10
-2.115579
 20
1.435944
  0
VERTEX
  8
EBENE_1
 62
    39
  6
CONTINUOUS
 10
-2.060987
 20
1.378610
  0
VERTEX
  8
EBENE_1
 62
    39
  6
CONTINUOUS
 10
-1.995697
 20
1.326331
  0
VERTEX
  8
EBENE_1
 62
    39
  6
CONTINUOUS
 10
-1.452291
 20
1.338724
  0
VERTEX
  8
EBENE_1
 62
    39
  6
CONTINUOUS
 10
-1.466055
 20
2.127394
  0
VERTEX
  8
EBENE_1
 62
    39
  6
CONTINUOUS
 10
-2.248303
 20
2.113740
  0
SEQEND
  8
0
  0
POLYLINE
  8
EBENE_1
 62
    39
  6
CONTINUOUS
 66
     1
 40
0.003000
 41
0.003000
 70
     1
  0
VERTEX
  8
EBENE_1
 62
    39
  6
CONTINUOUS
 10
-1.523205
 20
1.854917
  0
VERTEX
  8
EBENE_1
 62
    39
  6
CONTINUOUS
 10
-1.520351
 20
1.853934
  0
VERTEX
  8
EBENE_1
 62
    39
  6
CONTINUOUS
 10
-1.518284
 20
1.851262
  0
VERTEX
  8
EBENE_1
 62
    39
  6
CONTINUOUS
 10
-1.517449
 20
1.847472
  0
VERTEX
  8
EBENE_1
 62
    39
  6
CONTINUOUS
 10
-1.518151
 20
1.843661
  0
VERTEX
  8
EBENE_1
 62
    39
  6
CONTINUOUS
 10
-1.520123
 20
1.840920
  0
VERTEX
  8
EBENE_1
 62
    39
  6
CONTINUOUS
 10
-1.522941
 20
1.839839
  0
VERTEX
  8
EBENE_1
 62
    39
  6
CONTINUOUS
 10
-1.525795
 20
1.840820
  0
VERTEX
  8
EBENE_1
 62
    39
  6
CONTINUOUS
 10
-1.527862
 20
1.843492
  0
VERTEX
  8
EBENE_1
 62
    39
  6
CONTINUOUS
 10
-1.528697
 20
1.847280
  0
VERTEX
  8
EBENE_1
 62
    39
  6
CONTINUOUS
 10
-1.527995
 20
1.851093
  0
VERTEX
  8
EBENE_1
 62
    39
  6
CONTINUOUS
 10
-1.526022
 20
1.853836
  0
SEQEND
  8
0
  0
POLYLINE
  8
EBENE_1
 62
    39
  6
CONTINUOUS
 66
     1
 40
0.003000
 41
0.003000
 70
     1
  0
VERTEX
  8
EBENE_1
 62
    39
  6
CONTINUOUS
 10
-1.518358
 20
1.720587
  0
VERTEX
  8
EBENE_1
 62
    39
  6
CONTINUOUS
 10
-1.515506
 20
1.719605
  0
VERTEX
  8
EBENE_1
 62
    39
  6
CONTINUOUS
 10
-1.513438
 20
1.716933
  0
VERTEX
  8
EBENE_1
 62
    39
  6
CONTINUOUS
 10
-1.512602
 20
1.713146
  0
VERTEX
  8
EBENE_1
 62
    39
  6
CONTINUOUS
 10
-1.513307
 20
1.709332
  0
VERTEX
  8
EBENE_1
 62
    39
  6
CONTINUOUS
 10
-1.515280
 20
1.706591
  0
VERTEX
  8
EBENE_1
 62
    39
  6
CONTINUOUS
 10
-1.518094
 20
1.705512
  0
VERTEX
  8
EBENE_1
 62
    39
  6
CONTINUOUS
 10
-1.520949
 20
1.706492
  0
VERTEX
  8
EBENE_1
 62
    39
  6
CONTINUOUS
 10
-1.523018
 20
1.709162
  0
VERTEX
  8
EBENE_1
 62
    39
  6
CONTINUOUS
 10
-1.523854
 20
1.712949
  0
VERTEX
  8
EBENE_1
 62
    39
  6
CONTINUOUS
 10
-1.523149
 20
1.716764
  0
VERTEX
  8
EBENE_1
 62
    39
  6
CONTINUOUS
 10
-1.521176
 20
1.719507
  0
SEQEND
  8
0
  0
POLYLINE
  8
EBENE_1
 62
    39
  6
CONTINUOUS
 66
     1
 40
0.003000
 41
0.003000
 70
     1
  0
VERTEX
  8
EBENE_1
 62
    39
  6
CONTINUOUS
 10
-1.779902
 20
2.089307
  0
VERTEX
  8
EBENE_1
 62
    39
  6
CONTINUOUS
 10
-1.777048
 20
2.088325
  0
VERTEX
  8
EBENE_1
 62
    39
  6
CONTINUOUS
 10
-1.774981
 20
2.085654
  0
VERTEX
  8
EBENE_1
 62
    39
  6
CONTINUOUS
 10
-1.774146
 20
2.081866
  0
VERTEX
  8
EBENE_1
 62
    39
  6
CONTINUOUS
 10
-1.774848
 20
2.078052
  0
VERTEX
  8
EBENE_1
 62
    39
  6
CONTINUOUS
 10
-1.776820
 20
2.075310
  0
VERTEX
  8
EBENE_1
 62
    39
  6
CONTINUOUS
 10
-1.779638
 20
2.074228
  0
VERTEX
  8
EBENE_1
 62
    39
  6
CONTINUOUS
 10
-1.782492
 20
2.075210
  0
VERTEX
  8
EBENE_1
 62
    39
  6
CONTINUOUS
 10
-1.784560
 20
2.077882
  0
VERTEX
  8
EBENE_1
 62
    39
  6
CONTINUOUS
 10
-1.785398
 20
2.081669
  0
VERTEX
  8
EBENE_1
 62
    39
  6
CONTINUOUS
 10
-1.784693
 20
2.085483
  0
VERTEX
  8
EBENE_1
 62
    39
  6
CONTINUOUS
 10
-1.782719
 20
2.088225
  0
SEQEND
  8
0
  0
POLYLINE
  8
EBENE_1
 62
    39
  6
CONTINUOUS
 66
     1
 40
0.003000
 41
0.003000
 70
     1
  0
VERTEX
  8
EBENE_1
 62
    39
  6
CONTINUOUS
 10
-1.934882
 20
2.084157
  0
VERTEX
  8
EBENE_1
 62
    39
  6
CONTINUOUS
 10
-1.932030
 20
2.083176
  0
VERTEX
  8
EBENE_1
 62
    39
  6
CONTINUOUS
 10
-1.929962
 20
2.080504
  0
VERTEX
  8
EBENE_1
 62
    39
  6
CONTINUOUS
 10
-1.929126
 20
2.076717
  0
VERTEX
  8
EBENE_1
 62
    39
  6
CONTINUOUS
 10
-1.929831
 20
2.072903
  0
VERTEX
  8
EBENE_1
 62
    39
  6
CONTINUOUS
 10
-1.931803
 20
2.070160
  0
VERTEX
  8
EBENE_1
 62
    39
  6
CONTINUOUS
 10
-1.934618
 20
2.069079
  0
VERTEX
  8
EBENE_1
 62
    39
  6
CONTINUOUS
 10
-1.937473
 20
2.070060
  0
VERTEX
  8
EBENE_1
 62
    39
  6
CONTINUOUS
 10
-1.939542
 20
2.072732
  0
VERTEX
  8
EBENE_1
 62
    39
  6
CONTINUOUS
 10
-1.940378
 20
2.076520
  0
VERTEX
  8
EBENE_1
 62
    39
  6
CONTINUOUS
 10
-1.939673
 20
2.080334
  0
VERTEX
  8
EBENE_1
 62
    39
  6
CONTINUOUS
 10
-1.937700
 20
2.083076
  0
SEQEND
  8
0
  0
POLYLINE
  8
EBENE_1
 62
    39
  6
CONTINUOUS
 66
     1
 40
0.010000
 41
0.010000
 70
     1
  0
VERTEX
  8
EBENE_1
 62
    39
  6
CONTINUOUS
 10
-1.699646
 20
1.714685
  0
VERTEX
  8
EBENE_1
 62
    39
  6
CONTINUOUS
 10
-1.692372
 20
1.666084
  0
VERTEX
  8
EBENE_1
 62
    39
  6
CONTINUOUS
 10
-1.676267
 20
1.610996
  0
VERTEX
  8
EBENE_1
 62
    39
  6
CONTINUOUS
 10
-1.650920
 20
1.551739
  0
VERTEX
  8
EBENE_1
 62
    39
  6
CONTINUOUS
 10
-1.615919
 20
1.490631
  0
VERTEX
  8
EBENE_1
 62
    39
  6
CONTINUOUS
 10
-1.570854
 20
1.429991
  0
VERTEX
  8
EBENE_1
 62
    39
  6
CONTINUOUS
 10
-1.515315
 20
1.372136
  0
VERTEX
  8
EBENE_1
 62
    39
  6
CONTINUOUS
 10
-1.448890
 20
1.319386
  0
VERTEX
  8
EBENE_1
 62
    39
  6
CONTINUOUS
 10
-1.448890
 20
1.319386
  0
VERTEX
  8
EBENE_1
 62
    39
  6
CONTINUOUS
 10
-0.895972
 20
1.331972
  0
VERTEX
  8
EBENE_1
 62
    39
  6
CONTINUOUS
 10
-0.909866
 20
2.127906
  0
VERTEX
  8
EBENE_1
 62
    39
  6
CONTINUOUS
 10
-1.705803
 20
2.114012
  0
SEQEND
  8
0
  0
POLYLINE
  8
EBENE_1
 62
    39
  6
CONTINUOUS
 66
     1
 40
0.003000
 41
0.003000
 70
     1
  0
VERTEX
  8
EBENE_1
 62
    39
  6
CONTINUOUS
 10
-1.690972
 20
1.718728
  0
VERTEX
  8
EBENE_1
 62
    39
  6
CONTINUOUS
 10
-1.683817
 20
1.670570
  0
VERTEX
  8
EBENE_1
 62
    39
  6
CONTINUOUS
 10
-1.667982
 20
1.615982
  0
VERTEX
  8
EBENE_1
 62
    39
  6
CONTINUOUS
 10
-1.643063
 20
1.557262
  0
VERTEX
  8
EBENE_1
 62
    39
  6
CONTINUOUS
 10
-1.608656
 20
1.496708
  0
VERTEX
  8
EBENE_1
 62
    39
  6
CONTINUOUS
 10
-1.564358
 20
1.436615
  0
VERTEX
  8
EBENE_1
 62
    39
  6
CONTINUOUS
 10
-1.509766
 20
1.379281
  0
VERTEX
  8
EBENE_1
 62
    39
  6
CONTINUOUS
 10
-1.444476
 20
1.327004
  0
VERTEX
  8
EBENE_1
 62
    39
  6
CONTINUOUS
 10
-1.444476
 20
1.327004
  0
VERTEX
  8
EBENE_1
 62
    39
  6
CONTINUOUS
 10
-0.901071
 20
1.339398
  0
VERTEX
  8
EBENE_1
 62
    39
  6
CONTINUOUS
 10
-0.914835
 20
2.128063
  0
VERTEX
  8
EBENE_1
 62
    39
  6
CONTINUOUS
 10
-1.697083
 20
2.114409
  0
SEQEND
  8
0
  0
POLYLINE
  8
EBENE_1
 62
    39
  6
CONTINUOUS
 66
     1
 40
0.003000
 41
0.003000
 70
     1
  0
VERTEX
  8
EBENE_1
 62
    39
  6
CONTINUOUS
 10
-0.971984
 20
1.855587
  0
VERTEX
  8
EBENE_1
 62
    39
  6
CONTINUOUS
 10
-0.969131
 20
1.854605
  0
VERTEX
  8
EBENE_1
 62
    39
  6
CONTINUOUS
 10
-0.967062
 20
1.851933
  0
VERTEX
  8
EBENE_1
 62
    39
  6
CONTINUOUS
 10
-0.966224
 20
1.848146
  0
VERTEX
  8
EBENE_1
 62
    39
  6
CONTINUOUS
 10
-0.966929
 20
1.844332
  0
VERTEX
  8
EBENE_1
 62
    39
  6
CONTINUOUS
 10
-0.968903
 20
1.841590
  0
VERTEX
  8
EBENE_1
 62
    39
  6
CONTINUOUS
 10
-0.971720
 20
1.840508
  0
VERTEX
  8
EBENE_1
 62
    39
  6
CONTINUOUS
 10
-0.974574
 20
1.841491
  0
VERTEX
  8
EBENE_1
 62
    39
  6
CONTINUOUS
 10
-0.976641
 20
1.844162
  0
VERTEX
  8
EBENE_1
 62
    39
  6
CONTINUOUS
 10
-0.977476
 20
1.847949
  0
VERTEX
  8
EBENE_1
 62
    39
  6
CONTINUOUS
 10
-0.976774
 20
1.851763
  0
VERTEX
  8
EBENE_1
 62
    39
  6
CONTINUOUS
 10
-0.974802
 20
1.854505
  0
SEQEND
  8
0
  0
POLYLINE
  8
EBENE_1
 62
    39
  6
CONTINUOUS
 66
     1
 40
0.003000
 41
0.003000
 70
     1
  0
VERTEX
  8
EBENE_1
 62
    39
  6
CONTINUOUS
 10
-0.967138
 20
1.721260
  0
VERTEX
  8
EBENE_1
 62
    39
  6
CONTINUOUS
 10
-0.964286
 20
1.720276
  0
VERTEX
  8
EBENE_1
 62
    39
  6
CONTINUOUS
 10
-0.962218
 20
1.717604
  0
VERTEX
  8
EBENE_1
 62
    39
  6
CONTINUOUS
 10
-0.961382
 20
1.713815
  0
VERTEX
  8
EBENE_1
 62
    39
  6
CONTINUOUS
 10
-0.962085
 20
1.710004
  0
VERTEX
  8
EBENE_1
 62
    39
  6
CONTINUOUS
 10
-0.964058
 20
1.707263
  0
VERTEX
  8
EBENE_1
 62
    39
  6
CONTINUOUS
 10
-0.966874
 20
1.706181
  0
VERTEX
  8
EBENE_1
 62
    39
  6
CONTINUOUS
 10
-0.969728
 20
1.707163
  0
VERTEX
  8
EBENE_1
 62
    39
  6
CONTINUOUS
 10
-0.971796
 20
1.709833
  0
VERTEX
  8
EBENE_1
 62
    39
  6
CONTINUOUS
 10
-0.972634
 20
1.713618
  0
VERTEX
  8
EBENE_1
 62
    39
  6
CONTINUOUS
 10
-0.971929
 20
1.717435
  0
VERTEX
  8
EBENE_1
 62
    39
  6
CONTINUOUS
 10
-0.969956
 20
1.720178
  0
SEQEND
  8
0
  0
POLYLINE
  8
EBENE_1
 62
    39
  6
CONTINUOUS
 66
     1
 40
0.003000
 41
0.003000
 70
     1
  0
VERTEX
  8
EBENE_1
 62
    39
  6
CONTINUOUS
 10
-1.228681
 20
2.089976
  0
VERTEX
  8
EBENE_1
 62
    39
  6
CONTINUOUS
 10
-1.225828
 20
2.088995
  0
VERTEX
  8
EBENE_1
 62
    39
  6
CONTINUOUS
 10
-1.223760
 20
2.086323
  0
VERTEX
  8
EBENE_1
 62
    39
  6
CONTINUOUS
 10
-1.222925
 20
2.082535
  0
VERTEX
  8
EBENE_1
 62
    39
  6
CONTINUOUS
 10
-1.223627
 20
2.078721
  0
VERTEX
  8
EBENE_1
 62
    39
  6
CONTINUOUS
 10
-1.225600
 20
2.075979
  0
VERTEX
  8
EBENE_1
 62
    39
  6
CONTINUOUS
 10
-1.228417
 20
2.074898
  0
VERTEX
  8
EBENE_1
 62
    39
  6
CONTINUOUS
 10
-1.231271
 20
2.075881
  0
VERTEX
  8
EBENE_1
 62
    39
  6
CONTINUOUS
 10
-1.233339
 20
2.078552
  0
VERTEX
  8
EBENE_1
 62
    39
  6
CONTINUOUS
 10
-1.234177
 20
2.082339
  0
VERTEX
  8
EBENE_1
 62
    39
  6
CONTINUOUS
 10
-1.233472
 20
2.086153
  0
VERTEX
  8
EBENE_1
 62
    39
  6
CONTINUOUS
 10
-1.231499
 20
2.088895
  0
SEQEND
  8
0
  0
POLYLINE
  8
EBENE_1
 62
    39
  6
CONTINUOUS
 66
     1
 40
0.003000
 41
0.003000
 70
     1
  0
VERTEX
  8
EBENE_1
 62
    39
  6
CONTINUOUS
 10
-1.383661
 20
2.084827
  0
VERTEX
  8
EBENE_1
 62
    39
  6
CONTINUOUS
 10
-1.380810
 20
2.083845
  0
VERTEX
  8
EBENE_1
 62
    39
  6
CONTINUOUS
 10
-1.378742
 20
2.081173
  0
VERTEX
  8
EBENE_1
 62
    39
  6
CONTINUOUS
 10
-1.377906
 20
2.077386
  0
VERTEX
  8
EBENE_1
 62
    39
  6
CONTINUOUS
 10
-1.378610
 20
2.073572
  0
VERTEX
  8
EBENE_1
 62
    39
  6
CONTINUOUS
 10
-1.380583
 20
2.070830
  0
VERTEX
  8
EBENE_1
 62
    39
  6
CONTINUOUS
 10
-1.383398
 20
2.069748
  0
VERTEX
  8
EBENE_1
 62
    39
  6
CONTINUOUS
 10
-1.386252
 20
2.070731
  0
VERTEX
  8
EBENE_1
 62
    39
  6
CONTINUOUS
 10
-1.388321
 20
2.073402
  0
VERTEX
  8
EBENE_1
 62
    39
  6
CONTINUOUS
 10
-1.389157
 20
2.077189
  0
VERTEX
  8
EBENE_1
 62
    39
  6
CONTINUOUS
 10
-1.388453
 20
2.081003
  0
VERTEX
  8
EBENE_1
 62
    39
  6
CONTINUOUS
 10
-1.386479
 20
2.083745
  0
SEQEND
  8
0
  0
POLYLINE
  8
EBENE_1
 62
    39
  6
CONTINUOUS
 66
     1
 40
0.010000
 41
0.010000
 70
     1
  0
VERTEX
  8
EBENE_1
 62
    39
  6
CONTINUOUS
 10
-1.148425
 20
1.715354
  0
VERTEX
  8
EBENE_1
 62
    39
  6
CONTINUOUS
 10
-1.141152
 20
1.666753
  0
VERTEX
  8
EBENE_1
 62
    39
  6
CONTINUOUS
 10
-1.125046
 20
1.611665
  0
VERTEX
  8
EBENE_1
 62
    39
  6
CONTINUOUS
 10
-1.099699
 20
1.552408
  0
VERTEX
  8
EBENE_1
 62
    39
  6
CONTINUOUS
 10
-1.064699
 20
1.491300
  0
VERTEX
  8
EBENE_1
 62
    39
  6
CONTINUOUS
 10
-1.019634
 20
1.430660
  0
VERTEX
  8
EBENE_1
 62
    39
  6
CONTINUOUS
 10
-0.964095
 20
1.372806
  0
VERTEX
  8
EBENE_1
 62
    39
  6
CONTINUOUS
 10
-0.897669
 20
1.320055
  0
VERTEX
  8
EBENE_1
 62
    39
  6
CONTINUOUS
 10
-0.344752
 20
1.332642
  0
VERTEX
  8
EBENE_1
 62
    39
  6
CONTINUOUS
 10
-0.358646
 20
2.128575
  0
VERTEX
  8
EBENE_1
 62
    39
  6
CONTINUOUS
 10
-1.154583
 20
2.114681
  0
SEQEND
  8
0
  0
POLYLINE
  8
EBENE_1
 62
    39
  6
CONTINUOUS
 66
     1
 40
0.003000
 41
0.003000
 70
     1
  0
VERTEX
  8
EBENE_1
 62
    39
  6
CONTINUOUS
 10
-1.139752
 20
1.719398
  0
VERTEX
  8
EBENE_1
 62
    39
  6
CONTINUOUS
 10
-1.132597
 20
1.671240
  0
VERTEX
  8
EBENE_1
 62
    39
  6
CONTINUOUS
 10
-1.116761
 20
1.616653
  0
VERTEX
  8
EBENE_1
 62
    39
  6
CONTINUOUS
 10
-1.091842
 20
1.557933
  0
VERTEX
  8
EBENE_1
 62
    39
  6
CONTINUOUS
 10
-1.057435
 20
1.497378
  0
VERTEX
  8
EBENE_1
 62
    39
  6
CONTINUOUS
 10
-1.013138
 20
1.437285
  0
VERTEX
  8
EBENE_1
 62
    39
  6
CONTINUOUS
 10
-0.958546
 20
1.379951
  0
VERTEX
  8
EBENE_1
 62
    39
  6
CONTINUOUS
 10
-0.893256
 20
1.327673
  0
VERTEX
  8
EBENE_1
 62
    39
  6
CONTINUOUS
 10
-0.349850
 20
1.340067
  0
VERTEX
  8
EBENE_1
 62
    39
  6
CONTINUOUS
 10
-0.363614
 20
2.128736
  0
VERTEX
  8
EBENE_1
 62
    39
  6
CONTINUOUS
 10
-1.145862
 20
2.115079
  0
SEQEND
  8
0
  0
POLYLINE
  8
EBENE_1
 62
    39
  6
CONTINUOUS
 66
     1
 40
0.003000
 41
0.003000
 70
     1
  0
VERTEX
  8
EBENE_1
 62
    39
  6
CONTINUOUS
 10
-0.420760
 20
1.856256
  0
VERTEX
  8
EBENE_1
 62
    39
  6
CONTINUOUS
 10
-0.417909
 20
1.855274
  0
VERTEX
  8
EBENE_1
 62
    39
  6
CONTINUOUS
 10
-0.415842
 20
1.852602
  0
VERTEX
  8
EBENE_1
 62
    39
  6
CONTINUOUS
 10
-0.415004
 20
1.848815
  0
VERTEX
  8
EBENE_1
 62
    39
  6
CONTINUOUS
 10
-0.415709
 20
1.845001
  0
VERTEX
  8
EBENE_1
 62
    39
  6
CONTINUOUS
 10
-0.417682
 20
1.842260
  0
VERTEX
  8
EBENE_1
 62
    39
  6
CONTINUOUS
 10
-0.420500
 20
1.841181
  0
VERTEX
  8
EBENE_1
 62
    39
  6
CONTINUOUS
 10
-0.423354
 20
1.842162
  0
VERTEX
  8
EBENE_1
 62
    39
  6
CONTINUOUS
 10
-0.425421
 20
1.844832
  0
VERTEX
  8
EBENE_1
 62
    39
  6
CONTINUOUS
 10
-0.426256
 20
1.848618
  0
VERTEX
  8
EBENE_1
 62
    39
  6
CONTINUOUS
 10
-0.425554
 20
1.852433
  0
VERTEX
  8
EBENE_1
 62
    39
  6
CONTINUOUS
 10
-0.423580
 20
1.855176
  0
SEQEND
  8
0
  0
POLYLINE
  8
EBENE_1
 62
    39
  6
CONTINUOUS
 66
     1
 40
0.003000
 41
0.003000
 70
     1
  0
VERTEX
  8
EBENE_1
 62
    39
  6
CONTINUOUS
 10
-0.415917
 20
1.721929
  0
VERTEX
  8
EBENE_1
 62
    39
  6
CONTINUOUS
 10
-0.413064
 20
1.720948
  0
VERTEX
  8
EBENE_1
 62
    39
  6
CONTINUOUS
 10
-0.410997
 20
1.718276
  0
VERTEX
  8
EBENE_1
 62
    39
  6
CONTINUOUS
 10
-0.410161
 20
1.714488
  0
VERTEX
  8
EBENE_1
 62
    39
  6
CONTINUOUS
 10
-0.410864
 20
1.710674
  0
VERTEX
  8
EBENE_1
 62
    39
  6
CONTINUOUS
 10
-0.412838
 20
1.707932
  0
VERTEX
  8
EBENE_1
 62
    39
  6
CONTINUOUS
 10
-0.415654
 20
1.706850
  0
VERTEX
  8
EBENE_1
 62
    39
  6
CONTINUOUS
 10
-0.418507
 20
1.707832
  0
VERTEX
  8
EBENE_1
 62
    39
  6
CONTINUOUS
 10
-0.420575
 20
1.710504
  0
VERTEX
  8
EBENE_1
 62
    39
  6
CONTINUOUS
 10
-0.421413
 20
1.714291
  0
VERTEX
  8
EBENE_1
 62
    39
  6
CONTINUOUS
 10
-0.420709
 20
1.718105
  0
VERTEX
  8
EBENE_1
 62
    39
  6
CONTINUOUS
 10
-0.418735
 20
1.720847
  0
SEQEND
  8
0
  0
POLYLINE
  8
EBENE_1
 62
    39
  6
CONTINUOUS
 66
     1
 40
0.003000
 41
0.003000
 70
     1
  0
VERTEX
  8
EBENE_1
 62
    39
  6
CONTINUOUS
 10
-0.677461
 20
2.090646
  0
VERTEX
  8
EBENE_1
 62
    39
  6
CONTINUOUS
 10
-0.674607
 20
2.089665
  0
VERTEX
  8
EBENE_1
 62
    39
  6
CONTINUOUS
 10
-0.672540
 20
2.086994
  0
VERTEX
  8
EBENE_1
 62
    39
  6
CONTINUOUS
 10
-0.671705
 20
2.083205
  0
VERTEX
  8
EBENE_1
 62
    39
  6
CONTINUOUS
 10
-0.672407
 20
2.079393
  0
VERTEX
  8
EBENE_1
 62
    39
  6
CONTINUOUS
 10
-0.674379
 20
2.076651
  0
VERTEX
  8
EBENE_1
 62
    39
  6
CONTINUOUS
 10
-0.677197
 20
2.075571
  0
VERTEX
  8
EBENE_1
 62
    39
  6
CONTINUOUS
 10
-0.680051
 20
2.076552
  0
VERTEX
  8
EBENE_1
 62
    39
  6
CONTINUOUS
 10
-0.682119
 20
2.079223
  0
VERTEX
  8
EBENE_1
 62
    39
  6
CONTINUOUS
 10
-0.682957
 20
2.083008
  0
VERTEX
  8
EBENE_1
 62
    39
  6
CONTINUOUS
 10
-0.682252
 20
2.086824
  0
VERTEX
  8
EBENE_1
 62
    39
  6
CONTINUOUS
 10
-0.680278
 20
2.089567
  0
SEQEND
  8
0
  0
POLYLINE
  8
EBENE_1
 62
    39
  6
CONTINUOUS
 66
     1
 40
0.003000
 41
0.003000
 70
     1
  0
VERTEX
  8
EBENE_1
 62
    39
  6
CONTINUOUS
 10
-0.832441
 20
2.085496
  0
VERTEX
  8
EBENE_1
 62
    39
  6
CONTINUOUS
 10
-0.829589
 20
2.084515
  0
VERTEX
  8
EBENE_1
 62
    39
  6
CONTINUOUS
 10
-0.827521
 20
2.081844
  0
VERTEX
  8
EBENE_1
 62
    39
  6
CONTINUOUS
 10
-0.826685
 20
2.078055
  0
VERTEX
  8
EBENE_1
 62
    39
  6
CONTINUOUS
 10
-0.827388
 20
2.074243
  0
VERTEX
  8
EBENE_1
 62
    39
  6
CONTINUOUS
 10
-0.829361
 20
2.071501
  0
VERTEX
  8
EBENE_1
 62
    39
  6
CONTINUOUS
 10
-0.832177
 20
2.070421
  0
VERTEX
  8
EBENE_1
 62
    39
  6
CONTINUOUS
 10
-0.835031
 20
2.071403
  0
VERTEX
  8
EBENE_1
 62
    39
  6
CONTINUOUS
 10
-0.837099
 20
2.074074
  0
VERTEX
  8
EBENE_1
 62
    39
  6
CONTINUOUS
 10
-0.837937
 20
2.077858
  0
VERTEX
  8
EBENE_1
 62
    39
  6
CONTINUOUS
 10
-0.837232
 20
2.081675
  0
VERTEX
  8
EBENE_1
 62
    39
  6
CONTINUOUS
 10
-0.835259
 20
2.084417
  0
SEQEND
  8
0
  0
POLYLINE
  8
EBENE_1
 62
    39
  6
CONTINUOUS
 66
     1
 40
0.010000
 41
0.010000
 70
     1
  0
VERTEX
  8
EBENE_1
 62
    39
  6
CONTINUOUS
 10
-0.597205
 20
1.716028
  0
VERTEX
  8
EBENE_1
 62
    39
  6
CONTINUOUS
 10
-0.589931
 20
1.667426
  0
VERTEX
  8
EBENE_1
 62
    39
  6
CONTINUOUS
 10
-0.573826
 20
1.612337
  0
VERTEX
  8
EBENE_1
 62
    39
  6
CONTINUOUS
 10
-0.548479
 20
1.553080
  0
VERTEX
  8
EBENE_1
 62
    39
  6
CONTINUOUS
 10
-0.513478
 20
1.491971
  0
VERTEX
  8
EBENE_1
 62
    39
  6
CONTINUOUS
 10
-0.468413
 20
1.431330
  0
VERTEX
  8
EBENE_1
 62
    39
  6
CONTINUOUS
 10
-0.412874
 20
1.373475
  0
VERTEX
  8
EBENE_1
 62
    39
  6
CONTINUOUS
 10
-0.346449
 20
1.320724
  0
VERTEX
  8
EBENE_1
 62
    39
  6
CONTINUOUS
 10
0.206469
 20
1.333311
  0
VERTEX
  8
EBENE_1
 62
    39
  6
CONTINUOUS
 10
0.192575
 20
2.129244
  0
VERTEX
  8
EBENE_1
 62
    39
  6
CONTINUOUS
 10
-0.603362
 20
2.115350
  0
SEQEND
  8
0
  0
POLYLINE
  8
EBENE_1
 62
    39
  6
CONTINUOUS
 66
     1
 40
0.003000
 41
0.003000
 70
     1
  0
VERTEX
  8
EBENE_1
 62
    39
  6
CONTINUOUS
 10
-0.588531
 20
1.720071
  0
VERTEX
  8
EBENE_1
 62
    39
  6
CONTINUOUS
 10
-0.581376
 20
1.671912
  0
VERTEX
  8
EBENE_1
 62
    39
  6
CONTINUOUS
 10
-0.565541
 20
1.617325
  0
VERTEX
  8
EBENE_1
 62
    39
  6
CONTINUOUS
 10
-0.540622
 20
1.558605
  0
VERTEX
  8
EBENE_1
 62
    39
  6
CONTINUOUS
 10
-0.506215
 20
1.498049
  0
VERTEX
  8
EBENE_1
 62
    39
  6
CONTINUOUS
 10
-0.461917
 20
1.437956
  0
VERTEX
  8
EBENE_1
 62
    39
  6
CONTINUOUS
 10
-0.407325
 20
1.380621
  0
VERTEX
  8
EBENE_1
 62
    39
  6
CONTINUOUS
 10
-0.342035
 20
1.328343
  0
VERTEX
  8
EBENE_1
 62
    39
  6
CONTINUOUS
 10
0.201370
 20
1.340736
  0
VERTEX
  8
EBENE_1
 62
    39
  6
CONTINUOUS
 10
0.187606
 20
2.129406
  0
VERTEX
  8
EBENE_1
 62
    39
  6
CONTINUOUS
 10
-0.594642
 20
2.115752
  0
SEQEND
  8
0
  0
POLYLINE
  8
EBENE_1
 62
    39
  6
CONTINUOUS
 66
     1
 40
0.003000
 41
0.003000
 70
     1
  0
VERTEX
  8
EBENE_1
 62
    39
  6
CONTINUOUS
 10
0.130461
 20
1.856929
  0
VERTEX
  8
EBENE_1
 62
    39
  6
CONTINUOUS
 10
0.133312
 20
1.855946
  0
VERTEX
  8
EBENE_1
 62
    39
  6
CONTINUOUS
 10
0.135379
 20
1.853274
  0
VERTEX
  8
EBENE_1
 62
    39
  6
CONTINUOUS
 10
0.136217
 20
1.849484
  0
VERTEX
  8
EBENE_1
 62
    39
  6
CONTINUOUS
 10
0.135512
 20
1.845673
  0
VERTEX
  8
EBENE_1
 62
    39
  6
CONTINUOUS
 10
0.133538
 20
1.842932
  0
VERTEX
  8
EBENE_1
 62
    39
  6
CONTINUOUS
 10
0.130720
 20
1.841850
  0
VERTEX
  8
EBENE_1
 62
    39
  6
CONTINUOUS
 10
0.127867
 20
1.842832
  0
VERTEX
  8
EBENE_1
 62
    39
  6
CONTINUOUS
 10
0.125800
 20
1.845503
  0
VERTEX
  8
EBENE_1
 62
    39
  6
CONTINUOUS
 10
0.124965
 20
1.849287
  0
VERTEX
  8
EBENE_1
 62
    39
  6
CONTINUOUS
 10
0.125667
 20
1.853104
  0
VERTEX
  8
EBENE_1
 62
    39
  6
CONTINUOUS
 10
0.127640
 20
1.855847
  0
SEQEND
  8
0
  0
POLYLINE
  8
EBENE_1
 62
    39
  6
CONTINUOUS
 66
     1
 40
0.003000
 41
0.003000
 70
     1
  0
VERTEX
  8
EBENE_1
 62
    39
  6
CONTINUOUS
 10
0.135303
 20
1.722598
  0
VERTEX
  8
EBENE_1
 62
    39
  6
CONTINUOUS
 10
0.138157
 20
1.721617
  0
VERTEX
  8
EBENE_1
 62
    39
  6
CONTINUOUS
 10
0.140224
 20
1.718945
  0
VERTEX
  8
EBENE_1
 62
    39
  6
CONTINUOUS
 10
0.141059
 20
1.715157
  0
VERTEX
  8
EBENE_1
 62
    39
  6
CONTINUOUS
 10
0.140356
 20
1.711344
  0
VERTEX
  8
EBENE_1
 62
    39
  6
CONTINUOUS
 10
0.138383
 20
1.708601
  0
VERTEX
  8
EBENE_1
 62
    39
  6
CONTINUOUS
 10
0.135567
 20
1.707520
  0
VERTEX
  8
EBENE_1
 62
    39
  6
CONTINUOUS
 10
0.132713
 20
1.708503
  0
VERTEX
  8
EBENE_1
 62
    39
  6
CONTINUOUS
 10
0.130645
 20
1.711174
  0
VERTEX
  8
EBENE_1
 62
    39
  6
CONTINUOUS
 10
0.129807
 20
1.714961
  0
VERTEX
  8
EBENE_1
 62
    39
  6
CONTINUOUS
 10
0.130512
 20
1.718775
  0
VERTEX
  8
EBENE_1
 62
    39
  6
CONTINUOUS
 10
0.132485
 20
1.721517
  0
SEQEND
  8
0
  0
POLYLINE
  8
EBENE_1
 62
    39
  6
CONTINUOUS
 66
     1
 40
0.003000
 41
0.003000
 70
     1
  0
VERTEX
  8
EBENE_1
 62
    39
  6
CONTINUOUS
 10
-0.126240
 20
2.091319
  0
VERTEX
  8
EBENE_1
 62
    39
  6
CONTINUOUS
 10
-0.123386
 20
2.090335
  0
VERTEX
  8
EBENE_1
 62
    39
  6
CONTINUOUS
 10
-0.121318
 20
2.087663
  0
VERTEX
  8
EBENE_1
 62
    39
  6
CONTINUOUS
 10
-0.120480
 20
2.083874
  0
VERTEX
  8
EBENE_1
 62
    39
  6
CONTINUOUS
 10
-0.121185
 20
2.080063
  0
VERTEX
  8
EBENE_1
 62
    39
  6
CONTINUOUS
 10
-0.123159
 20
2.077322
  0
VERTEX
  8
EBENE_1
 62
    39
  6
CONTINUOUS
 10
-0.125976
 20
2.076240
  0
VERTEX
  8
EBENE_1
 62
    39
  6
CONTINUOUS
 10
-0.128830
 20
2.077222
  0
VERTEX
  8
EBENE_1
 62
    39
  6
CONTINUOUS
 10
-0.130897
 20
2.079894
  0
VERTEX
  8
EBENE_1
 62
    39
  6
CONTINUOUS
 10
-0.131732
 20
2.083681
  0
VERTEX
  8
EBENE_1
 62
    39
  6
CONTINUOUS
 10
-0.131030
 20
2.087495
  0
VERTEX
  8
EBENE_1
 62
    39
  6
CONTINUOUS
 10
-0.129058
 20
2.090237
  0
SEQEND
  8
0
  0
POLYLINE
  8
EBENE_1
 62
    39
  6
CONTINUOUS
 66
     1
 40
0.003000
 41
0.003000
 70
     1
  0
VERTEX
  8
EBENE_1
 62
    39
  6
CONTINUOUS
 10
-0.281220
 20
2.086169
  0
VERTEX
  8
EBENE_1
 62
    39
  6
CONTINUOUS
 10
-0.278367
 20
2.085188
  0
VERTEX
  8
EBENE_1
 62
    39
  6
CONTINUOUS
 10
-0.276300
 20
2.082516
  0
VERTEX
  8
EBENE_1
 62
    39
  6
CONTINUOUS
 10
-0.275465
 20
2.078728
  0
VERTEX
  8
EBENE_1
 62
    39
  6
CONTINUOUS
 10
-0.276168
 20
2.074914
  0
VERTEX
  8
EBENE_1
 62
    39
  6
CONTINUOUS
 10
-0.278141
 20
2.072172
  0
VERTEX
  8
EBENE_1
 62
    39
  6
CONTINUOUS
 10
-0.280957
 20
2.071091
  0
VERTEX
  8
EBENE_1
 62
    39
  6
CONTINUOUS
 10
-0.283810
 20
2.072072
  0
VERTEX
  8
EBENE_1
 62
    39
  6
CONTINUOUS
 10
-0.285879
 20
2.074744
  0
VERTEX
  8
EBENE_1
 62
    39
  6
CONTINUOUS
 10
-0.286717
 20
2.078531
  0
VERTEX
  8
EBENE_1
 62
    39
  6
CONTINUOUS
 10
-0.286012
 20
2.082345
  0
VERTEX
  8
EBENE_1
 62
    39
  6
CONTINUOUS
 10
-0.284038
 20
2.085088
  0
SEQEND
  8
0
  0
POLYLINE
  8
EBENE_1
 62
    39
  6
CONTINUOUS
 66
     1
 40
0.010000
 41
0.010000
 70
     1
  0
VERTEX
  8
EBENE_1
 62
    39
  6
CONTINUOUS
 10
-0.045984
 20
1.716697
  0
VERTEX
  8
EBENE_1
 62
    39
  6
CONTINUOUS
 10
-0.038711
 20
1.668095
  0
VERTEX
  8
EBENE_1
 62
    39
  6
CONTINUOUS
 10
-0.022605
 20
1.613007
  0
VERTEX
  8
EBENE_1
 62
    39
  6
CONTINUOUS
 10
0.002742
 20
1.553749
  0
VERTEX
  8
EBENE_1
 62
    39
  6
CONTINUOUS
 10
0.037742
 20
1.492641
  0
VERTEX
  8
EBENE_1
 62
    39
  6
CONTINUOUS
 10
0.082807
 20
1.432001
  0
VERTEX
  8
EBENE_1
 62
    39
  6
CONTINUOUS
 10
0.138346
 20
1.374147
  0
VERTEX
  8
EBENE_1
 62
    39
  6
CONTINUOUS
 10
0.204772
 20
1.321398
  0
VERTEX
  8
EBENE_1
 62
    39
  6
CONTINUOUS
 10
0.757689
 20
1.333984
  0
VERTEX
  8
EBENE_1
 62
    39
  6
CONTINUOUS
 10
0.743795
 20
2.129913
  0
VERTEX
  8
EBENE_1
 62
    39
  6
CONTINUOUS
 10
-0.052142
 20
2.116024
  0
SEQEND
  8
0
  0
POLYLINE
  8
EBENE_1
 62
    39
  6
CONTINUOUS
 66
     1
 40
0.003000
 41
0.003000
 70
     1
  0
VERTEX
  8
EBENE_1
 62
    39
  6
CONTINUOUS
 10
-0.037311
 20
1.720740
  0
VERTEX
  8
EBENE_1
 62
    39
  6
CONTINUOUS
 10
-0.030156
 20
1.672582
  0
VERTEX
  8
EBENE_1
 62
    39
  6
CONTINUOUS
 10
-0.014321
 20
1.617994
  0
VERTEX
  8
EBENE_1
 62
    39
  6
CONTINUOUS
 10
0.010599
 20
1.559274
  0
VERTEX
  8
EBENE_1
 62
    39
  6
CONTINUOUS
 10
0.045006
 20
1.498719
  0
VERTEX
  8
EBENE_1
 62
    39
  6
CONTINUOUS
 10
0.089303
 20
1.438627
  0
VERTEX
  8
EBENE_1
 62
    39
  6
CONTINUOUS
 10
0.143895
 20
1.381293
  0
VERTEX
  8
EBENE_1
 62
    39
  6
CONTINUOUS
 10
0.209185
 20
1.329016
  0
VERTEX
  8
EBENE_1
 62
    39
  6
CONTINUOUS
 10
0.752594
 20
1.341406
  0
VERTEX
  8
EBENE_1
 62
    39
  6
CONTINUOUS
 10
0.738827
 20
2.130075
  0
VERTEX
  8
EBENE_1
 62
    39
  6
CONTINUOUS
 10
-0.043421
 20
2.116421
  0
SEQEND
  8
0
  0
POLYLINE
  8
EBENE_1
 62
    39
  6
CONTINUOUS
 66
     1
 40
0.003000
 41
0.003000
 70
     1
  0
VERTEX
  8
EBENE_1
 62
    39
  6
CONTINUOUS
 10
0.681681
 20
1.857598
  0
VERTEX
  8
EBENE_1
 62
    39
  6
CONTINUOUS
 10
0.684532
 20
1.856617
  0
VERTEX
  8
EBENE_1
 62
    39
  6
CONTINUOUS
 10
0.686599
 20
1.853945
  0
VERTEX
  8
EBENE_1
 62
    39
  6
CONTINUOUS
 10
0.687437
 20
1.850157
  0
VERTEX
  8
EBENE_1
 62
    39
  6
CONTINUOUS
 10
0.686732
 20
1.846344
  0
VERTEX
  8
EBENE_1
 62
    39
  6
CONTINUOUS
 10
0.684759
 20
1.843601
  0
VERTEX
  8
EBENE_1
 62
    39
  6
CONTINUOUS
 10
0.681941
 20
1.842520
  0
VERTEX
  8
EBENE_1
 62
    39
  6
CONTINUOUS
 10
0.679087
 20
1.843501
  0
VERTEX
  8
EBENE_1
 62
    39
  6
CONTINUOUS
 10
0.677020
 20
1.846173
  0
VERTEX
  8
EBENE_1
 62
    39
  6
CONTINUOUS
 10
0.676185
 20
1.849961
  0
VERTEX
  8
EBENE_1
 62
    39
  6
CONTINUOUS
 10
0.676888
 20
1.853775
  0
VERTEX
  8
EBENE_1
 62
    39
  6
CONTINUOUS
 10
0.678862
 20
1.856517
  0
SEQEND
  8
0
  0
POLYLINE
  8
EBENE_1
 62
    39
  6
CONTINUOUS
 66
     1
 40
0.003000
 41
0.003000
 70
     1
  0
VERTEX
  8
EBENE_1
 62
    39
  6
CONTINUOUS
 10
0.686524
 20
1.723268
  0
VERTEX
  8
EBENE_1
 62
    39
  6
CONTINUOUS
 10
0.689377
 20
1.722287
  0
VERTEX
  8
EBENE_1
 62
    39
  6
CONTINUOUS
 10
0.691444
 20
1.719616
  0
VERTEX
  8
EBENE_1
 62
    39
  6
CONTINUOUS
 10
0.692280
 20
1.715827
  0
VERTEX
  8
EBENE_1
 62
    39
  6
CONTINUOUS
 10
0.691577
 20
1.712015
  0
VERTEX
  8
EBENE_1
 62
    39
  6
CONTINUOUS
 10
0.689603
 20
1.709273
  0
VERTEX
  8
EBENE_1
 62
    39
  6
CONTINUOUS
 10
0.686787
 20
1.708193
  0
VERTEX
  8
EBENE_1
 62
    39
  6
CONTINUOUS
 10
0.683934
 20
1.709174
  0
VERTEX
  8
EBENE_1
 62
    39
  6
CONTINUOUS
 10
0.681866
 20
1.711845
  0
VERTEX
  8
EBENE_1
 62
    39
  6
CONTINUOUS
 10
0.681028
 20
1.715630
  0
VERTEX
  8
EBENE_1
 62
    39
  6
CONTINUOUS
 10
0.681732
 20
1.719446
  0
VERTEX
  8
EBENE_1
 62
    39
  6
CONTINUOUS
 10
0.683706
 20
1.722189
  0
SEQEND
  8
0
  0
POLYLINE
  8
EBENE_1
 62
    39
  6
CONTINUOUS
 66
     1
 40
0.003000
 41
0.003000
 70
     1
  0
VERTEX
  8
EBENE_1
 62
    39
  6
CONTINUOUS
 10
0.424984
 20
2.091988
  0
VERTEX
  8
EBENE_1
 62
    39
  6
CONTINUOUS
 10
0.427835
 20
2.091007
  0
VERTEX
  8
EBENE_1
 62
    39
  6
CONTINUOUS
 10
0.429902
 20
2.088335
  0
VERTEX
  8
EBENE_1
 62
    39
  6
CONTINUOUS
 10
0.430740
 20
2.084547
  0
VERTEX
  8
EBENE_1
 62
    39
  6
CONTINUOUS
 10
0.430035
 20
2.080733
  0
VERTEX
  8
EBENE_1
 62
    39
  6
CONTINUOUS
 10
0.428062
 20
2.077991
  0
VERTEX
  8
EBENE_1
 62
    39
  6
CONTINUOUS
 10
0.425244
 20
2.076909
  0
VERTEX
  8
EBENE_1
 62
    39
  6
CONTINUOUS
 10
0.422390
 20
2.077893
  0
VERTEX
  8
EBENE_1
 62
    39
  6
CONTINUOUS
 10
0.420323
 20
2.080564
  0
VERTEX
  8
EBENE_1
 62
    39
  6
CONTINUOUS
 10
0.419488
 20
2.084350
  0
VERTEX
  8
EBENE_1
 62
    39
  6
CONTINUOUS
 10
0.420190
 20
2.088164
  0
VERTEX
  8
EBENE_1
 62
    39
  6
CONTINUOUS
 10
0.422164
 20
2.090907
  0
SEQEND
  8
0
  0
POLYLINE
  8
EBENE_1
 62
    39
  6
CONTINUOUS
 66
     1
 40
0.003000
 41
0.003000
 70
     1
  0
VERTEX
  8
EBENE_1
 62
    39
  6
CONTINUOUS
 10
0.270000
 20
2.086839
  0
VERTEX
  8
EBENE_1
 62
    39
  6
CONTINUOUS
 10
0.272854
 20
2.085857
  0
VERTEX
  8
EBENE_1
 62
    39
  6
CONTINUOUS
 10
0.274921
 20
2.083185
  0
VERTEX
  8
EBENE_1
 62
    39
  6
CONTINUOUS
 10
0.275756
 20
2.079398
  0
VERTEX
  8
EBENE_1
 62
    39
  6
CONTINUOUS
 10
0.275053
 20
2.075584
  0
VERTEX
  8
EBENE_1
 62
    39
  6
CONTINUOUS
 10
0.273080
 20
2.072841
  0
VERTEX
  8
EBENE_1
 62
    39
  6
CONTINUOUS
 10
0.270264
 20
2.071760
  0
VERTEX
  8
EBENE_1
 62
    39
  6
CONTINUOUS
 10
0.267410
 20
2.072743
  0
VERTEX
  8
EBENE_1
 62
    39
  6
CONTINUOUS
 10
0.265342
 20
2.075414
  0
VERTEX
  8
EBENE_1
 62
    39
  6
CONTINUOUS
 10
0.264504
 20
2.079201
  0
VERTEX
  8
EBENE_1
 62
    39
  6
CONTINUOUS
 10
0.265209
 20
2.083015
  0
VERTEX
  8
EBENE_1
 62
    39
  6
CONTINUOUS
 10
0.267182
 20
2.085757
  0
SEQEND
  8
0
  0
POLYLINE
  8
EBENE_1
 62
    39
  6
CONTINUOUS
 66
     1
 40
0.010000
 41
0.010000
 70
     1
  0
VERTEX
  8
EBENE_1
 62
    39
  6
CONTINUOUS
 10
0.505236
 20
1.717366
  0
VERTEX
  8
EBENE_1
 62
    39
  6
CONTINUOUS
 10
0.512510
 20
1.668765
  0
VERTEX
  8
EBENE_1
 62
    39
  6
CONTINUOUS
 10
0.528615
 20
1.613677
  0
VERTEX
  8
EBENE_1
 62
    39
  6
CONTINUOUS
 10
0.553962
 20
1.554420
  0
VERTEX
  8
EBENE_1
 62
    39
  6
CONTINUOUS
 10
0.588963
 20
1.493312
  0
VERTEX
  8
EBENE_1
 62
    39
  6
CONTINUOUS
 10
0.634027
 20
1.432672
  0
VERTEX
  8
EBENE_1
 62
    39
  6
CONTINUOUS
 10
0.689567
 20
1.374817
  0
VERTEX
  8
EBENE_1
 62
    39
  6
CONTINUOUS
 10
0.755992
 20
1.322067
  0
VERTEX
  8
EBENE_1
 62
    39
  6
CONTINUOUS
 10
1.308909
 20
1.334654
  0
VERTEX
  8
EBENE_1
 62
    39
  6
CONTINUOUS
 10
1.295016
 20
2.130587
  0
VERTEX
  8
EBENE_1
 62
    39
  6
CONTINUOUS
 10
0.499079
 20
2.116693
  0
SEQEND
  8
0
  0
POLYLINE
  8
EBENE_1
 62
    39
  6
CONTINUOUS
 66
     1
 40
0.003000
 41
0.003000
 70
     1
  0
VERTEX
  8
EBENE_1
 62
    39
  6
CONTINUOUS
 10
0.513909
 20
1.721409
  0
VERTEX
  8
EBENE_1
 62
    39
  6
CONTINUOUS
 10
0.521065
 20
1.673251
  0
VERTEX
  8
EBENE_1
 62
    39
  6
CONTINUOUS
 10
0.536900
 20
1.618663
  0
VERTEX
  8
EBENE_1
 62
    39
  6
CONTINUOUS
 10
0.561819
 20
1.559944
  0
VERTEX
  8
EBENE_1
 62
    39
  6
CONTINUOUS
 10
0.596226
 20
1.499389
  0
VERTEX
  8
EBENE_1
 62
    39
  6
CONTINUOUS
 10
0.640524
 20
1.439296
  0
VERTEX
  8
EBENE_1
 62
    39
  6
CONTINUOUS
 10
0.695116
 20
1.381962
  0
VERTEX
  8
EBENE_1
 62
    39
  6
CONTINUOUS
 10
0.760406
 20
1.329685
  0
VERTEX
  8
EBENE_1
 62
    39
  6
CONTINUOUS
 10
1.303815
 20
1.342079
  0
VERTEX
  8
EBENE_1
 62
    39
  6
CONTINUOUS
 10
1.290047
 20
2.130744
  0
VERTEX
  8
EBENE_1
 62
    39
  6
CONTINUOUS
 10
0.507799
 20
2.117091
  0
SEQEND
  8
0
  0
POLYLINE
  8
EBENE_1
 62
    39
  6
CONTINUOUS
 66
     1
 40
0.003000
 41
0.003000
 70
     1
  0
VERTEX
  8
EBENE_1
 62
    39
  6
CONTINUOUS
 10
1.232902
 20
1.858268
  0
VERTEX
  8
EBENE_1
 62
    39
  6
CONTINUOUS
 10
1.235753
 20
1.857286
  0
VERTEX
  8
EBENE_1
 62
    39
  6
CONTINUOUS
 10
1.237820
 20
1.854614
  0
VERTEX
  8
EBENE_1
 62
    39
  6
CONTINUOUS
 10
1.238657
 20
1.850827
  0
VERTEX
  8
EBENE_1
 62
    39
  6
CONTINUOUS
 10
1.237953
 20
1.847013
  0
VERTEX
  8
EBENE_1
 62
    39
  6
CONTINUOUS
 10
1.235980
 20
1.844271
  0
VERTEX
  8
EBENE_1
 62
    39
  6
CONTINUOUS
 10
1.233165
 20
1.843189
  0
VERTEX
  8
EBENE_1
 62
    39
  6
CONTINUOUS
 10
1.230309
 20
1.844172
  0
VERTEX
  8
EBENE_1
 62
    39
  6
CONTINUOUS
 10
1.228241
 20
1.846843
  0
VERTEX
  8
EBENE_1
 62
    39
  6
CONTINUOUS
 10
1.227406
 20
1.850630
  0
VERTEX
  8
EBENE_1
 62
    39
  6
CONTINUOUS
 10
1.228109
 20
1.854444
  0
VERTEX
  8
EBENE_1
 62
    39
  6
CONTINUOUS
 10
1.230083
 20
1.857186
  0
SEQEND
  8
0
  0
POLYLINE
  8
EBENE_1
 62
    39
  6
CONTINUOUS
 66
     1
 40
0.003000
 41
0.003000
 70
     1
  0
VERTEX
  8
EBENE_1
 62
    39
  6
CONTINUOUS
 10
1.237744
 20
1.723941
  0
VERTEX
  8
EBENE_1
 62
    39
  6
CONTINUOUS
 10
1.240598
 20
1.722958
  0
VERTEX
  8
EBENE_1
 62
    39
  6
CONTINUOUS
 10
1.242665
 20
1.720287
  0
VERTEX
  8
EBENE_1
 62
    39
  6
CONTINUOUS
 10
1.243500
 20
1.716500
  0
VERTEX
  8
EBENE_1
 62
    39
  6
CONTINUOUS
 10
1.242798
 20
1.712686
  0
VERTEX
  8
EBENE_1
 62
    39
  6
CONTINUOUS
 10
1.240825
 20
1.709944
  0
VERTEX
  8
EBENE_1
 62
    39
  6
CONTINUOUS
 10
1.238008
 20
1.708862
  0
VERTEX
  8
EBENE_1
 62
    39
  6
CONTINUOUS
 10
1.235154
 20
1.709844
  0
VERTEX
  8
EBENE_1
 62
    39
  6
CONTINUOUS
 10
1.233086
 20
1.712516
  0
VERTEX
  8
EBENE_1
 62
    39
  6
CONTINUOUS
 10
1.232248
 20
1.716303
  0
VERTEX
  8
EBENE_1
 62
    39
  6
CONTINUOUS
 10
1.232953
 20
1.720117
  0
VERTEX
  8
EBENE_1
 62
    39
  6
CONTINUOUS
 10
1.234926
 20
1.722859
  0
SEQEND
  8
0
  0
POLYLINE
  8
EBENE_1
 62
    39
  6
CONTINUOUS
 66
     1
 40
0.003000
 41
0.003000
 70
     1
  0
VERTEX
  8
EBENE_1
 62
    39
  6
CONTINUOUS
 10
0.976205
 20
2.092657
  0
VERTEX
  8
EBENE_1
 62
    39
  6
CONTINUOUS
 10
0.979056
 20
2.091676
  0
VERTEX
  8
EBENE_1
 62
    39
  6
CONTINUOUS
 10
0.981123
 20
2.089004
  0
VERTEX
  8
EBENE_1
 62
    39
  6
CONTINUOUS
 10
0.981961
 20
2.085217
  0
VERTEX
  8
EBENE_1
 62
    39
  6
CONTINUOUS
 10
0.981256
 20
2.081403
  0
VERTEX
  8
EBENE_1
 62
    39
  6
CONTINUOUS
 10
0.979282
 20
2.078662
  0
VERTEX
  8
EBENE_1
 62
    39
  6
CONTINUOUS
 10
0.976465
 20
2.077583
  0
VERTEX
  8
EBENE_1
 62
    39
  6
CONTINUOUS
 10
0.973611
 20
2.078564
  0
VERTEX
  8
EBENE_1
 62
    39
  6
CONTINUOUS
 10
0.971544
 20
2.081235
  0
VERTEX
  8
EBENE_1
 62
    39
  6
CONTINUOUS
 10
0.970709
 20
2.085020
  0
VERTEX
  8
EBENE_1
 62
    39
  6
CONTINUOUS
 10
0.971411
 20
2.088836
  0
VERTEX
  8
EBENE_1
 62
    39
  6
CONTINUOUS
 10
0.973384
 20
2.091578
  0
SEQEND
  8
0
  0
POLYLINE
  8
EBENE_1
 62
    39
  6
CONTINUOUS
 66
     1
 40
0.003000
 41
0.003000
 70
     1
  0
VERTEX
  8
EBENE_1
 62
    39
  6
CONTINUOUS
 10
0.821220
 20
2.087508
  0
VERTEX
  8
EBENE_1
 62
    39
  6
CONTINUOUS
 10
0.824074
 20
2.086526
  0
VERTEX
  8
EBENE_1
 62
    39
  6
CONTINUOUS
 10
0.826141
 20
2.083854
  0
VERTEX
  8
EBENE_1
 62
    39
  6
CONTINUOUS
 10
0.826976
 20
2.080067
  0
VERTEX
  8
EBENE_1
 62
    39
  6
CONTINUOUS
 10
0.826273
 20
2.076253
  0
VERTEX
  8
EBENE_1
 62
    39
  6
CONTINUOUS
 10
0.824300
 20
2.073512
  0
VERTEX
  8
EBENE_1
 62
    39
  6
CONTINUOUS
 10
0.821484
 20
2.072433
  0
VERTEX
  8
EBENE_1
 62
    39
  6
CONTINUOUS
 10
0.818631
 20
2.073415
  0
VERTEX
  8
EBENE_1
 62
    39
  6
CONTINUOUS
 10
0.816562
 20
2.076085
  0
VERTEX
  8
EBENE_1
 62
    39
  6
CONTINUOUS
 10
0.815724
 20
2.079870
  0
VERTEX
  8
EBENE_1
 62
    39
  6
CONTINUOUS
 10
0.816429
 20
2.083687
  0
VERTEX
  8
EBENE_1
 62
    39
  6
CONTINUOUS
 10
0.818403
 20
2.086429
  0
SEQEND
  8
0
  0
POLYLINE
  8
EBENE_1
 62
    39
  6
CONTINUOUS
 66
     1
 40
0.010000
 41
0.010000
 70
     1
  0
VERTEX
  8
EBENE_1
 62
    39
  6
CONTINUOUS
 10
1.056461
 20
1.718039
  0
VERTEX
  8
EBENE_1
 62
    39
  6
CONTINUOUS
 10
1.063734
 20
1.669438
  0
VERTEX
  8
EBENE_1
 62
    39
  6
CONTINUOUS
 10
1.079839
 20
1.614349
  0
VERTEX
  8
EBENE_1
 62
    39
  6
CONTINUOUS
 10
1.105185
 20
1.555091
  0
VERTEX
  8
EBENE_1
 62
    39
  6
CONTINUOUS
 10
1.140185
 20
1.493983
  0
VERTEX
  8
EBENE_1
 62
    39
  6
CONTINUOUS
 10
1.185249
 20
1.433342
  0
VERTEX
  8
EBENE_1
 62
    39
  6
CONTINUOUS
 10
1.240788
 20
1.375487
  0
VERTEX
  8
EBENE_1
 62
    39
  6
CONTINUOUS
 10
1.307213
 20
1.322736
  0
VERTEX
  8
EBENE_1
 62
    39
  6
CONTINUOUS
 10
1.860130
 20
1.335323
  0
VERTEX
  8
EBENE_1
 62
    39
  6
CONTINUOUS
 10
1.846236
 20
2.131256
  0
VERTEX
  8
EBENE_1
 62
    39
  6
CONTINUOUS
 10
1.050299
 20
2.117362
  0
SEQEND
  8
0
  0
POLYLINE
  8
EBENE_1
 62
    39
  6
CONTINUOUS
 66
     1
 40
0.003000
 41
0.003000
 70
     1
  0
VERTEX
  8
EBENE_1
 62
    39
  6
CONTINUOUS
 10
1.065130
 20
1.722083
  0
VERTEX
  8
EBENE_1
 62
    39
  6
CONTINUOUS
 10
1.072285
 20
1.673924
  0
VERTEX
  8
EBENE_1
 62
    39
  6
CONTINUOUS
 10
1.088120
 20
1.619336
  0
VERTEX
  8
EBENE_1
 62
    39
  6
CONTINUOUS
 10
1.113040
 20
1.560615
  0
VERTEX
  8
EBENE_1
 62
    39
  6
CONTINUOUS
 10
1.147446
 20
1.500060
  0
VERTEX
  8
EBENE_1
 62
    39
  6
CONTINUOUS
 10
1.191744
 20
1.439966
  0
VERTEX
  8
EBENE_1
 62
    39
  6
CONTINUOUS
 10
1.246336
 20
1.382632
  0
VERTEX
  8
EBENE_1
 62
    39
  6
CONTINUOUS
 10
1.311626
 20
1.330354
  0
VERTEX
  8
EBENE_1
 62
    39
  6
CONTINUOUS
 10
1.855035
 20
1.342748
  0
VERTEX
  8
EBENE_1
 62
    39
  6
CONTINUOUS
 10
1.841268
 20
2.131417
  0
VERTEX
  8
EBENE_1
 62
    39
  6
CONTINUOUS
 10
1.059020
 20
2.117764
  0
SEQEND
  8
0
  0
POLYLINE
  8
EBENE_1
 62
    39
  6
CONTINUOUS
 66
     1
 40
0.003000
 41
0.003000
 70
     1
  0
VERTEX
  8
EBENE_1
 62
    39
  6
CONTINUOUS
 10
1.784122
 20
1.858937
  0
VERTEX
  8
EBENE_1
 62
    39
  6
CONTINUOUS
 10
1.786973
 20
1.857956
  0
VERTEX
  8
EBENE_1
 62
    39
  6
CONTINUOUS
 10
1.789040
 20
1.855285
  0
VERTEX
  8
EBENE_1
 62
    39
  6
CONTINUOUS
 10
1.789878
 20
1.851496
  0
VERTEX
  8
EBENE_1
 62
    39
  6
CONTINUOUS
 10
1.789173
 20
1.847684
  0
VERTEX
  8
EBENE_1
 62
    39
  6
CONTINUOUS
 10
1.787201
 20
1.844942
  0
VERTEX
  8
EBENE_1
 62
    39
  6
CONTINUOUS
 10
1.784386
 20
1.843862
  0
VERTEX
  8
EBENE_1
 62
    39
  6
CONTINUOUS
 10
1.781531
 20
1.844844
  0
VERTEX
  8
EBENE_1
 62
    39
  6
CONTINUOUS
 10
1.779462
 20
1.847515
  0
VERTEX
  8
EBENE_1
 62
    39
  6
CONTINUOUS
 10
1.778626
 20
1.851299
  0
VERTEX
  8
EBENE_1
 62
    39
  6
CONTINUOUS
 10
1.779329
 20
1.855116
  0
VERTEX
  8
EBENE_1
 62
    39
  6
CONTINUOUS
 10
1.781303
 20
1.857858
  0
SEQEND
  8
0
  0
POLYLINE
  8
EBENE_1
 62
    39
  6
CONTINUOUS
 66
     1
 40
0.003000
 41
0.003000
 70
     1
  0
VERTEX
  8
EBENE_1
 62
    39
  6
CONTINUOUS
 10
1.788965
 20
1.724610
  0
VERTEX
  8
EBENE_1
 62
    39
  6
CONTINUOUS
 10
1.791818
 20
1.723629
  0
VERTEX
  8
EBENE_1
 62
    39
  6
CONTINUOUS
 10
1.793885
 20
1.720957
  0
VERTEX
  8
EBENE_1
 62
    39
  6
CONTINUOUS
 10
1.794720
 20
1.717169
  0
VERTEX
  8
EBENE_1
 62
    39
  6
CONTINUOUS
 10
1.794018
 20
1.713355
  0
VERTEX
  8
EBENE_1
 62
    39
  6
CONTINUOUS
 10
1.792046
 20
1.710613
  0
VERTEX
  8
EBENE_1
 62
    39
  6
CONTINUOUS
 10
1.789228
 20
1.709531
  0
VERTEX
  8
EBENE_1
 62
    39
  6
CONTINUOUS
 10
1.786375
 20
1.710515
  0
VERTEX
  8
EBENE_1
 62
    39
  6
CONTINUOUS
 10
1.784307
 20
1.713186
  0
VERTEX
  8
EBENE_1
 62
    39
  6
CONTINUOUS
 10
1.783469
 20
1.716972
  0
VERTEX
  8
EBENE_1
 62
    39
  6
CONTINUOUS
 10
1.784173
 20
1.720786
  0
VERTEX
  8
EBENE_1
 62
    39
  6
CONTINUOUS
 10
1.786147
 20
1.723529
  0
SEQEND
  8
0
  0
POLYLINE
  8
EBENE_1
 62
    39
  6
CONTINUOUS
 66
     1
 40
0.003000
 41
0.003000
 70
     1
  0
VERTEX
  8
EBENE_1
 62
    39
  6
CONTINUOUS
 10
1.527425
 20
2.093331
  0
VERTEX
  8
EBENE_1
 62
    39
  6
CONTINUOUS
 10
1.530276
 20
2.092347
  0
VERTEX
  8
EBENE_1
 62
    39
  6
CONTINUOUS
 10
1.532343
 20
2.089675
  0
VERTEX
  8
EBENE_1
 62
    39
  6
CONTINUOUS
 10
1.533181
 20
2.085886
  0
VERTEX
  8
EBENE_1
 62
    39
  6
CONTINUOUS
 10
1.532476
 20
2.082075
  0
VERTEX
  8
EBENE_1
 62
    39
  6
CONTINUOUS
 10
1.530503
 20
2.079333
  0
VERTEX
  8
EBENE_1
 62
    39
  6
CONTINUOUS
 10
1.527685
 20
2.078252
  0
VERTEX
  8
EBENE_1
 62
    39
  6
CONTINUOUS
 10
1.524831
 20
2.079234
  0
VERTEX
  8
EBENE_1
 62
    39
  6
CONTINUOUS
 10
1.522764
 20
2.081906
  0
VERTEX
  8
EBENE_1
 62
    39
  6
CONTINUOUS
 10
1.521929
 20
2.085693
  0
VERTEX
  8
EBENE_1
 62
    39
  6
CONTINUOUS
 10
1.522632
 20
2.089507
  0
VERTEX
  8
EBENE_1
 62
    39
  6
CONTINUOUS
 10
1.524607
 20
2.092249
  0
SEQEND
  8
0
  0
POLYLINE
  8
EBENE_1
 62
    39
  6
CONTINUOUS
 66
     1
 40
0.003000
 41
0.003000
 70
     1
  0
VERTEX
  8
EBENE_1
 62
    39
  6
CONTINUOUS
 10
1.372441
 20
2.088181
  0
VERTEX
  8
EBENE_1
 62
    39
  6
CONTINUOUS
 10
1.375295
 20
2.087198
  0
VERTEX
  8
EBENE_1
 62
    39
  6
CONTINUOUS
 10
1.377362
 20
2.084526
  0
VERTEX
  8
EBENE_1
 62
    39
  6
CONTINUOUS
 10
1.378197
 20
2.080736
  0
VERTEX
  8
EBENE_1
 62
    39
  6
CONTINUOUS
 10
1.377495
 20
2.076925
  0
VERTEX
  8
EBENE_1
 62
    39
  6
CONTINUOUS
 10
1.375522
 20
2.074184
  0
VERTEX
  8
EBENE_1
 62
    39
  6
CONTINUOUS
 10
1.372705
 20
2.073102
  0
VERTEX
  8
EBENE_1
 62
    39
  6
CONTINUOUS
 10
1.369851
 20
2.074084
  0
VERTEX
  8
EBENE_1
 62
    39
  6
CONTINUOUS
 10
1.367783
 20
2.076756
  0
VERTEX
  8
EBENE_1
 62
    39
  6
CONTINUOUS
 10
1.366945
 20
2.080543
  0
VERTEX
  8
EBENE_1
 62
    39
  6
CONTINUOUS
 10
1.367650
 20
2.084357
  0
VERTEX
  8
EBENE_1
 62
    39
  6
CONTINUOUS
 10
1.369623
 20
2.087099
  0
SEQEND
  8
0
  0
POLYLINE
  8
EBENE_1
 62
    39
  6
CONTINUOUS
 66
     1
 40
0.010000
 41
0.010000
 70
     1
  0
VERTEX
  8
EBENE_1
 62
    39
  6
CONTINUOUS
 10
1.607681
 20
1.718709
  0
VERTEX
  8
EBENE_1
 62
    39
  6
CONTINUOUS
 10
1.614955
 20
1.670107
  0
VERTEX
  8
EBENE_1
 62
    39
  6
CONTINUOUS
 10
1.631059
 20
1.615019
  0
VERTEX
  8
EBENE_1
 62
    39
  6
CONTINUOUS
 10
1.656406
 20
1.555761
  0
VERTEX
  8
EBENE_1
 62
    39
  6
CONTINUOUS
 10
1.691405
 20
1.494653
  0
VERTEX
  8
EBENE_1
 62
    39
  6
CONTINUOUS
 10
1.736469
 20
1.434013
  0
VERTEX
  8
EBENE_1
 62
    39
  6
CONTINUOUS
 10
1.792008
 20
1.376159
  0
VERTEX
  8
EBENE_1
 62
    39
  6
CONTINUOUS
 10
1.858433
 20
1.323409
  0
VERTEX
  8
EBENE_1
 62
    39
  6
CONTINUOUS
 10
2.411350
 20
1.335992
  0
VERTEX
  8
EBENE_1
 62
    39
  6
CONTINUOUS
 10
2.397457
 20
2.131925
  0
VERTEX
  8
EBENE_1
 62
    39
  6
CONTINUOUS
 10
1.601520
 20
2.118031
  0
SEQEND
  8
0
  0
POLYLINE
  8
EBENE_1
 62
    39
  6
CONTINUOUS
 66
     1
 40
0.003000
 41
0.003000
 70
     1
  0
VERTEX
  8
EBENE_1
 62
    39
  6
CONTINUOUS
 10
1.616350
 20
1.722752
  0
VERTEX
  8
EBENE_1
 62
    39
  6
CONTINUOUS
 10
1.623505
 20
1.674593
  0
VERTEX
  8
EBENE_1
 62
    39
  6
CONTINUOUS
 10
1.639341
 20
1.620006
  0
VERTEX
  8
EBENE_1
 62
    39
  6
CONTINUOUS
 10
1.664260
 20
1.561286
  0
VERTEX
  8
EBENE_1
 62
    39
  6
CONTINUOUS
 10
1.698667
 20
1.500731
  0
VERTEX
  8
EBENE_1
 62
    39
  6
CONTINUOUS
 10
1.742965
 20
1.440637
  0
VERTEX
  8
EBENE_1
 62
    39
  6
CONTINUOUS
 10
1.797557
 20
1.383303
  0
VERTEX
  8
EBENE_1
 62
    39
  6
CONTINUOUS
 10
1.862846
 20
1.331024
  0
VERTEX
  8
EBENE_1
 62
    39
  6
CONTINUOUS
 10
2.406256
 20
1.343417
  0
VERTEX
  8
EBENE_1
 62
    39
  6
CONTINUOUS
 10
2.392488
 20
2.132087
  0
VERTEX
  8
EBENE_1
 62
    39
  6
CONTINUOUS
 10
1.610240
 20
2.118433
  0
SEQEND
  8
0
  0
POLYLINE
  8
EBENE_1
 62
    39
  6
CONTINUOUS
 66
     1
 40
0.003000
 41
0.003000
 70
     1
  0
VERTEX
  8
EBENE_1
 62
    39
  6
CONTINUOUS
 10
2.335343
 20
1.859610
  0
VERTEX
  8
EBENE_1
 62
    39
  6
CONTINUOUS
 10
2.338193
 20
1.858629
  0
VERTEX
  8
EBENE_1
 62
    39
  6
CONTINUOUS
 10
2.340261
 20
1.855957
  0
VERTEX
  8
EBENE_1
 62
    39
  6
CONTINUOUS
 10
2.341098
 20
1.852169
  0
VERTEX
  8
EBENE_1
 62
    39
  6
CONTINUOUS
 10
2.340394
 20
1.848355
  0
VERTEX
  8
EBENE_1
 62
    39
  6
CONTINUOUS
 10
2.338421
 20
1.845613
  0
VERTEX
  8
EBENE_1
 62
    39
  6
CONTINUOUS
 10
2.335606
 20
1.844531
  0
VERTEX
  8
EBENE_1
 62
    39
  6
CONTINUOUS
 10
2.332752
 20
1.845513
  0
VERTEX
  8
EBENE_1
 62
    39
  6
CONTINUOUS
 10
2.330683
 20
1.848185
  0
VERTEX
  8
EBENE_1
 62
    39
  6
CONTINUOUS
 10
2.329846
 20
1.851972
  0
VERTEX
  8
EBENE_1
 62
    39
  6
CONTINUOUS
 10
2.330551
 20
1.855786
  0
VERTEX
  8
EBENE_1
 62
    39
  6
CONTINUOUS
 10
2.332525
 20
1.858529
  0
SEQEND
  8
0
  0
POLYLINE
  8
EBENE_1
 62
    39
  6
CONTINUOUS
 66
     1
 40
0.003000
 41
0.003000
 70
     1
  0
VERTEX
  8
EBENE_1
 62
    39
  6
CONTINUOUS
 10
2.340185
 20
1.725280
  0
VERTEX
  8
EBENE_1
 62
    39
  6
CONTINUOUS
 10
2.343039
 20
1.724298
  0
VERTEX
  8
EBENE_1
 62
    39
  6
CONTINUOUS
 10
2.345106
 20
1.721626
  0
VERTEX
  8
EBENE_1
 62
    39
  6
CONTINUOUS
 10
2.345941
 20
1.717839
  0
VERTEX
  8
EBENE_1
 62
    39
  6
CONTINUOUS
 10
2.345239
 20
1.714025
  0
VERTEX
  8
EBENE_1
 62
    39
  6
CONTINUOUS
 10
2.343266
 20
1.711284
  0
VERTEX
  8
EBENE_1
 62
    39
  6
CONTINUOUS
 10
2.340449
 20
1.710205
  0
VERTEX
  8
EBENE_1
 62
    39
  6
CONTINUOUS
 10
2.337595
 20
1.711186
  0
VERTEX
  8
EBENE_1
 62
    39
  6
CONTINUOUS
 10
2.335527
 20
1.713857
  0
VERTEX
  8
EBENE_1
 62
    39
  6
CONTINUOUS
 10
2.334689
 20
1.717642
  0
VERTEX
  8
EBENE_1
 62
    39
  6
CONTINUOUS
 10
2.335394
 20
1.721458
  0
VERTEX
  8
EBENE_1
 62
    39
  6
CONTINUOUS
 10
2.337367
 20
1.724200
  0
SEQEND
  8
0
  0
POLYLINE
  8
EBENE_1
 62
    39
  6
CONTINUOUS
 66
     1
 40
0.003000
 41
0.003000
 70
     1
  0
VERTEX
  8
EBENE_1
 62
    39
  6
CONTINUOUS
 10
2.078646
 20
2.094000
  0
VERTEX
  8
EBENE_1
 62
    39
  6
CONTINUOUS
 10
2.081497
 20
2.093018
  0
VERTEX
  8
EBENE_1
 62
    39
  6
CONTINUOUS
 10
2.083564
 20
2.090346
  0
VERTEX
  8
EBENE_1
 62
    39
  6
CONTINUOUS
 10
2.084402
 20
2.086559
  0
VERTEX
  8
EBENE_1
 62
    39
  6
CONTINUOUS
 10
2.083697
 20
2.082745
  0
VERTEX
  8
EBENE_1
 62
    39
  6
CONTINUOUS
 10
2.081724
 20
2.080003
  0
VERTEX
  8
EBENE_1
 62
    39
  6
CONTINUOUS
 10
2.078909
 20
2.078921
  0
VERTEX
  8
EBENE_1
 62
    39
  6
CONTINUOUS
 10
2.076053
 20
2.079903
  0
VERTEX
  8
EBENE_1
 62
    39
  6
CONTINUOUS
 10
2.073985
 20
2.082575
  0
VERTEX
  8
EBENE_1
 62
    39
  6
CONTINUOUS
 10
2.073150
 20
2.086362
  0
VERTEX
  8
EBENE_1
 62
    39
  6
CONTINUOUS
 10
2.073853
 20
2.090176
  0
VERTEX
  8
EBENE_1
 62
    39
  6
CONTINUOUS
 10
2.075827
 20
2.092918
  0
SEQEND
  8
0
  0
POLYLINE
  8
EBENE_1
 62
    39
  6
CONTINUOUS
 66
     1
 40
0.003000
 41
0.003000
 70
     1
  0
VERTEX
  8
EBENE_1
 62
    39
  6
CONTINUOUS
 10
1.923661
 20
2.088850
  0
VERTEX
  8
EBENE_1
 62
    39
  6
CONTINUOUS
 10
1.926515
 20
2.087869
  0
VERTEX
  8
EBENE_1
 62
    39
  6
CONTINUOUS
 10
1.928582
 20
2.085197
  0
VERTEX
  8
EBENE_1
 62
    39
  6
CONTINUOUS
 10
1.929417
 20
2.081409
  0
VERTEX
  8
EBENE_1
 62
    39
  6
CONTINUOUS
 10
1.928715
 20
2.077596
  0
VERTEX
  8
EBENE_1
 62
    39
  6
CONTINUOUS
 10
1.926743
 20
2.074853
  0
VERTEX
  8
EBENE_1
 62
    39
  6
CONTINUOUS
 10
1.923925
 20
2.073772
  0
VERTEX
  8
EBENE_1
 62
    39
  6
CONTINUOUS
 10
1.921071
 20
2.074755
  0
VERTEX
  8
EBENE_1
 62
    39
  6
CONTINUOUS
 10
1.919003
 20
2.077426
  0
VERTEX
  8
EBENE_1
 62
    39
  6
CONTINUOUS
 10
1.918165
 20
2.081213
  0
VERTEX
  8
EBENE_1
 62
    39
  6
CONTINUOUS
 10
1.918870
 20
2.085027
  0
VERTEX
  8
EBENE_1
 62
    39
  6
CONTINUOUS
 10
1.920844
 20
2.087769
  0
SEQEND
  8
0
  0
POLYLINE
  8
EBENE_1
 62
    39
  6
CONTINUOUS
 66
     1
 40
0.010000
 41
0.010000
 70
     1
  0
VERTEX
  8
EBENE_1
 62
    39
  6
CONTINUOUS
 10
-1.957331
 20
2.274469
  0
VERTEX
  8
EBENE_1
 62
    39
  6
CONTINUOUS
 10
-1.950057
 20
2.225867
  0
VERTEX
  8
EBENE_1
 62
    39
  6
CONTINUOUS
 10
-1.933953
 20
2.170778
  0
VERTEX
  8
EBENE_1
 62
    39
  6
CONTINUOUS
 10
-1.908606
 20
2.111520
  0
VERTEX
  8
EBENE_1
 62
    39
  6
CONTINUOUS
 10
-1.873606
 20
2.050412
  0
VERTEX
  8
EBENE_1
 62
    39
  6
CONTINUOUS
 10
-1.828543
 20
1.989771
  0
VERTEX
  8
EBENE_1
 62
    39
  6
CONTINUOUS
 10
-1.773004
 20
1.931916
  0
VERTEX
  8
EBENE_1
 62
    39
  6
CONTINUOUS
 10
-1.706579
 20
1.879165
  0
VERTEX
  8
EBENE_1
 62
    39
  6
CONTINUOUS
 10
-1.153661
 20
1.891752
  0
VERTEX
  8
EBENE_1
 62
    39
  6
CONTINUOUS
 10
-1.167555
 20
2.687685
  0
VERTEX
  8
EBENE_1
 62
    39
  6
CONTINUOUS
 10
-1.963488
 20
2.673791
  0
SEQEND
  8
0
  0
POLYLINE
  8
EBENE_1
 62
    39
  6
CONTINUOUS
 66
     1
 40
0.003000
 41
0.003000
 70
     1
  0
VERTEX
  8
EBENE_1
 62
    39
  6
CONTINUOUS
 10
-1.948661
 20
2.278512
  0
VERTEX
  8
EBENE_1
 62
    39
  6
CONTINUOUS
 10
-1.941506
 20
2.230353
  0
VERTEX
  8
EBENE_1
 62
    39
  6
CONTINUOUS
 10
-1.925671
 20
2.175765
  0
VERTEX
  8
EBENE_1
 62
    39
  6
CONTINUOUS
 10
-1.900752
 20
2.117044
  0
VERTEX
  8
EBENE_1
 62
    39
  6
CONTINUOUS
 10
-1.866345
 20
2.056489
  0
VERTEX
  8
EBENE_1
 62
    39
  6
CONTINUOUS
 10
-1.822047
 20
1.996395
  0
VERTEX
  8
EBENE_1
 62
    39
  6
CONTINUOUS
 10
-1.767455
 20
1.939061
  0
VERTEX
  8
EBENE_1
 62
    39
  6
CONTINUOUS
 10
-1.702165
 20
1.886783
  0
VERTEX
  8
EBENE_1
 62
    39
  6
CONTINUOUS
 10
-1.158756
 20
1.899177
  0
VERTEX
  8
EBENE_1
 62
    39
  6
CONTINUOUS
 10
-1.172524
 20
2.687846
  0
VERTEX
  8
EBENE_1
 62
    39
  6
CONTINUOUS
 10
-1.954768
 20
2.674193
  0
SEQEND
  8
0
  0
POLYLINE
  8
EBENE_1
 62
    39
  6
CONTINUOUS
 66
     1
 40
0.003000
 41
0.003000
 70
     1
  0
VERTEX
  8
EBENE_1
 62
    39
  6
CONTINUOUS
 10
-1.229669
 20
2.415366
  0
VERTEX
  8
EBENE_1
 62
    39
  6
CONTINUOUS
 10
-1.226816
 20
2.414385
  0
VERTEX
  8
EBENE_1
 62
    39
  6
CONTINUOUS
 10
-1.224749
 20
2.411714
  0
VERTEX
  8
EBENE_1
 62
    39
  6
CONTINUOUS
 10
-1.223913
 20
2.407925
  0
VERTEX
  8
EBENE_1
 62
    39
  6
CONTINUOUS
 10
-1.224616
 20
2.404113
  0
VERTEX
  8
EBENE_1
 62
    39
  6
CONTINUOUS
 10
-1.226590
 20
2.401371
  0
VERTEX
  8
EBENE_1
 62
    39
  6
CONTINUOUS
 10
-1.229406
 20
2.400291
  0
VERTEX
  8
EBENE_1
 62
    39
  6
CONTINUOUS
 10
-1.232259
 20
2.401273
  0
VERTEX
  8
EBENE_1
 62
    39
  6
CONTINUOUS
 10
-1.234327
 20
2.403944
  0
VERTEX
  8
EBENE_1
 62
    39
  6
CONTINUOUS
 10
-1.235165
 20
2.407728
  0
VERTEX
  8
EBENE_1
 62
    39
  6
CONTINUOUS
 10
-1.234460
 20
2.411545
  0
VERTEX
  8
EBENE_1
 62
    39
  6
CONTINUOUS
 10
-1.232487
 20
2.414287
  0
SEQEND
  8
0
  0
POLYLINE
  8
EBENE_1
 62
    39
  6
CONTINUOUS
 66
     1
 40
0.003000
 41
0.003000
 70
     1
  0
VERTEX
  8
EBENE_1
 62
    39
  6
CONTINUOUS
 10
-1.224823
 20
2.281039
  0
VERTEX
  8
EBENE_1
 62
    39
  6
CONTINUOUS
 10
-1.221972
 20
2.280058
  0
VERTEX
  8
EBENE_1
 62
    39
  6
CONTINUOUS
 10
-1.219905
 20
2.277386
  0
VERTEX
  8
EBENE_1
 62
    39
  6
CONTINUOUS
 10
-1.219067
 20
2.273598
  0
VERTEX
  8
EBENE_1
 62
    39
  6
CONTINUOUS
 10
-1.219772
 20
2.269784
  0
VERTEX
  8
EBENE_1
 62
    39
  6
CONTINUOUS
 10
-1.221745
 20
2.267042
  0
VERTEX
  8
EBENE_1
 62
    39
  6
CONTINUOUS
 10
-1.224563
 20
2.265961
  0
VERTEX
  8
EBENE_1
 62
    39
  6
CONTINUOUS
 10
-1.227417
 20
2.266944
  0
VERTEX
  8
EBENE_1
 62
    39
  6
CONTINUOUS
 10
-1.229484
 20
2.269615
  0
VERTEX
  8
EBENE_1
 62
    39
  6
CONTINUOUS
 10
-1.230319
 20
2.273402
  0
VERTEX
  8
EBENE_1
 62
    39
  6
CONTINUOUS
 10
-1.229616
 20
2.277216
  0
VERTEX
  8
EBENE_1
 62
    39
  6
CONTINUOUS
 10
-1.227641
 20
2.279958
  0
SEQEND
  8
0
  0
POLYLINE
  8
EBENE_1
 62
    39
  6
CONTINUOUS
 66
     1
 40
0.003000
 41
0.003000
 70
     1
  0
VERTEX
  8
EBENE_1
 62
    39
  6
CONTINUOUS
 10
-1.486366
 20
2.649760
  0
VERTEX
  8
EBENE_1
 62
    39
  6
CONTINUOUS
 10
-1.483514
 20
2.648776
  0
VERTEX
  8
EBENE_1
 62
    39
  6
CONTINUOUS
 10
-1.481446
 20
2.646104
  0
VERTEX
  8
EBENE_1
 62
    39
  6
CONTINUOUS
 10
-1.480610
 20
2.642315
  0
VERTEX
  8
EBENE_1
 62
    39
  6
CONTINUOUS
 10
-1.481315
 20
2.638504
  0
VERTEX
  8
EBENE_1
 62
    39
  6
CONTINUOUS
 10
-1.483287
 20
2.635763
  0
VERTEX
  8
EBENE_1
 62
    39
  6
CONTINUOUS
 10
-1.486102
 20
2.634681
  0
VERTEX
  8
EBENE_1
 62
    39
  6
CONTINUOUS
 10
-1.488957
 20
2.635663
  0
VERTEX
  8
EBENE_1
 62
    39
  6
CONTINUOUS
 10
-1.491026
 20
2.638335
  0
VERTEX
  8
EBENE_1
 62
    39
  6
CONTINUOUS
 10
-1.491862
 20
2.642122
  0
VERTEX
  8
EBENE_1
 62
    39
  6
CONTINUOUS
 10
-1.491157
 20
2.645936
  0
VERTEX
  8
EBENE_1
 62
    39
  6
CONTINUOUS
 10
-1.489184
 20
2.648678
  0
SEQEND
  8
0
  0
POLYLINE
  8
EBENE_1
 62
    39
  6
CONTINUOUS
 66
     1
 40
0.003000
 41
0.003000
 70
     1
  0
VERTEX
  8
EBENE_1
 62
    39
  6
CONTINUOUS
 10
-1.641346
 20
2.644610
  0
VERTEX
  8
EBENE_1
 62
    39
  6
CONTINUOUS
 10
-1.638495
 20
2.643627
  0
VERTEX
  8
EBENE_1
 62
    39
  6
CONTINUOUS
 10
-1.636428
 20
2.640955
  0
VERTEX
  8
EBENE_1
 62
    39
  6
CONTINUOUS
 10
-1.635591
 20
2.637165
  0
VERTEX
  8
EBENE_1
 62
    39
  6
CONTINUOUS
 10
-1.636295
 20
2.633354
  0
VERTEX
  8
EBENE_1
 62
    39
  6
CONTINUOUS
 10
-1.638269
 20
2.630613
  0
VERTEX
  8
EBENE_1
 62
    39
  6
CONTINUOUS
 10
-1.641087
 20
2.629531
  0
VERTEX
  8
EBENE_1
 62
    39
  6
CONTINUOUS
 10
-1.643940
 20
2.630513
  0
VERTEX
  8
EBENE_1
 62
    39
  6
CONTINUOUS
 10
-1.646007
 20
2.633185
  0
VERTEX
  8
EBENE_1
 62
    39
  6
CONTINUOUS
 10
-1.646843
 20
2.636972
  0
VERTEX
  8
EBENE_1
 62
    39
  6
CONTINUOUS
 10
-1.646140
 20
2.640786
  0
VERTEX
  8
EBENE_1
 62
    39
  6
CONTINUOUS
 10
-1.644167
 20
2.643529
  0
SEQEND
  8
0
  0
POLYLINE
  8
EBENE_1
 62
    39
  6
CONTINUOUS
 66
     1
 40
0.010000
 41
0.010000
 70
     1
  0
VERTEX
  8
EBENE_1
 62
    39
  6
CONTINUOUS
 10
-1.406110
 20
2.275138
  0
VERTEX
  8
EBENE_1
 62
    39
  6
CONTINUOUS
 10
-1.398837
 20
2.226536
  0
VERTEX
  8
EBENE_1
 62
    39
  6
CONTINUOUS
 10
-1.382732
 20
2.171448
  0
VERTEX
  8
EBENE_1
 62
    39
  6
CONTINUOUS
 10
-1.357386
 20
2.112190
  0
VERTEX
  8
EBENE_1
 62
    39
  6
CONTINUOUS
 10
-1.322386
 20
2.051082
  0
VERTEX
  8
EBENE_1
 62
    39
  6
CONTINUOUS
 10
-1.277322
 20
1.990442
  0
VERTEX
  8
EBENE_1
 62
    39
  6
CONTINUOUS
 10
-1.221783
 20
1.932588
  0
VERTEX
  8
EBENE_1
 62
    39
  6
CONTINUOUS
 10
-1.155358
 20
1.879839
  0
VERTEX
  8
EBENE_1
 62
    39
  6
CONTINUOUS
 10
-0.602441
 20
1.892421
  0
VERTEX
  8
EBENE_1
 62
    39
  6
CONTINUOUS
 10
-0.616335
 20
2.688354
  0
VERTEX
  8
EBENE_1
 62
    39
  6
CONTINUOUS
 10
-1.412268
 20
2.674465
  0
SEQEND
  8
0
  0
POLYLINE
  8
EBENE_1
 62
    39
  6
CONTINUOUS
 66
     1
 40
0.003000
 41
0.003000
 70
     1
  0
VERTEX
  8
EBENE_1
 62
    39
  6
CONTINUOUS
 10
-1.397441
 20
2.279181
  0
VERTEX
  8
EBENE_1
 62
    39
  6
CONTINUOUS
 10
-1.390284
 20
2.231023
  0
VERTEX
  8
EBENE_1
 62
    39
  6
CONTINUOUS
 10
-1.374448
 20
2.176435
  0
VERTEX
  8
EBENE_1
 62
    39
  6
CONTINUOUS
 10
-1.349528
 20
2.117715
  0
VERTEX
  8
EBENE_1
 62
    39
  6
CONTINUOUS
 10
-1.315121
 20
2.057160
  0
VERTEX
  8
EBENE_1
 62
    39
  6
CONTINUOUS
 10
-1.270823
 20
1.997066
  0
VERTEX
  8
EBENE_1
 62
    39
  6
CONTINUOUS
 10
-1.216231
 20
1.939732
  0
VERTEX
  8
EBENE_1
 62
    39
  6
CONTINUOUS
 10
-1.150941
 20
1.887453
  0
VERTEX
  8
EBENE_1
 62
    39
  6
CONTINUOUS
 10
-0.607535
 20
1.899846
  0
VERTEX
  8
EBENE_1
 62
    39
  6
CONTINUOUS
 10
-0.621303
 20
2.688516
  0
VERTEX
  8
EBENE_1
 62
    39
  6
CONTINUOUS
 10
-1.403547
 20
2.674862
  0
SEQEND
  8
0
  0
POLYLINE
  8
EBENE_1
 62
    39
  6
CONTINUOUS
 66
     1
 40
0.003000
 41
0.003000
 70
     1
  0
VERTEX
  8
EBENE_1
 62
    39
  6
CONTINUOUS
 10
-0.678449
 20
2.416039
  0
VERTEX
  8
EBENE_1
 62
    39
  6
CONTINUOUS
 10
-0.675595
 20
2.415058
  0
VERTEX
  8
EBENE_1
 62
    39
  6
CONTINUOUS
 10
-0.673528
 20
2.412386
  0
VERTEX
  8
EBENE_1
 62
    39
  6
CONTINUOUS
 10
-0.672693
 20
2.408598
  0
VERTEX
  8
EBENE_1
 62
    39
  6
CONTINUOUS
 10
-0.673396
 20
2.404784
  0
VERTEX
  8
EBENE_1
 62
    39
  6
CONTINUOUS
 10
-0.675369
 20
2.402042
  0
VERTEX
  8
EBENE_1
 62
    39
  6
CONTINUOUS
 10
-0.678185
 20
2.400961
  0
VERTEX
  8
EBENE_1
 62
    39
  6
CONTINUOUS
 10
-0.681039
 20
2.401942
  0
VERTEX
  8
EBENE_1
 62
    39
  6
CONTINUOUS
 10
-0.683107
 20
2.404614
  0
VERTEX
  8
EBENE_1
 62
    39
  6
CONTINUOUS
 10
-0.683945
 20
2.408402
  0
VERTEX
  8
EBENE_1
 62
    39
  6
CONTINUOUS
 10
-0.683240
 20
2.412216
  0
VERTEX
  8
EBENE_1
 62
    39
  6
CONTINUOUS
 10
-0.681267
 20
2.414958
  0
SEQEND
  8
0
  0
POLYLINE
  8
EBENE_1
 62
    39
  6
CONTINUOUS
 66
     1
 40
0.003000
 41
0.003000
 70
     1
  0
VERTEX
  8
EBENE_1
 62
    39
  6
CONTINUOUS
 10
-0.673602
 20
2.281709
  0
VERTEX
  8
EBENE_1
 62
    39
  6
CONTINUOUS
 10
-0.670751
 20
2.280727
  0
VERTEX
  8
EBENE_1
 62
    39
  6
CONTINUOUS
 10
-0.668684
 20
2.278055
  0
VERTEX
  8
EBENE_1
 62
    39
  6
CONTINUOUS
 10
-0.667846
 20
2.274268
  0
VERTEX
  8
EBENE_1
 62
    39
  6
CONTINUOUS
 10
-0.668551
 20
2.270454
  0
VERTEX
  8
EBENE_1
 62
    39
  6
CONTINUOUS
 10
-0.670524
 20
2.267713
  0
VERTEX
  8
EBENE_1
 62
    39
  6
CONTINUOUS
 10
-0.673339
 20
2.266634
  0
VERTEX
  8
EBENE_1
 62
    39
  6
CONTINUOUS
 10
-0.676195
 20
2.267615
  0
VERTEX
  8
EBENE_1
 62
    39
  6
CONTINUOUS
 10
-0.678263
 20
2.270286
  0
VERTEX
  8
EBENE_1
 62
    39
  6
CONTINUOUS
 10
-0.679098
 20
2.274071
  0
VERTEX
  8
EBENE_1
 62
    39
  6
CONTINUOUS
 10
-0.678395
 20
2.277887
  0
VERTEX
  8
EBENE_1
 62
    39
  6
CONTINUOUS
 10
-0.676421
 20
2.280630
  0
SEQEND
  8
0
  0
POLYLINE
  8
EBENE_1
 62
    39
  6
CONTINUOUS
 66
     1
 40
0.003000
 41
0.003000
 70
     1
  0
VERTEX
  8
EBENE_1
 62
    39
  6
CONTINUOUS
 10
-0.935146
 20
2.650429
  0
VERTEX
  8
EBENE_1
 62
    39
  6
CONTINUOUS
 10
-0.932294
 20
2.649448
  0
VERTEX
  8
EBENE_1
 62
    39
  6
CONTINUOUS
 10
-0.930226
 20
2.646776
  0
VERTEX
  8
EBENE_1
 62
    39
  6
CONTINUOUS
 10
-0.929390
 20
2.642988
  0
VERTEX
  8
EBENE_1
 62
    39
  6
CONTINUOUS
 10
-0.930094
 20
2.639174
  0
VERTEX
  8
EBENE_1
 62
    39
  6
CONTINUOUS
 10
-0.932067
 20
2.636432
  0
VERTEX
  8
EBENE_1
 62
    39
  6
CONTINUOUS
 10
-0.934882
 20
2.635350
  0
VERTEX
  8
EBENE_1
 62
    39
  6
CONTINUOUS
 10
-0.937736
 20
2.636332
  0
VERTEX
  8
EBENE_1
 62
    39
  6
CONTINUOUS
 10
-0.939804
 20
2.639004
  0
VERTEX
  8
EBENE_1
 62
    39
  6
CONTINUOUS
 10
-0.940642
 20
2.642791
  0
VERTEX
  8
EBENE_1
 62
    39
  6
CONTINUOUS
 10
-0.939937
 20
2.646605
  0
VERTEX
  8
EBENE_1
 62
    39
  6
CONTINUOUS
 10
-0.937963
 20
2.649347
  0
SEQEND
  8
0
  0
POLYLINE
  8
EBENE_1
 62
    39
  6
CONTINUOUS
 66
     1
 40
0.003000
 41
0.003000
 70
     1
  0
VERTEX
  8
EBENE_1
 62
    39
  6
CONTINUOUS
 10
-1.090126
 20
2.645280
  0
VERTEX
  8
EBENE_1
 62
    39
  6
CONTINUOUS
 10
-1.087275
 20
2.644298
  0
VERTEX
  8
EBENE_1
 62
    39
  6
CONTINUOUS
 10
-1.085208
 20
2.641626
  0
VERTEX
  8
EBENE_1
 62
    39
  6
CONTINUOUS
 10
-1.084370
 20
2.637839
  0
VERTEX
  8
EBENE_1
 62
    39
  6
CONTINUOUS
 10
-1.085075
 20
2.634025
  0
VERTEX
  8
EBENE_1
 62
    39
  6
CONTINUOUS
 10
-1.087048
 20
2.631282
  0
VERTEX
  8
EBENE_1
 62
    39
  6
CONTINUOUS
 10
-1.089866
 20
2.630201
  0
VERTEX
  8
EBENE_1
 62
    39
  6
CONTINUOUS
 10
-1.092720
 20
2.631184
  0
VERTEX
  8
EBENE_1
 62
    39
  6
CONTINUOUS
 10
-1.094787
 20
2.633855
  0
VERTEX
  8
EBENE_1
 62
    39
  6
CONTINUOUS
 10
-1.095622
 20
2.637642
  0
VERTEX
  8
EBENE_1
 62
    39
  6
CONTINUOUS
 10
-1.094919
 20
2.641456
  0
VERTEX
  8
EBENE_1
 62
    39
  6
CONTINUOUS
 10
-1.092945
 20
2.644198
  0
SEQEND
  8
0
  0
POLYLINE
  8
EBENE_1
 62
    39
  6
CONTINUOUS
 66
     1
 40
0.010000
 41
0.010000
 70
     1
  0
VERTEX
  8
EBENE_1
 62
    39
  6
CONTINUOUS
 10
-0.854890
 20
2.275807
  0
VERTEX
  8
EBENE_1
 62
    39
  6
CONTINUOUS
 10
-0.847616
 20
2.227206
  0
VERTEX
  8
EBENE_1
 62
    39
  6
CONTINUOUS
 10
-0.831511
 20
2.172118
  0
VERTEX
  8
EBENE_1
 62
    39
  6
CONTINUOUS
 10
-0.806164
 20
2.112861
  0
VERTEX
  8
EBENE_1
 62
    39
  6
CONTINUOUS
 10
-0.771164
 20
2.051753
  0
VERTEX
  8
EBENE_1
 62
    39
  6
CONTINUOUS
 10
-0.726100
 20
1.991113
  0
VERTEX
  8
EBENE_1
 62
    39
  6
CONTINUOUS
 10
-0.670562
 20
1.933258
  0
VERTEX
  8
EBENE_1
 62
    39
  6
CONTINUOUS
 10
-0.604138
 20
1.880508
  0
VERTEX
  8
EBENE_1
 62
    39
  6
CONTINUOUS
 10
-0.051220
 20
1.893094
  0
VERTEX
  8
EBENE_1
 62
    39
  6
CONTINUOUS
 10
-0.065114
 20
2.689028
  0
VERTEX
  8
EBENE_1
 62
    39
  6
CONTINUOUS
 10
-0.861047
 20
2.675134
  0
SEQEND
  8
0
  0
POLYLINE
  8
EBENE_1
 62
    39
  6
CONTINUOUS
 66
     1
 40
0.003000
 41
0.003000
 70
     1
  0
VERTEX
  8
EBENE_1
 62
    39
  6
CONTINUOUS
 10
-0.846220
 20
2.279850
  0
VERTEX
  8
EBENE_1
 62
    39
  6
CONTINUOUS
 10
-0.839064
 20
2.231692
  0
VERTEX
  8
EBENE_1
 62
    39
  6
CONTINUOUS
 10
-0.823227
 20
2.177104
  0
VERTEX
  8
EBENE_1
 62
    39
  6
CONTINUOUS
 10
-0.798307
 20
2.118384
  0
VERTEX
  8
EBENE_1
 62
    39
  6
CONTINUOUS
 10
-0.763900
 20
2.057830
  0
VERTEX
  8
EBENE_1
 62
    39
  6
CONTINUOUS
 10
-0.719602
 20
1.997737
  0
VERTEX
  8
EBENE_1
 62
    39
  6
CONTINUOUS
 10
-0.665010
 20
1.940403
  0
VERTEX
  8
EBENE_1
 62
    39
  6
CONTINUOUS
 10
-0.599720
 20
1.888126
  0
VERTEX
  8
EBENE_1
 62
    39
  6
CONTINUOUS
 10
-0.056315
 20
1.900520
  0
VERTEX
  8
EBENE_1
 62
    39
  6
CONTINUOUS
 10
-0.070083
 20
2.689185
  0
VERTEX
  8
EBENE_1
 62
    39
  6
CONTINUOUS
 10
-0.852327
 20
2.675531
  0
SEQEND
  8
0
  0
POLYLINE
  8
EBENE_1
 62
    39
  6
CONTINUOUS
 66
     1
 40
0.003000
 41
0.003000
 70
     1
  0
VERTEX
  8
EBENE_1
 62
    39
  6
CONTINUOUS
 10
-0.127228
 20
2.416709
  0
VERTEX
  8
EBENE_1
 62
    39
  6
CONTINUOUS
 10
-0.124375
 20
2.415727
  0
VERTEX
  8
EBENE_1
 62
    39
  6
CONTINUOUS
 10
-0.122308
 20
2.413055
  0
VERTEX
  8
EBENE_1
 62
    39
  6
CONTINUOUS
 10
-0.121472
 20
2.409268
  0
VERTEX
  8
EBENE_1
 62
    39
  6
CONTINUOUS
 10
-0.122175
 20
2.405454
  0
VERTEX
  8
EBENE_1
 62
    39
  6
CONTINUOUS
 10
-0.124149
 20
2.402712
  0
VERTEX
  8
EBENE_1
 62
    39
  6
CONTINUOUS
 10
-0.126965
 20
2.401630
  0
VERTEX
  8
EBENE_1
 62
    39
  6
CONTINUOUS
 10
-0.129818
 20
2.402613
  0
VERTEX
  8
EBENE_1
 62
    39
  6
CONTINUOUS
 10
-0.131886
 20
2.405284
  0
VERTEX
  8
EBENE_1
 62
    39
  6
CONTINUOUS
 10
-0.132724
 20
2.409071
  0
VERTEX
  8
EBENE_1
 62
    39
  6
CONTINUOUS
 10
-0.132020
 20
2.412885
  0
VERTEX
  8
EBENE_1
 62
    39
  6
CONTINUOUS
 10
-0.130046
 20
2.415627
  0
SEQEND
  8
0
  0
POLYLINE
  8
EBENE_1
 62
    39
  6
CONTINUOUS
 66
     1
 40
0.003000
 41
0.003000
 70
     1
  0
VERTEX
  8
EBENE_1
 62
    39
  6
CONTINUOUS
 10
-0.122382
 20
2.282382
  0
VERTEX
  8
EBENE_1
 62
    39
  6
CONTINUOUS
 10
-0.119531
 20
2.281398
  0
VERTEX
  8
EBENE_1
 62
    39
  6
CONTINUOUS
 10
-0.117464
 20
2.278726
  0
VERTEX
  8
EBENE_1
 62
    39
  6
CONTINUOUS
 10
-0.116626
 20
2.274937
  0
VERTEX
  8
EBENE_1
 62
    39
  6
CONTINUOUS
 10
-0.117331
 20
2.271126
  0
VERTEX
  8
EBENE_1
 62
    39
  6
CONTINUOUS
 10
-0.119303
 20
2.268385
  0
VERTEX
  8
EBENE_1
 62
    39
  6
CONTINUOUS
 10
-0.122118
 20
2.267303
  0
VERTEX
  8
EBENE_1
 62
    39
  6
CONTINUOUS
 10
-0.124973
 20
2.268285
  0
VERTEX
  8
EBENE_1
 62
    39
  6
CONTINUOUS
 10
-0.127042
 20
2.270957
  0
VERTEX
  8
EBENE_1
 62
    39
  6
CONTINUOUS
 10
-0.127878
 20
2.274744
  0
VERTEX
  8
EBENE_1
 62
    39
  6
CONTINUOUS
 10
-0.127175
 20
2.278558
  0
VERTEX
  8
EBENE_1
 62
    39
  6
CONTINUOUS
 10
-0.125200
 20
2.281300
  0
SEQEND
  8
0
  0
POLYLINE
  8
EBENE_1
 62
    39
  6
CONTINUOUS
 66
     1
 40
0.003000
 41
0.003000
 70
     1
  0
VERTEX
  8
EBENE_1
 62
    39
  6
CONTINUOUS
 10
-0.383925
 20
2.651098
  0
VERTEX
  8
EBENE_1
 62
    39
  6
CONTINUOUS
 10
-0.381073
 20
2.650117
  0
VERTEX
  8
EBENE_1
 62
    39
  6
CONTINUOUS
 10
-0.379005
 20
2.647445
  0
VERTEX
  8
EBENE_1
 62
    39
  6
CONTINUOUS
 10
-0.378169
 20
2.643657
  0
VERTEX
  8
EBENE_1
 62
    39
  6
CONTINUOUS
 10
-0.378872
 20
2.639844
  0
VERTEX
  8
EBENE_1
 62
    39
  6
CONTINUOUS
 10
-0.380846
 20
2.637103
  0
VERTEX
  8
EBENE_1
 62
    39
  6
CONTINUOUS
 10
-0.383661
 20
2.636024
  0
VERTEX
  8
EBENE_1
 62
    39
  6
CONTINUOUS
 10
-0.386515
 20
2.637004
  0
VERTEX
  8
EBENE_1
 62
    39
  6
CONTINUOUS
 10
-0.388583
 20
2.639674
  0
VERTEX
  8
EBENE_1
 62
    39
  6
CONTINUOUS
 10
-0.389421
 20
2.643461
  0
VERTEX
  8
EBENE_1
 62
    39
  6
CONTINUOUS
 10
-0.388716
 20
2.647275
  0
VERTEX
  8
EBENE_1
 62
    39
  6
CONTINUOUS
 10
-0.386743
 20
2.650019
  0
SEQEND
  8
0
  0
POLYLINE
  8
EBENE_1
 62
    39
  6
CONTINUOUS
 66
     1
 40
0.003000
 41
0.003000
 70
     1
  0
VERTEX
  8
EBENE_1
 62
    39
  6
CONTINUOUS
 10
-0.538906
 20
2.645949
  0
VERTEX
  8
EBENE_1
 62
    39
  6
CONTINUOUS
 10
-0.536055
 20
2.644967
  0
VERTEX
  8
EBENE_1
 62
    39
  6
CONTINUOUS
 10
-0.533987
 20
2.642295
  0
VERTEX
  8
EBENE_1
 62
    39
  6
CONTINUOUS
 10
-0.533150
 20
2.638508
  0
VERTEX
  8
EBENE_1
 62
    39
  6
CONTINUOUS
 10
-0.533854
 20
2.634694
  0
VERTEX
  8
EBENE_1
 62
    39
  6
CONTINUOUS
 10
-0.535827
 20
2.631953
  0
VERTEX
  8
EBENE_1
 62
    39
  6
CONTINUOUS
 10
-0.538642
 20
2.630874
  0
VERTEX
  8
EBENE_1
 62
    39
  6
CONTINUOUS
 10
-0.541498
 20
2.631855
  0
VERTEX
  8
EBENE_1
 62
    39
  6
CONTINUOUS
 10
-0.543566
 20
2.634526
  0
VERTEX
  8
EBENE_1
 62
    39
  6
CONTINUOUS
 10
-0.544402
 20
2.638311
  0
VERTEX
  8
EBENE_1
 62
    39
  6
CONTINUOUS
 10
-0.543698
 20
2.642126
  0
VERTEX
  8
EBENE_1
 62
    39
  6
CONTINUOUS
 10
-0.541724
 20
2.644869
  0
SEQEND
  8
0
  0
POLYLINE
  8
EBENE_1
 62
    39
  6
CONTINUOUS
 66
     1
 40
0.010000
 41
0.010000
 70
     1
  0
VERTEX
  8
EBENE_1
 62
    39
  6
CONTINUOUS
 10
-0.303669
 20
2.276476
  0
VERTEX
  8
EBENE_1
 62
    39
  6
CONTINUOUS
 10
-0.296396
 20
2.227876
  0
VERTEX
  8
EBENE_1
 62
    39
  6
CONTINUOUS
 10
-0.280291
 20
2.172789
  0
VERTEX
  8
EBENE_1
 62
    39
  6
CONTINUOUS
 10
-0.254943
 20
2.113532
  0
VERTEX
  8
EBENE_1
 62
    39
  6
CONTINUOUS
 10
-0.219943
 20
2.052423
  0
VERTEX
  8
EBENE_1
 62
    39
  6
CONTINUOUS
 10
-0.174879
 20
1.991783
  0
VERTEX
  8
EBENE_1
 62
    39
  6
CONTINUOUS
 10
-0.119341
 20
1.933928
  0
VERTEX
  8
EBENE_1
 62
    39
  6
CONTINUOUS
 10
-0.052917
 20
1.881177
  0
VERTEX
  8
EBENE_1
 62
    39
  6
CONTINUOUS
 10
0.500000
 20
1.893764
  0
VERTEX
  8
EBENE_1
 62
    39
  6
CONTINUOUS
 10
0.486106
 20
2.689697
  0
VERTEX
  8
EBENE_1
 62
    39
  6
CONTINUOUS
 10
-0.309827
 20
2.675803
  0
SEQEND
  8
0
  0
POLYLINE
  8
EBENE_1
 62
    39
  6
CONTINUOUS
 66
     1
 40
0.003000
 41
0.003000
 70
     1
  0
VERTEX
  8
EBENE_1
 62
    39
  6
CONTINUOUS
 10
-0.295000
 20
2.280524
  0
VERTEX
  8
EBENE_1
 62
    39
  6
CONTINUOUS
 10
-0.287843
 20
2.232365
  0
VERTEX
  8
EBENE_1
 62
    39
  6
CONTINUOUS
 10
-0.272007
 20
2.177777
  0
VERTEX
  8
EBENE_1
 62
    39
  6
CONTINUOUS
 10
-0.247087
 20
2.119056
  0
VERTEX
  8
EBENE_1
 62
    39
  6
CONTINUOUS
 10
-0.212680
 20
2.058501
  0
VERTEX
  8
EBENE_1
 62
    39
  6
CONTINUOUS
 10
-0.168382
 20
1.998407
  0
VERTEX
  8
EBENE_1
 62
    39
  6
CONTINUOUS
 10
-0.113790
 20
1.941073
  0
VERTEX
  8
EBENE_1
 62
    39
  6
CONTINUOUS
 10
-0.048500
 20
1.888795
  0
VERTEX
  8
EBENE_1
 62
    39
  6
CONTINUOUS
 10
0.494906
 20
1.901189
  0
VERTEX
  8
EBENE_1
 62
    39
  6
CONTINUOUS
 10
0.481142
 20
2.689858
  0
VERTEX
  8
EBENE_1
 62
    39
  6
CONTINUOUS
 10
-0.301106
 20
2.676201
  0
SEQEND
  8
0
  0
POLYLINE
  8
EBENE_1
 62
    39
  6
CONTINUOUS
 66
     1
 40
0.003000
 41
0.003000
 70
     1
  0
VERTEX
  8
EBENE_1
 62
    39
  6
CONTINUOUS
 10
0.423992
 20
2.417378
  0
VERTEX
  8
EBENE_1
 62
    39
  6
CONTINUOUS
 10
0.426846
 20
2.416396
  0
VERTEX
  8
EBENE_1
 62
    39
  6
CONTINUOUS
 10
0.428913
 20
2.413724
  0
VERTEX
  8
EBENE_1
 62
    39
  6
CONTINUOUS
 10
0.429748
 20
2.409937
  0
VERTEX
  8
EBENE_1
 62
    39
  6
CONTINUOUS
 10
0.429046
 20
2.406123
  0
VERTEX
  8
EBENE_1
 62
    39
  6
CONTINUOUS
 10
0.427073
 20
2.403382
  0
VERTEX
  8
EBENE_1
 62
    39
  6
CONTINUOUS
 10
0.424256
 20
2.402303
  0
VERTEX
  8
EBENE_1
 62
    39
  6
CONTINUOUS
 10
0.421402
 20
2.403285
  0
VERTEX
  8
EBENE_1
 62
    39
  6
CONTINUOUS
 10
0.419334
 20
2.405956
  0
VERTEX
  8
EBENE_1
 62
    39
  6
CONTINUOUS
 10
0.418496
 20
2.409740
  0
VERTEX
  8
EBENE_1
 62
    39
  6
CONTINUOUS
 10
0.419201
 20
2.413557
  0
VERTEX
  8
EBENE_1
 62
    39
  6
CONTINUOUS
 10
0.421174
 20
2.416299
  0
SEQEND
  8
0
  0
POLYLINE
  8
EBENE_1
 62
    39
  6
CONTINUOUS
 66
     1
 40
0.003000
 41
0.003000
 70
     1
  0
VERTEX
  8
EBENE_1
 62
    39
  6
CONTINUOUS
 10
0.428839
 20
2.283051
  0
VERTEX
  8
EBENE_1
 62
    39
  6
CONTINUOUS
 10
0.431690
 20
2.282070
  0
VERTEX
  8
EBENE_1
 62
    39
  6
CONTINUOUS
 10
0.433757
 20
2.279398
  0
VERTEX
  8
EBENE_1
 62
    39
  6
CONTINUOUS
 10
0.434594
 20
2.275610
  0
VERTEX
  8
EBENE_1
 62
    39
  6
CONTINUOUS
 10
0.433890
 20
2.271796
  0
VERTEX
  8
EBENE_1
 62
    39
  6
CONTINUOUS
 10
0.431917
 20
2.269054
  0
VERTEX
  8
EBENE_1
 62
    39
  6
CONTINUOUS
 10
0.429102
 20
2.267972
  0
VERTEX
  8
EBENE_1
 62
    39
  6
CONTINUOUS
 10
0.426248
 20
2.268956
  0
VERTEX
  8
EBENE_1
 62
    39
  6
CONTINUOUS
 10
0.424179
 20
2.271627
  0
VERTEX
  8
EBENE_1
 62
    39
  6
CONTINUOUS
 10
0.423343
 20
2.275413
  0
VERTEX
  8
EBENE_1
 62
    39
  6
CONTINUOUS
 10
0.424047
 20
2.279227
  0
VERTEX
  8
EBENE_1
 62
    39
  6
CONTINUOUS
 10
0.426021
 20
2.281970
  0
SEQEND
  8
0
  0
POLYLINE
  8
EBENE_1
 62
    39
  6
CONTINUOUS
 66
     1
 40
0.003000
 41
0.003000
 70
     1
  0
VERTEX
  8
EBENE_1
 62
    39
  6
CONTINUOUS
 10
0.167295
 20
2.651772
  0
VERTEX
  8
EBENE_1
 62
    39
  6
CONTINUOUS
 10
0.170149
 20
2.650788
  0
VERTEX
  8
EBENE_1
 62
    39
  6
CONTINUOUS
 10
0.172216
 20
2.648116
  0
VERTEX
  8
EBENE_1
 62
    39
  6
CONTINUOUS
 10
0.173051
 20
2.644327
  0
VERTEX
  8
EBENE_1
 62
    39
  6
CONTINUOUS
 10
0.172348
 20
2.640516
  0
VERTEX
  8
EBENE_1
 62
    39
  6
CONTINUOUS
 10
0.170375
 20
2.637774
  0
VERTEX
  8
EBENE_1
 62
    39
  6
CONTINUOUS
 10
0.167559
 20
2.636693
  0
VERTEX
  8
EBENE_1
 62
    39
  6
CONTINUOUS
 10
0.164705
 20
2.637674
  0
VERTEX
  8
EBENE_1
 62
    39
  6
CONTINUOUS
 10
0.162637
 20
2.640345
  0
VERTEX
  8
EBENE_1
 62
    39
  6
CONTINUOUS
 10
0.161799
 20
2.644130
  0
VERTEX
  8
EBENE_1
 62
    39
  6
CONTINUOUS
 10
0.162504
 20
2.647947
  0
VERTEX
  8
EBENE_1
 62
    39
  6
CONTINUOUS
 10
0.164478
 20
2.650690
  0
SEQEND
  8
0
  0
POLYLINE
  8
EBENE_1
 62
    39
  6
CONTINUOUS
 66
     1
 40
0.003000
 41
0.003000
 70
     1
  0
VERTEX
  8
EBENE_1
 62
    39
  6
CONTINUOUS
 10
0.012315
 20
2.646622
  0
VERTEX
  8
EBENE_1
 62
    39
  6
CONTINUOUS
 10
0.015166
 20
2.645639
  0
VERTEX
  8
EBENE_1
 62
    39
  6
CONTINUOUS
 10
0.017233
 20
2.642966
  0
VERTEX
  8
EBENE_1
 62
    39
  6
CONTINUOUS
 10
0.018071
 20
2.639177
  0
VERTEX
  8
EBENE_1
 62
    39
  6
CONTINUOUS
 10
0.017366
 20
2.635366
  0
VERTEX
  8
EBENE_1
 62
    39
  6
CONTINUOUS
 10
0.015394
 20
2.632625
  0
VERTEX
  8
EBENE_1
 62
    39
  6
CONTINUOUS
 10
0.012579
 20
2.631543
  0
VERTEX
  8
EBENE_1
 62
    39
  6
CONTINUOUS
 10
0.009724
 20
2.632525
  0
VERTEX
  8
EBENE_1
 62
    39
  6
CONTINUOUS
 10
0.007655
 20
2.635196
  0
VERTEX
  8
EBENE_1
 62
    39
  6
CONTINUOUS
 10
0.006819
 20
2.638980
  0
VERTEX
  8
EBENE_1
 62
    39
  6
CONTINUOUS
 10
0.007522
 20
2.642797
  0
VERTEX
  8
EBENE_1
 62
    39
  6
CONTINUOUS
 10
0.009496
 20
2.645540
  0
SEQEND
  8
0
  0
POLYLINE
  8
EBENE_1
 62
    39
  6
CONTINUOUS
 66
     1
 40
0.010000
 41
0.010000
 70
     1
  0
VERTEX
  8
EBENE_1
 62
    39
  6
CONTINUOUS
 10
0.247512
 20
2.276476
  0
VERTEX
  8
EBENE_1
 62
    39
  6
CONTINUOUS
 10
0.254785
 20
2.227876
  0
VERTEX
  8
EBENE_1
 62
    39
  6
CONTINUOUS
 10
0.270890
 20
2.172789
  0
VERTEX
  8
EBENE_1
 62
    39
  6
CONTINUOUS
 10
0.296238
 20
2.113532
  0
VERTEX
  8
EBENE_1
 62
    39
  6
CONTINUOUS
 10
0.331238
 20
2.052423
  0
VERTEX
  8
EBENE_1
 62
    39
  6
CONTINUOUS
 10
0.376302
 20
1.991783
  0
VERTEX
  8
EBENE_1
 62
    39
  6
CONTINUOUS
 10
0.431840
 20
1.933928
  0
VERTEX
  8
EBENE_1
 62
    39
  6
CONTINUOUS
 10
0.498264
 20
1.881177
  0
VERTEX
  8
EBENE_1
 62
    39
  6
CONTINUOUS
 10
1.051181
 20
1.893764
  0
VERTEX
  8
EBENE_1
 62
    39
  6
CONTINUOUS
 10
1.037287
 20
2.689697
  0
VERTEX
  8
EBENE_1
 62
    39
  6
CONTINUOUS
 10
0.241354
 20
2.675803
  0
SEQEND
  8
0
  0
POLYLINE
  8
EBENE_1
 62
    39
  6
CONTINUOUS
 66
     1
 40
0.003000
 41
0.003000
 70
     1
  0
VERTEX
  8
EBENE_1
 62
    39
  6
CONTINUOUS
 10
0.256181
 20
2.280524
  0
VERTEX
  8
EBENE_1
 62
    39
  6
CONTINUOUS
 10
0.263338
 20
2.232365
  0
VERTEX
  8
EBENE_1
 62
    39
  6
CONTINUOUS
 10
0.279174
 20
2.177777
  0
VERTEX
  8
EBENE_1
 62
    39
  6
CONTINUOUS
 10
0.304094
 20
2.119056
  0
VERTEX
  8
EBENE_1
 62
    39
  6
CONTINUOUS
 10
0.338501
 20
2.058501
  0
VERTEX
  8
EBENE_1
 62
    39
  6
CONTINUOUS
 10
0.382799
 20
1.998407
  0
VERTEX
  8
EBENE_1
 62
    39
  6
CONTINUOUS
 10
0.437391
 20
1.941073
  0
VERTEX
  8
EBENE_1
 62
    39
  6
CONTINUOUS
 10
0.502681
 20
1.888795
  0
VERTEX
  8
EBENE_1
 62
    39
  6
CONTINUOUS
 10
1.046087
 20
1.901189
  0
VERTEX
  8
EBENE_1
 62
    39
  6
CONTINUOUS
 10
1.032323
 20
2.689858
  0
VERTEX
  8
EBENE_1
 62
    39
  6
CONTINUOUS
 10
0.250075
 20
2.676201
  0
SEQEND
  8
0
  0
POLYLINE
  8
EBENE_1
 62
    39
  6
CONTINUOUS
 66
     1
 40
0.003000
 41
0.003000
 70
     1
  0
VERTEX
  8
EBENE_1
 62
    39
  6
CONTINUOUS
 10
0.975173
 20
2.417378
  0
VERTEX
  8
EBENE_1
 62
    39
  6
CONTINUOUS
 10
0.978027
 20
2.416396
  0
VERTEX
  8
EBENE_1
 62
    39
  6
CONTINUOUS
 10
0.980094
 20
2.413724
  0
VERTEX
  8
EBENE_1
 62
    39
  6
CONTINUOUS
 10
0.980929
 20
2.409937
  0
VERTEX
  8
EBENE_1
 62
    39
  6
CONTINUOUS
 10
0.980227
 20
2.406123
  0
VERTEX
  8
EBENE_1
 62
    39
  6
CONTINUOUS
 10
0.978255
 20
2.403382
  0
VERTEX
  8
EBENE_1
 62
    39
  6
CONTINUOUS
 10
0.975437
 20
2.402303
  0
VERTEX
  8
EBENE_1
 62
    39
  6
CONTINUOUS
 10
0.972583
 20
2.403285
  0
VERTEX
  8
EBENE_1
 62
    39
  6
CONTINUOUS
 10
0.970515
 20
2.405956
  0
VERTEX
  8
EBENE_1
 62
    39
  6
CONTINUOUS
 10
0.969677
 20
2.409740
  0
VERTEX
  8
EBENE_1
 62
    39
  6
CONTINUOUS
 10
0.970382
 20
2.413557
  0
VERTEX
  8
EBENE_1
 62
    39
  6
CONTINUOUS
 10
0.972355
 20
2.416299
  0
SEQEND
  8
0
  0
POLYLINE
  8
EBENE_1
 62
    39
  6
CONTINUOUS
 66
     1
 40
0.003000
 41
0.003000
 70
     1
  0
VERTEX
  8
EBENE_1
 62
    39
  6
CONTINUOUS
 10
0.980020
 20
2.283051
  0
VERTEX
  8
EBENE_1
 62
    39
  6
CONTINUOUS
 10
0.982871
 20
2.282070
  0
VERTEX
  8
EBENE_1
 62
    39
  6
CONTINUOUS
 10
0.984938
 20
2.279398
  0
VERTEX
  8
EBENE_1
 62
    39
  6
CONTINUOUS
 10
0.985776
 20
2.275610
  0
VERTEX
  8
EBENE_1
 62
    39
  6
CONTINUOUS
 10
0.985071
 20
2.271796
  0
VERTEX
  8
EBENE_1
 62
    39
  6
CONTINUOUS
 10
0.983098
 20
2.269054
  0
VERTEX
  8
EBENE_1
 62
    39
  6
CONTINUOUS
 10
0.980283
 20
2.267972
  0
VERTEX
  8
EBENE_1
 62
    39
  6
CONTINUOUS
 10
0.977429
 20
2.268956
  0
VERTEX
  8
EBENE_1
 62
    39
  6
CONTINUOUS
 10
0.975360
 20
2.271627
  0
VERTEX
  8
EBENE_1
 62
    39
  6
CONTINUOUS
 10
0.974524
 20
2.275413
  0
VERTEX
  8
EBENE_1
 62
    39
  6
CONTINUOUS
 10
0.975228
 20
2.279227
  0
VERTEX
  8
EBENE_1
 62
    39
  6
CONTINUOUS
 10
0.977202
 20
2.281970
  0
SEQEND
  8
0
  0
POLYLINE
  8
EBENE_1
 62
    39
  6
CONTINUOUS
 66
     1
 40
0.003000
 41
0.003000
 70
     1
  0
VERTEX
  8
EBENE_1
 62
    39
  6
CONTINUOUS
 10
0.718476
 20
2.651772
  0
VERTEX
  8
EBENE_1
 62
    39
  6
CONTINUOUS
 10
0.721330
 20
2.650788
  0
VERTEX
  8
EBENE_1
 62
    39
  6
CONTINUOUS
 10
0.723397
 20
2.648116
  0
VERTEX
  8
EBENE_1
 62
    39
  6
CONTINUOUS
 10
0.724232
 20
2.644327
  0
VERTEX
  8
EBENE_1
 62
    39
  6
CONTINUOUS
 10
0.723529
 20
2.640516
  0
VERTEX
  8
EBENE_1
 62
    39
  6
CONTINUOUS
 10
0.721556
 20
2.637774
  0
VERTEX
  8
EBENE_1
 62
    39
  6
CONTINUOUS
 10
0.718740
 20
2.636693
  0
VERTEX
  8
EBENE_1
 62
    39
  6
CONTINUOUS
 10
0.715886
 20
2.637674
  0
VERTEX
  8
EBENE_1
 62
    39
  6
CONTINUOUS
 10
0.713818
 20
2.640345
  0
VERTEX
  8
EBENE_1
 62
    39
  6
CONTINUOUS
 10
0.712980
 20
2.644130
  0
VERTEX
  8
EBENE_1
 62
    39
  6
CONTINUOUS
 10
0.713685
 20
2.647947
  0
VERTEX
  8
EBENE_1
 62
    39
  6
CONTINUOUS
 10
0.715659
 20
2.650690
  0
SEQEND
  8
0
  0
POLYLINE
  8
EBENE_1
 62
    39
  6
CONTINUOUS
 66
     1
 40
0.003000
 41
0.003000
 70
     1
  0
VERTEX
  8
EBENE_1
 62
    39
  6
CONTINUOUS
 10
0.563496
 20
2.646622
  0
VERTEX
  8
EBENE_1
 62
    39
  6
CONTINUOUS
 10
0.566347
 20
2.645639
  0
VERTEX
  8
EBENE_1
 62
    39
  6
CONTINUOUS
 10
0.568414
 20
2.642966
  0
VERTEX
  8
EBENE_1
 62
    39
  6
CONTINUOUS
 10
0.569252
 20
2.639177
  0
VERTEX
  8
EBENE_1
 62
    39
  6
CONTINUOUS
 10
0.568547
 20
2.635366
  0
VERTEX
  8
EBENE_1
 62
    39
  6
CONTINUOUS
 10
0.566575
 20
2.632625
  0
VERTEX
  8
EBENE_1
 62
    39
  6
CONTINUOUS
 10
0.563760
 20
2.631543
  0
VERTEX
  8
EBENE_1
 62
    39
  6
CONTINUOUS
 10
0.560905
 20
2.632525
  0
VERTEX
  8
EBENE_1
 62
    39
  6
CONTINUOUS
 10
0.558836
 20
2.635196
  0
VERTEX
  8
EBENE_1
 62
    39
  6
CONTINUOUS
 10
0.558000
 20
2.638980
  0
VERTEX
  8
EBENE_1
 62
    39
  6
CONTINUOUS
 10
0.558703
 20
2.642797
  0
VERTEX
  8
EBENE_1
 62
    39
  6
CONTINUOUS
 10
0.560677
 20
2.645540
  0
SEQEND
  8
0
  0
POLYLINE
  8
EBENE_1
 62
    39
  6
CONTINUOUS
 66
     1
 40
0.010000
 41
0.010000
 70
     1
  0
VERTEX
  8
EBENE_1
 62
    39
  6
CONTINUOUS
 10
0.798693
 20
2.276476
  0
VERTEX
  8
EBENE_1
 62
    39
  6
CONTINUOUS
 10
0.805967
 20
2.227876
  0
VERTEX
  8
EBENE_1
 62
    39
  6
CONTINUOUS
 10
0.822072
 20
2.172789
  0
VERTEX
  8
EBENE_1
 62
    39
  6
CONTINUOUS
 10
0.847419
 20
2.113532
  0
VERTEX
  8
EBENE_1
 62
    39
  6
CONTINUOUS
 10
0.882419
 20
2.052423
  0
VERTEX
  8
EBENE_1
 62
    39
  6
CONTINUOUS
 10
0.927483
 20
1.991783
  0
VERTEX
  8
EBENE_1
 62
    39
  6
CONTINUOUS
 10
0.983021
 20
1.933928
  0
VERTEX
  8
EBENE_1
 62
    39
  6
CONTINUOUS
 10
1.049445
 20
1.881177
  0
VERTEX
  8
EBENE_1
 62
    39
  6
CONTINUOUS
 10
1.602362
 20
1.893764
  0
VERTEX
  8
EBENE_1
 62
    39
  6
CONTINUOUS
 10
1.588469
 20
2.689697
  0
VERTEX
  8
EBENE_1
 62
    39
  6
CONTINUOUS
 10
0.792535
 20
2.675803
  0
SEQEND
  8
0
  0
POLYLINE
  8
EBENE_1
 62
    39
  6
CONTINUOUS
 66
     1
 40
0.003000
 41
0.003000
 70
     1
  0
VERTEX
  8
EBENE_1
 62
    39
  6
CONTINUOUS
 10
0.807362
 20
2.280524
  0
VERTEX
  8
EBENE_1
 62
    39
  6
CONTINUOUS
 10
0.814519
 20
2.232365
  0
VERTEX
  8
EBENE_1
 62
    39
  6
CONTINUOUS
 10
0.830355
 20
2.177777
  0
VERTEX
  8
EBENE_1
 62
    39
  6
CONTINUOUS
 10
0.855275
 20
2.119056
  0
VERTEX
  8
EBENE_1
 62
    39
  6
CONTINUOUS
 10
0.889682
 20
2.058501
  0
VERTEX
  8
EBENE_1
 62
    39
  6
CONTINUOUS
 10
0.933980
 20
1.998407
  0
VERTEX
  8
EBENE_1
 62
    39
  6
CONTINUOUS
 10
0.988572
 20
1.941073
  0
VERTEX
  8
EBENE_1
 62
    39
  6
CONTINUOUS
 10
1.053862
 20
1.888795
  0
VERTEX
  8
EBENE_1
 62
    39
  6
CONTINUOUS
 10
1.597268
 20
1.901189
  0
VERTEX
  8
EBENE_1
 62
    39
  6
CONTINUOUS
 10
1.583504
 20
2.689858
  0
VERTEX
  8
EBENE_1
 62
    39
  6
CONTINUOUS
 10
0.801256
 20
2.676201
  0
SEQEND
  8
0
  0
POLYLINE
  8
EBENE_1
 62
    39
  6
CONTINUOUS
 66
     1
 40
0.003000
 41
0.003000
 70
     1
  0
VERTEX
  8
EBENE_1
 62
    39
  6
CONTINUOUS
 10
1.526354
 20
2.417378
  0
VERTEX
  8
EBENE_1
 62
    39
  6
CONTINUOUS
 10
1.529208
 20
2.416396
  0
VERTEX
  8
EBENE_1
 62
    39
  6
CONTINUOUS
 10
1.531275
 20
2.413724
  0
VERTEX
  8
EBENE_1
 62
    39
  6
CONTINUOUS
 10
1.532110
 20
2.409937
  0
VERTEX
  8
EBENE_1
 62
    39
  6
CONTINUOUS
 10
1.531408
 20
2.406123
  0
VERTEX
  8
EBENE_1
 62
    39
  6
CONTINUOUS
 10
1.529436
 20
2.403382
  0
VERTEX
  8
EBENE_1
 62
    39
  6
CONTINUOUS
 10
1.526618
 20
2.402303
  0
VERTEX
  8
EBENE_1
 62
    39
  6
CONTINUOUS
 10
1.523764
 20
2.403285
  0
VERTEX
  8
EBENE_1
 62
    39
  6
CONTINUOUS
 10
1.521696
 20
2.405956
  0
VERTEX
  8
EBENE_1
 62
    39
  6
CONTINUOUS
 10
1.520858
 20
2.409740
  0
VERTEX
  8
EBENE_1
 62
    39
  6
CONTINUOUS
 10
1.521563
 20
2.413557
  0
VERTEX
  8
EBENE_1
 62
    39
  6
CONTINUOUS
 10
1.523537
 20
2.416299
  0
SEQEND
  8
0
  0
POLYLINE
  8
EBENE_1
 62
    39
  6
CONTINUOUS
 66
     1
 40
0.003000
 41
0.003000
 70
     1
  0
VERTEX
  8
EBENE_1
 62
    39
  6
CONTINUOUS
 10
1.531201
 20
2.283051
  0
VERTEX
  8
EBENE_1
 62
    39
  6
CONTINUOUS
 10
1.534052
 20
2.282070
  0
VERTEX
  8
EBENE_1
 62
    39
  6
CONTINUOUS
 10
1.536119
 20
2.279398
  0
VERTEX
  8
EBENE_1
 62
    39
  6
CONTINUOUS
 10
1.536957
 20
2.275610
  0
VERTEX
  8
EBENE_1
 62
    39
  6
CONTINUOUS
 10
1.536252
 20
2.271796
  0
VERTEX
  8
EBENE_1
 62
    39
  6
CONTINUOUS
 10
1.534280
 20
2.269054
  0
VERTEX
  8
EBENE_1
 62
    39
  6
CONTINUOUS
 10
1.531465
 20
2.267972
  0
VERTEX
  8
EBENE_1
 62
    39
  6
CONTINUOUS
 10
1.528610
 20
2.268956
  0
VERTEX
  8
EBENE_1
 62
    39
  6
CONTINUOUS
 10
1.526541
 20
2.271627
  0
VERTEX
  8
EBENE_1
 62
    39
  6
CONTINUOUS
 10
1.525705
 20
2.275413
  0
VERTEX
  8
EBENE_1
 62
    39
  6
CONTINUOUS
 10
1.526410
 20
2.279227
  0
VERTEX
  8
EBENE_1
 62
    39
  6
CONTINUOUS
 10
1.528383
 20
2.281970
  0
SEQEND
  8
0
  0
POLYLINE
  8
EBENE_1
 62
    39
  6
CONTINUOUS
 66
     1
 40
0.003000
 41
0.003000
 70
     1
  0
VERTEX
  8
EBENE_1
 62
    39
  6
CONTINUOUS
 10
1.269657
 20
2.651772
  0
VERTEX
  8
EBENE_1
 62
    39
  6
CONTINUOUS
 10
1.272511
 20
2.650788
  0
VERTEX
  8
EBENE_1
 62
    39
  6
CONTINUOUS
 10
1.274578
 20
2.648116
  0
VERTEX
  8
EBENE_1
 62
    39
  6
CONTINUOUS
 10
1.275413
 20
2.644327
  0
VERTEX
  8
EBENE_1
 62
    39
  6
CONTINUOUS
 10
1.274710
 20
2.640516
  0
VERTEX
  8
EBENE_1
 62
    39
  6
CONTINUOUS
 10
1.272737
 20
2.637774
  0
VERTEX
  8
EBENE_1
 62
    39
  6
CONTINUOUS
 10
1.269921
 20
2.636693
  0
VERTEX
  8
EBENE_1
 62
    39
  6
CONTINUOUS
 10
1.267068
 20
2.637674
  0
VERTEX
  8
EBENE_1
 62
    39
  6
CONTINUOUS
 10
1.264999
 20
2.640345
  0
VERTEX
  8
EBENE_1
 62
    39
  6
CONTINUOUS
 10
1.264161
 20
2.644130
  0
VERTEX
  8
EBENE_1
 62
    39
  6
CONTINUOUS
 10
1.264866
 20
2.647947
  0
VERTEX
  8
EBENE_1
 62
    39
  6
CONTINUOUS
 10
1.266840
 20
2.650690
  0
SEQEND
  8
0
  0
POLYLINE
  8
EBENE_1
 62
    39
  6
CONTINUOUS
 66
     1
 40
0.003000
 41
0.003000
 70
     1
  0
VERTEX
  8
EBENE_1
 62
    39
  6
CONTINUOUS
 10
1.114677
 20
2.646622
  0
VERTEX
  8
EBENE_1
 62
    39
  6
CONTINUOUS
 10
1.117528
 20
2.645639
  0
VERTEX
  8
EBENE_1
 62
    39
  6
CONTINUOUS
 10
1.119595
 20
2.642966
  0
VERTEX
  8
EBENE_1
 62
    39
  6
CONTINUOUS
 10
1.120433
 20
2.639177
  0
VERTEX
  8
EBENE_1
 62
    39
  6
CONTINUOUS
 10
1.119728
 20
2.635366
  0
VERTEX
  8
EBENE_1
 62
    39
  6
CONTINUOUS
 10
1.117756
 20
2.632625
  0
VERTEX
  8
EBENE_1
 62
    39
  6
CONTINUOUS
 10
1.114941
 20
2.631543
  0
VERTEX
  8
EBENE_1
 62
    39
  6
CONTINUOUS
 10
1.112086
 20
2.632525
  0
VERTEX
  8
EBENE_1
 62
    39
  6
CONTINUOUS
 10
1.110017
 20
2.635196
  0
VERTEX
  8
EBENE_1
 62
    39
  6
CONTINUOUS
 10
1.109181
 20
2.638980
  0
VERTEX
  8
EBENE_1
 62
    39
  6
CONTINUOUS
 10
1.109884
 20
2.642797
  0
VERTEX
  8
EBENE_1
 62
    39
  6
CONTINUOUS
 10
1.111859
 20
2.645540
  0
SEQEND
  8
0
  0
POLYLINE
  8
EBENE_1
 62
    39
  6
CONTINUOUS
 66
     1
 40
0.010000
 41
0.010000
 70
     1
  0
VERTEX
  8
EBENE_1
 62
    39
  6
CONTINUOUS
 10
1.349874
 20
2.276476
  0
VERTEX
  8
EBENE_1
 62
    39
  6
CONTINUOUS
 10
1.357148
 20
2.227876
  0
VERTEX
  8
EBENE_1
 62
    39
  6
CONTINUOUS
 10
1.373253
 20
2.172789
  0
VERTEX
  8
EBENE_1
 62
    39
  6
CONTINUOUS
 10
1.398600
 20
2.113532
  0
VERTEX
  8
EBENE_1
 62
    39
  6
CONTINUOUS
 10
1.433600
 20
2.052423
  0
VERTEX
  8
EBENE_1
 62
    39
  6
CONTINUOUS
 10
1.478664
 20
1.991783
  0
VERTEX
  8
EBENE_1
 62
    39
  6
CONTINUOUS
 10
1.534202
 20
1.933928
  0
VERTEX
  8
EBENE_1
 62
    39
  6
CONTINUOUS
 10
1.600626
 20
1.881177
  0
VERTEX
  8
EBENE_1
 62
    39
  6
CONTINUOUS
 10
2.153543
 20
1.893764
  0
VERTEX
  8
EBENE_1
 62
    39
  6
CONTINUOUS
 10
2.139650
 20
2.689697
  0
VERTEX
  8
EBENE_1
 62
    39
  6
CONTINUOUS
 10
1.343717
 20
2.675803
  0
SEQEND
  8
0
  0
POLYLINE
  8
EBENE_1
 62
    39
  6
CONTINUOUS
 66
     1
 40
0.003000
 41
0.003000
 70
     1
  0
VERTEX
  8
EBENE_1
 62
    39
  6
CONTINUOUS
 10
1.358543
 20
2.280524
  0
VERTEX
  8
EBENE_1
 62
    39
  6
CONTINUOUS
 10
1.365700
 20
2.232365
  0
VERTEX
  8
EBENE_1
 62
    39
  6
CONTINUOUS
 10
1.381536
 20
2.177777
  0
VERTEX
  8
EBENE_1
 62
    39
  6
CONTINUOUS
 10
1.406456
 20
2.119056
  0
VERTEX
  8
EBENE_1
 62
    39
  6
CONTINUOUS
 10
1.440864
 20
2.058501
  0
VERTEX
  8
EBENE_1
 62
    39
  6
CONTINUOUS
 10
1.485161
 20
1.998407
  0
VERTEX
  8
EBENE_1
 62
    39
  6
CONTINUOUS
 10
1.539753
 20
1.941073
  0
VERTEX
  8
EBENE_1
 62
    39
  6
CONTINUOUS
 10
1.605043
 20
1.888795
  0
VERTEX
  8
EBENE_1
 62
    39
  6
CONTINUOUS
 10
2.148449
 20
1.901189
  0
VERTEX
  8
EBENE_1
 62
    39
  6
CONTINUOUS
 10
2.134685
 20
2.689858
  0
VERTEX
  8
EBENE_1
 62
    39
  6
CONTINUOUS
 10
1.352437
 20
2.676201
  0
SEQEND
  8
0
  0
POLYLINE
  8
EBENE_1
 62
    39
  6
CONTINUOUS
 66
     1
 40
0.003000
 41
0.003000
 70
     1
  0
VERTEX
  8
EBENE_1
 62
    39
  6
CONTINUOUS
 10
2.077535
 20
2.417378
  0
VERTEX
  8
EBENE_1
 62
    39
  6
CONTINUOUS
 10
2.080389
 20
2.416396
  0
VERTEX
  8
EBENE_1
 62
    39
  6
CONTINUOUS
 10
2.082456
 20
2.413724
  0
VERTEX
  8
EBENE_1
 62
    39
  6
CONTINUOUS
 10
2.083291
 20
2.409937
  0
VERTEX
  8
EBENE_1
 62
    39
  6
CONTINUOUS
 10
2.082589
 20
2.406123
  0
VERTEX
  8
EBENE_1
 62
    39
  6
CONTINUOUS
 10
2.080617
 20
2.403382
  0
VERTEX
  8
EBENE_1
 62
    39
  6
CONTINUOUS
 10
2.077799
 20
2.402303
  0
VERTEX
  8
EBENE_1
 62
    39
  6
CONTINUOUS
 10
2.074945
 20
2.403285
  0
VERTEX
  8
EBENE_1
 62
    39
  6
CONTINUOUS
 10
2.072877
 20
2.405956
  0
VERTEX
  8
EBENE_1
 62
    39
  6
CONTINUOUS
 10
2.072039
 20
2.409740
  0
VERTEX
  8
EBENE_1
 62
    39
  6
CONTINUOUS
 10
2.072744
 20
2.413557
  0
VERTEX
  8
EBENE_1
 62
    39
  6
CONTINUOUS
 10
2.074718
 20
2.416299
  0
SEQEND
  8
0
  0
POLYLINE
  8
EBENE_1
 62
    39
  6
CONTINUOUS
 66
     1
 40
0.003000
 41
0.003000
 70
     1
  0
VERTEX
  8
EBENE_1
 62
    39
  6
CONTINUOUS
 10
2.082382
 20
2.283051
  0
VERTEX
  8
EBENE_1
 62
    39
  6
CONTINUOUS
 10
2.085233
 20
2.282070
  0
VERTEX
  8
EBENE_1
 62
    39
  6
CONTINUOUS
 10
2.087300
 20
2.279398
  0
VERTEX
  8
EBENE_1
 62
    39
  6
CONTINUOUS
 10
2.088138
 20
2.275610
  0
VERTEX
  8
EBENE_1
 62
    39
  6
CONTINUOUS
 10
2.087433
 20
2.271796
  0
VERTEX
  8
EBENE_1
 62
    39
  6
CONTINUOUS
 10
2.085461
 20
2.269054
  0
VERTEX
  8
EBENE_1
 62
    39
  6
CONTINUOUS
 10
2.082646
 20
2.267972
  0
VERTEX
  8
EBENE_1
 62
    39
  6
CONTINUOUS
 10
2.079791
 20
2.268956
  0
VERTEX
  8
EBENE_1
 62
    39
  6
CONTINUOUS
 10
2.077722
 20
2.271627
  0
VERTEX
  8
EBENE_1
 62
    39
  6
CONTINUOUS
 10
2.076886
 20
2.275413
  0
VERTEX
  8
EBENE_1
 62
    39
  6
CONTINUOUS
 10
2.077591
 20
2.279227
  0
VERTEX
  8
EBENE_1
 62
    39
  6
CONTINUOUS
 10
2.079564
 20
2.281970
  0
SEQEND
  8
0
  0
POLYLINE
  8
EBENE_1
 62
    39
  6
CONTINUOUS
 66
     1
 40
0.003000
 41
0.003000
 70
     1
  0
VERTEX
  8
EBENE_1
 62
    39
  6
CONTINUOUS
 10
1.820839
 20
2.651772
  0
VERTEX
  8
EBENE_1
 62
    39
  6
CONTINUOUS
 10
1.823692
 20
2.650788
  0
VERTEX
  8
EBENE_1
 62
    39
  6
CONTINUOUS
 10
1.825759
 20
2.648116
  0
VERTEX
  8
EBENE_1
 62
    39
  6
CONTINUOUS
 10
1.826594
 20
2.644327
  0
VERTEX
  8
EBENE_1
 62
    39
  6
CONTINUOUS
 10
1.825892
 20
2.640516
  0
VERTEX
  8
EBENE_1
 62
    39
  6
CONTINUOUS
 10
1.823918
 20
2.637774
  0
VERTEX
  8
EBENE_1
 62
    39
  6
CONTINUOUS
 10
1.821102
 20
2.636693
  0
VERTEX
  8
EBENE_1
 62
    39
  6
CONTINUOUS
 10
1.818249
 20
2.637674
  0
VERTEX
  8
EBENE_1
 62
    39
  6
CONTINUOUS
 10
1.816181
 20
2.640345
  0
VERTEX
  8
EBENE_1
 62
    39
  6
CONTINUOUS
 10
1.815343
 20
2.644130
  0
VERTEX
  8
EBENE_1
 62
    39
  6
CONTINUOUS
 10
1.816047
 20
2.647947
  0
VERTEX
  8
EBENE_1
 62
    39
  6
CONTINUOUS
 10
1.818021
 20
2.650690
  0
SEQEND
  8
0
  0
POLYLINE
  8
EBENE_1
 62
    39
  6
CONTINUOUS
 66
     1
 40
0.003000
 41
0.003000
 70
     1
  0
VERTEX
  8
EBENE_1
 62
    39
  6
CONTINUOUS
 10
1.665858
 20
2.646622
  0
VERTEX
  8
EBENE_1
 62
    39
  6
CONTINUOUS
 10
1.668709
 20
2.645639
  0
VERTEX
  8
EBENE_1
 62
    39
  6
CONTINUOUS
 10
1.670776
 20
2.642966
  0
VERTEX
  8
EBENE_1
 62
    39
  6
CONTINUOUS
 10
1.671614
 20
2.639177
  0
VERTEX
  8
EBENE_1
 62
    39
  6
CONTINUOUS
 10
1.670909
 20
2.635366
  0
VERTEX
  8
EBENE_1
 62
    39
  6
CONTINUOUS
 10
1.668937
 20
2.632625
  0
VERTEX
  8
EBENE_1
 62
    39
  6
CONTINUOUS
 10
1.666122
 20
2.631543
  0
VERTEX
  8
EBENE_1
 62
    39
  6
CONTINUOUS
 10
1.663267
 20
2.632525
  0
VERTEX
  8
EBENE_1
 62
    39
  6
CONTINUOUS
 10
1.661198
 20
2.635196
  0
VERTEX
  8
EBENE_1
 62
    39
  6
CONTINUOUS
 10
1.660362
 20
2.638980
  0
VERTEX
  8
EBENE_1
 62
    39
  6
CONTINUOUS
 10
1.661065
 20
2.642797
  0
VERTEX
  8
EBENE_1
 62
    39
  6
CONTINUOUS
 10
1.663040
 20
2.645540
  0
SEQEND
  8
0
  0
POLYLINE
  8
EBENE_1
 62
    39
  6
CONTINUOUS
 66
     1
 40
0.010000
 41
0.010000
 70
     1
  0
VERTEX
  8
EBENE_1
 62
    39
  6
CONTINUOUS
 10
-0.667965
 20
-4.849413
  0
VERTEX
  8
EBENE_1
 62
    39
  6
CONTINUOUS
 10
-0.660507
 20
-4.896987
  0
VERTEX
  8
EBENE_1
 62
    39
  6
CONTINUOUS
 10
-0.644480
 20
-4.950959
  0
VERTEX
  8
EBENE_1
 62
    39
  6
CONTINUOUS
 10
-0.619512
 20
-5.009065
  0
VERTEX
  8
EBENE_1
 62
    39
  6
CONTINUOUS
 10
-0.585227
 20
-5.069040
  0
VERTEX
  8
EBENE_1
 62
    39
  6
CONTINUOUS
 10
-0.541252
 20
-5.128619
  0
VERTEX
  8
EBENE_1
 62
    39
  6
CONTINUOUS
 10
-0.487211
 20
-5.185538
  0
VERTEX
  8
EBENE_1
 62
    39
  6
CONTINUOUS
 10
-0.422732
 20
-5.237531
  0
VERTEX
  8
EBENE_1
 62
    39
  6
CONTINUOUS
 10
0.109799
 20
-5.228606
  0
VERTEX
  8
EBENE_1
 62
    39
  6
CONTINUOUS
 10
0.089024
 20
-4.450138
  0
VERTEX
  8
EBENE_1
 62
    39
  6
CONTINUOUS
 10
-0.677606
 20
-4.458854
  0
SEQEND
  8
0
  0
POLYLINE
  8
EBENE_1
 62
    39
  6
CONTINUOUS
 66
     1
 40
0.003000
 41
0.003000
 70
     1
  0
VERTEX
  8
EBENE_1
 62
    39
  6
CONTINUOUS
 10
-0.657512
 20
-4.845500
  0
VERTEX
  8
EBENE_1
 62
    39
  6
CONTINUOUS
 10
-0.648177
 20
-4.900428
  0
VERTEX
  8
EBENE_1
 62
    39
  6
CONTINUOUS
 10
-0.627343
 20
-4.963369
  0
VERTEX
  8
EBENE_1
 62
    39
  6
CONTINUOUS
 10
-0.594431
 20
-5.030807
  0
VERTEX
  8
EBENE_1
 62
    39
  6
CONTINUOUS
 10
-0.548857
 20
-5.099226
  0
VERTEX
  8
EBENE_1
 62
    39
  6
CONTINUOUS
 10
-0.490043
 20
-5.165110
  0
VERTEX
  8
EBENE_1
 62
    39
  6
CONTINUOUS
 10
-0.417406
 20
-5.224945
  0
VERTEX
  8
EBENE_1
 62
    39
  6
CONTINUOUS
 10
0.103811
 20
-5.216264
  0
VERTEX
  8
EBENE_1
 62
    39
  6
CONTINUOUS
 10
0.083307
 20
-4.455244
  0
VERTEX
  8
EBENE_1
 62
    39
  6
CONTINUOUS
 10
-0.667031
 20
-4.463697
  0
SEQEND
  8
0
  0
POLYLINE
  8
EBENE_1
 62
    39
  6
CONTINUOUS
 66
     1
 40
0.003000
 41
0.003000
 70
     1
  0
VERTEX
  8
EBENE_1
 62
    39
  6
CONTINUOUS
 10
0.031713
 20
-4.716071
  0
VERTEX
  8
EBENE_1
 62
    39
  6
CONTINUOUS
 10
0.034471
 20
-4.717048
  0
VERTEX
  8
EBENE_1
 62
    39
  6
CONTINUOUS
 10
0.036487
 20
-4.719674
  0
VERTEX
  8
EBENE_1
 62
    39
  6
CONTINUOUS
 10
0.037327
 20
-4.723386
  0
VERTEX
  8
EBENE_1
 62
    39
  6
CONTINUOUS
 10
0.036685
 20
-4.727109
  0
VERTEX
  8
EBENE_1
 62
    39
  6
CONTINUOUS
 10
0.034811
 20
-4.729778
  0
VERTEX
  8
EBENE_1
 62
    39
  6
CONTINUOUS
 10
0.032106
 20
-4.730819
  0
VERTEX
  8
EBENE_1
 62
    39
  6
CONTINUOUS
 10
0.029348
 20
-4.729839
  0
VERTEX
  8
EBENE_1
 62
    39
  6
CONTINUOUS
 10
0.027332
 20
-4.727214
  0
VERTEX
  8
EBENE_1
 62
    39
  6
CONTINUOUS
 10
0.026492
 20
-4.723508
  0
VERTEX
  8
EBENE_1
 62
    39
  6
CONTINUOUS
 10
0.027133
 20
-4.719782
  0
VERTEX
  8
EBENE_1
 62
    39
  6
CONTINUOUS
 10
0.029008
 20
-4.717112
  0
SEQEND
  8
0
  0
POLYLINE
  8
EBENE_1
 62
    39
  6
CONTINUOUS
 66
     1
 40
0.003000
 41
0.003000
 70
     1
  0
VERTEX
  8
EBENE_1
 62
    39
  6
CONTINUOUS
 10
0.037630
 20
-4.847469
  0
VERTEX
  8
EBENE_1
 62
    39
  6
CONTINUOUS
 10
0.040386
 20
-4.848445
  0
VERTEX
  8
EBENE_1
 62
    39
  6
CONTINUOUS
 10
0.042402
 20
-4.851070
  0
VERTEX
  8
EBENE_1
 62
    39
  6
CONTINUOUS
 10
0.043244
 20
-4.854780
  0
VERTEX
  8
EBENE_1
 62
    39
  6
CONTINUOUS
 10
0.042600
 20
-4.858505
  0
VERTEX
  8
EBENE_1
 62
    39
  6
CONTINUOUS
 10
0.040725
 20
-4.861174
  0
VERTEX
  8
EBENE_1
 62
    39
  6
CONTINUOUS
 10
0.038024
 20
-4.862213
  0
VERTEX
  8
EBENE_1
 62
    39
  6
CONTINUOUS
 10
0.035263
 20
-4.861236
  0
VERTEX
  8
EBENE_1
 62
    39
  6
CONTINUOUS
 10
0.033245
 20
-4.858612
  0
VERTEX
  8
EBENE_1
 62
    39
  6
CONTINUOUS
 10
0.032406
 20
-4.854906
  0
VERTEX
  8
EBENE_1
 62
    39
  6
CONTINUOUS
 10
0.033047
 20
-4.851177
  0
VERTEX
  8
EBENE_1
 62
    39
  6
CONTINUOUS
 10
0.034923
 20
-4.848507
  0
SEQEND
  8
0
  0
POLYLINE
  8
EBENE_1
 62
    39
  6
CONTINUOUS
 66
     1
 40
0.003000
 41
0.003000
 70
     1
  0
VERTEX
  8
EBENE_1
 62
    39
  6
CONTINUOUS
 10
-0.217752
 20
-4.485280
  0
VERTEX
  8
EBENE_1
 62
    39
  6
CONTINUOUS
 10
-0.214994
 20
-4.486256
  0
VERTEX
  8
EBENE_1
 62
    39
  6
CONTINUOUS
 10
-0.212977
 20
-4.488881
  0
VERTEX
  8
EBENE_1
 62
    39
  6
CONTINUOUS
 10
-0.212138
 20
-4.492591
  0
VERTEX
  8
EBENE_1
 62
    39
  6
CONTINUOUS
 10
-0.212779
 20
-4.496316
  0
VERTEX
  8
EBENE_1
 62
    39
  6
CONTINUOUS
 10
-0.214654
 20
-4.498985
  0
VERTEX
  8
EBENE_1
 62
    39
  6
CONTINUOUS
 10
-0.217358
 20
-4.500024
  0
VERTEX
  8
EBENE_1
 62
    39
  6
CONTINUOUS
 10
-0.220117
 20
-4.499047
  0
VERTEX
  8
EBENE_1
 62
    39
  6
CONTINUOUS
 10
-0.222133
 20
-4.496422
  0
VERTEX
  8
EBENE_1
 62
    39
  6
CONTINUOUS
 10
-0.222972
 20
-4.492713
  0
VERTEX
  8
EBENE_1
 62
    39
  6
CONTINUOUS
 10
-0.222331
 20
-4.488987
  0
VERTEX
  8
EBENE_1
 62
    39
  6
CONTINUOUS
 10
-0.220456
 20
-4.486318
  0
SEQEND
  8
0
  0
POLYLINE
  8
EBENE_1
 62
    39
  6
CONTINUOUS
 66
     1
 40
0.003000
 41
0.003000
 70
     1
  0
VERTEX
  8
EBENE_1
 62
    39
  6
CONTINUOUS
 10
-0.367004
 20
-4.489366
  0
VERTEX
  8
EBENE_1
 62
    39
  6
CONTINUOUS
 10
-0.364246
 20
-4.490343
  0
VERTEX
  8
EBENE_1
 62
    39
  6
CONTINUOUS
 10
-0.362229
 20
-4.492968
  0
VERTEX
  8
EBENE_1
 62
    39
  6
CONTINUOUS
 10
-0.361390
 20
-4.496677
  0
VERTEX
  8
EBENE_1
 62
    39
  6
CONTINUOUS
 10
-0.362031
 20
-4.500403
  0
VERTEX
  8
EBENE_1
 62
    39
  6
CONTINUOUS
 10
-0.363906
 20
-4.503073
  0
VERTEX
  8
EBENE_1
 62
    39
  6
CONTINUOUS
 10
-0.366610
 20
-4.504114
  0
VERTEX
  8
EBENE_1
 62
    39
  6
CONTINUOUS
 10
-0.369368
 20
-4.503135
  0
VERTEX
  8
EBENE_1
 62
    39
  6
CONTINUOUS
 10
-0.371385
 20
-4.500510
  0
VERTEX
  8
EBENE_1
 62
    39
  6
CONTINUOUS
 10
-0.372224
 20
-4.496803
  0
VERTEX
  8
EBENE_1
 62
    39
  6
CONTINUOUS
 10
-0.371583
 20
-4.493076
  0
VERTEX
  8
EBENE_1
 62
    39
  6
CONTINUOUS
 10
-0.369708
 20
-4.490405
  0
SEQEND
  8
0
  0
POLYLINE
  8
EBENE_1
 62
    39
  6
CONTINUOUS
 66
     1
 40
0.010000
 41
0.010000
 70
     1
  0
VERTEX
  8
EBENE_1
 62
    39
  6
CONTINUOUS
 10
2.639398
 20
-4.778094
  0
VERTEX
  8
EBENE_1
 62
    39
  6
CONTINUOUS
 10
2.631940
 20
-4.825668
  0
VERTEX
  8
EBENE_1
 62
    39
  6
CONTINUOUS
 10
2.615914
 20
-4.879641
  0
VERTEX
  8
EBENE_1
 62
    39
  6
CONTINUOUS
 10
2.590945
 20
-4.937746
  0
VERTEX
  8
EBENE_1
 62
    39
  6
CONTINUOUS
 10
2.556660
 20
-4.997721
  0
VERTEX
  8
EBENE_1
 62
    39
  6
CONTINUOUS
 10
2.512685
 20
-5.057300
  0
VERTEX
  8
EBENE_1
 62
    39
  6
CONTINUOUS
 10
2.458645
 20
-5.114219
  0
VERTEX
  8
EBENE_1
 62
    39
  6
CONTINUOUS
 10
2.394165
 20
-5.166213
  0
VERTEX
  8
EBENE_1
 62
    39
  6
CONTINUOUS
 10
1.861634
 20
-5.157287
  0
VERTEX
  8
EBENE_1
 62
    39
  6
CONTINUOUS
 10
1.882409
 20
-4.378819
  0
VERTEX
  8
EBENE_1
 62
    39
  6
CONTINUOUS
 10
2.649039
 20
-4.387535
  0
SEQEND
  8
0
  0
POLYLINE
  8
EBENE_1
 62
    39
  6
CONTINUOUS
 66
     1
 40
0.003000
 41
0.003000
 70
     1
  0
VERTEX
  8
EBENE_1
 62
    39
  6
CONTINUOUS
 10
2.628945
 20
-4.774181
  0
VERTEX
  8
EBENE_1
 62
    39
  6
CONTINUOUS
 10
2.619610
 20
-4.829109
  0
VERTEX
  8
EBENE_1
 62
    39
  6
CONTINUOUS
 10
2.598776
 20
-4.892050
  0
VERTEX
  8
EBENE_1
 62
    39
  6
CONTINUOUS
 10
2.565864
 20
-4.959488
  0
VERTEX
  8
EBENE_1
 62
    39
  6
CONTINUOUS
 10
2.520290
 20
-5.027907
  0
VERTEX
  8
EBENE_1
 62
    39
  6
CONTINUOUS
 10
2.461476
 20
-5.093791
  0
VERTEX
  8
EBENE_1
 62
    39
  6
CONTINUOUS
 10
2.388839
 20
-5.153626
  0
VERTEX
  8
EBENE_1
 62
    39
  6
CONTINUOUS
 10
1.867622
 20
-5.144945
  0
VERTEX
  8
EBENE_1
 62
    39
  6
CONTINUOUS
 10
1.888126
 20
-4.383925
  0
VERTEX
  8
EBENE_1
 62
    39
  6
CONTINUOUS
 10
2.638465
 20
-4.392378
  0
SEQEND
  8
0
  0
POLYLINE
  8
EBENE_1
 62
    39
  6
CONTINUOUS
 66
     1
 40
0.003000
 41
0.003000
 70
     1
  0
VERTEX
  8
EBENE_1
 62
    39
  6
CONTINUOUS
 10
1.939720
 20
-4.644752
  0
VERTEX
  8
EBENE_1
 62
    39
  6
CONTINUOUS
 10
1.936962
 20
-4.645729
  0
VERTEX
  8
EBENE_1
 62
    39
  6
CONTINUOUS
 10
1.934946
 20
-4.648355
  0
VERTEX
  8
EBENE_1
 62
    39
  6
CONTINUOUS
 10
1.934106
 20
-4.652067
  0
VERTEX
  8
EBENE_1
 62
    39
  6
CONTINUOUS
 10
1.934748
 20
-4.655790
  0
VERTEX
  8
EBENE_1
 62
    39
  6
CONTINUOUS
 10
1.936622
 20
-4.658459
  0
VERTEX
  8
EBENE_1
 62
    39
  6
CONTINUOUS
 10
1.939327
 20
-4.659500
  0
VERTEX
  8
EBENE_1
 62
    39
  6
CONTINUOUS
 10
1.942085
 20
-4.658521
  0
VERTEX
  8
EBENE_1
 62
    39
  6
CONTINUOUS
 10
1.944101
 20
-4.655895
  0
VERTEX
  8
EBENE_1
 62
    39
  6
CONTINUOUS
 10
1.944941
 20
-4.652189
  0
VERTEX
  8
EBENE_1
 62
    39
  6
CONTINUOUS
 10
1.944300
 20
-4.648463
  0
VERTEX
  8
EBENE_1
 62
    39
  6
CONTINUOUS
 10
1.942425
 20
-4.645793
  0
SEQEND
  8
0
  0
POLYLINE
  8
EBENE_1
 62
    39
  6
CONTINUOUS
 66
     1
 40
0.003000
 41
0.003000
 70
     1
  0
VERTEX
  8
EBENE_1
 62
    39
  6
CONTINUOUS
 10
1.933803
 20
-4.776150
  0
VERTEX
  8
EBENE_1
 62
    39
  6
CONTINUOUS
 10
1.931048
 20
-4.777126
  0
VERTEX
  8
EBENE_1
 62
    39
  6
CONTINUOUS
 10
1.929031
 20
-4.779752
  0
VERTEX
  8
EBENE_1
 62
    39
  6
CONTINUOUS
 10
1.928189
 20
-4.783461
  0
VERTEX
  8
EBENE_1
 62
    39
  6
CONTINUOUS
 10
1.928833
 20
-4.787186
  0
VERTEX
  8
EBENE_1
 62
    39
  6
CONTINUOUS
 10
1.930708
 20
-4.789855
  0
VERTEX
  8
EBENE_1
 62
    39
  6
CONTINUOUS
 10
1.933409
 20
-4.790894
  0
VERTEX
  8
EBENE_1
 62
    39
  6
CONTINUOUS
 10
1.936170
 20
-4.789917
  0
VERTEX
  8
EBENE_1
 62
    39
  6
CONTINUOUS
 10
1.938188
 20
-4.787293
  0
VERTEX
  8
EBENE_1
 62
    39
  6
CONTINUOUS
 10
1.939028
 20
-4.783587
  0
VERTEX
  8
EBENE_1
 62
    39
  6
CONTINUOUS
 10
1.938386
 20
-4.779858
  0
VERTEX
  8
EBENE_1
 62
    39
  6
CONTINUOUS
 10
1.936510
 20
-4.777188
  0
SEQEND
  8
0
  0
POLYLINE
  8
EBENE_1
 62
    39
  6
CONTINUOUS
 66
     1
 40
0.003000
 41
0.003000
 70
     1
  0
VERTEX
  8
EBENE_1
 62
    39
  6
CONTINUOUS
 10
2.189185
 20
-4.413961
  0
VERTEX
  8
EBENE_1
 62
    39
  6
CONTINUOUS
 10
2.186427
 20
-4.414937
  0
VERTEX
  8
EBENE_1
 62
    39
  6
CONTINUOUS
 10
2.184410
 20
-4.417563
  0
VERTEX
  8
EBENE_1
 62
    39
  6
CONTINUOUS
 10
2.183571
 20
-4.421272
  0
VERTEX
  8
EBENE_1
 62
    39
  6
CONTINUOUS
 10
2.184212
 20
-4.424998
  0
VERTEX
  8
EBENE_1
 62
    39
  6
CONTINUOUS
 10
2.186087
 20
-4.427667
  0
VERTEX
  8
EBENE_1
 62
    39
  6
CONTINUOUS
 10
2.188791
 20
-4.428705
  0
VERTEX
  8
EBENE_1
 62
    39
  6
CONTINUOUS
 10
2.191550
 20
-4.427728
  0
VERTEX
  8
EBENE_1
 62
    39
  6
CONTINUOUS
 10
2.193566
 20
-4.425103
  0
VERTEX
  8
EBENE_1
 62
    39
  6
CONTINUOUS
 10
2.194406
 20
-4.421394
  0
VERTEX
  8
EBENE_1
 62
    39
  6
CONTINUOUS
 10
2.193764
 20
-4.417668
  0
VERTEX
  8
EBENE_1
 62
    39
  6
CONTINUOUS
 10
2.191889
 20
-4.414999
  0
SEQEND
  8
0
  0
POLYLINE
  8
EBENE_1
 62
    39
  6
CONTINUOUS
 66
     1
 40
0.003000
 41
0.003000
 70
     1
  0
VERTEX
  8
EBENE_1
 62
    39
  6
CONTINUOUS
 10
2.338437
 20
-4.418047
  0
VERTEX
  8
EBENE_1
 62
    39
  6
CONTINUOUS
 10
2.335679
 20
-4.419024
  0
VERTEX
  8
EBENE_1
 62
    39
  6
CONTINUOUS
 10
2.333662
 20
-4.421649
  0
VERTEX
  8
EBENE_1
 62
    39
  6
CONTINUOUS
 10
2.332823
 20
-4.425358
  0
VERTEX
  8
EBENE_1
 62
    39
  6
CONTINUOUS
 10
2.333464
 20
-4.429084
  0
VERTEX
  8
EBENE_1
 62
    39
  6
CONTINUOUS
 10
2.335339
 20
-4.431754
  0
VERTEX
  8
EBENE_1
 62
    39
  6
CONTINUOUS
 10
2.338043
 20
-4.432795
  0
VERTEX
  8
EBENE_1
 62
    39
  6
CONTINUOUS
 10
2.340802
 20
-4.431816
  0
VERTEX
  8
EBENE_1
 62
    39
  6
CONTINUOUS
 10
2.342818
 20
-4.429191
  0
VERTEX
  8
EBENE_1
 62
    39
  6
CONTINUOUS
 10
2.343657
 20
-4.425484
  0
VERTEX
  8
EBENE_1
 62
    39
  6
CONTINUOUS
 10
2.343016
 20
-4.421757
  0
VERTEX
  8
EBENE_1
 62
    39
  6
CONTINUOUS
 10
2.341141
 20
-4.419086
  0
SEQEND
  8
0
  0
TEXT
  8
EBENE_1
 62
    39
 10
-3.227445
 20
5.039752
 40
0.276754
  1
Bogenschnittdeckung
 41
1.000000
  7
SN0
 71
     0
 72
     5
 11
-0.036426
 21
5.039752
  0
ENDSEC
  0
EOF
